  0
SECTION
  2
HEADER
  9
$ACADVER
  1
AC1015
  9
$ACADMAINTVER
 70
     6
  9
$DWGCODEPAGE
  3
ANSI_1252
  9
$INSBASE
 10
0.0
 20
0.0
 30
0.0
  9
$EXTMIN
 10
0.0
 20
0.0
 30
0.0
  9
$EXTMAX
 10
420.0
 20
297.0
 30
0.0
  9
$LIMMIN
 10
0.0
 20
0.0
  9
$LIMMAX
 10
420.0
 20
297.0
  9
$ORTHOMODE
 70
     0
  9
$REGENMODE
 70
     1
  9
$FILLMODE
 70
     1
  9
$QTEXTMODE
 70
     0
  9
$MIRRTEXT
 70
     1
  9
$LTSCALE
 40
23.1
  9
$ATTMODE
 70
     1
  9
$TEXTSIZE
 40
0.2
  9
$TRACEWID
 40
0.05
  9
$TEXTSTYLE
  7
STANDARD
  9
$CLAYER
  8
0
  9
$CELTYPE
  6
BYLAYER
  9
$CECOLOR
 62
   256
  9
$CELTSCALE
 40
1.0
  9
$DISPSILH
 70
     0
  9
$DIMSCALE
 40
1.0
  9
$DIMASZ
 40
2.5
  9
$DIMEXO
 40
2.625
  9
$DIMDLI
 40
15.96
  9
$DIMRND
 40
0.0
  9
$DIMDLE
 40
0.0
  9
$DIMEXE
 40
7.56
  9
$DIMTP
 40
0.01
  9
$DIMTM
 40
0.01
  9
$DIMTXT
 40
3.0
  9
$DIMCEN
 40
3.78
  9
$DIMTSZ
 40
0.0
  9
$DIMTOL
 70
     1
  9
$DIMLIM
 70
     0
  9
$DIMTIH
 70
     1
  9
$DIMTOH
 70
     1
  9
$DIMSE1
 70
     0
  9
$DIMSE2
 70
     0
  9
$DIMTAD
 70
     0
  9
$DIMZIN
 70
     0
  9
$DIMBLK
  1
CLOSED
  9
$DIMASO
 70
     1
  9
$DIMSHO
 70
     1
  9
$DIMPOST
  1

  9
$DIMAPOST
  1

  9
$DIMALT
 70
     0
  9
$DIMALTD
 70
     2
  9
$DIMALTF
 40
25.4
  9
$DIMLFAC
 40
1.0
  9
$DIMTOFL
 70
     0
  9
$DIMTVP
 40
0.0
  9
$DIMTIX
 70
     0
  9
$DIMSOXD
 70
     0
  9
$DIMSAH
 70
     0
  9
$DIMBLK1
  1

  9
$DIMBLK2
  1

  9
$DIMSTYLE
  2
STANDARD
  9
$DIMCLRD
 70
     0
  9
$DIMCLRE
 70
     0
  9
$DIMCLRT
 70
     0
  9
$DIMTFAC
 40
1.0
  9
$DIMGAP
 40
0.09
  9
$DIMJUST
 70
     0
  9
$DIMSD1
 70
     0
  9
$DIMSD2
 70
     0
  9
$DIMTOLJ
 70
     1
  9
$DIMTZIN
 70
     0
  9
$DIMALTZ
 70
     0
  9
$DIMALTTZ
 70
     0
  9
$DIMUPT
 70
     0
  9
$DIMDEC
 70
     4
  9
$DIMTDEC
 70
     4
  9
$DIMALTU
 70
     2
  9
$DIMALTTD
 70
     2
  9
$DIMTXSTY
  7
STANDARD
  9
$DIMAUNIT
 70
     0
  9
$DIMADEC
 70
     0
  9
$DIMALTRND
 40
0.0
  9
$DIMAZIN
 70
     0
  9
$DIMDSEP
 70
    46
  9
$DIMATFIT
 70
     3
  9
$DIMFRAC
 70
     0
  9
$DIMLDRBLK
  1

  9
$DIMLUNIT
 70
     2
  9
$DIMLWD
 70
    -2
  9
$DIMLWE
 70
    -2
  9
$DIMTMOVE
 70
     0
  9
$LUNITS
 70
     2
  9
$LUPREC
 70
     4
  9
$SKETCHINC
 40
0.1
  9
$FILLETRAD
 40
0.5
  9
$AUNITS
 70
     0
  9
$AUPREC
 70
     0
  9
$MENU
  1
.
  9
$ELEVATION
 40
0.0
  9
$PELEVATION
 40
0.0
  9
$THICKNESS
 40
0.0
  9
$LIMCHECK
 70
     0
  9
$CHAMFERA
 40
0.0
  9
$CHAMFERB
 40
0.0
  9
$CHAMFERC
 40
0.0
  9
$CHAMFERD
 40
0.0
  9
$SKPOLY
 70
     0
  9
$TDCREATE
 40
2447893.041666667
  9
$TDUCREATE
 40
0.0
  9
$TDUPDATE
 40
2458444.38836309
  9
$TDUUPDATE
 40
2458444.346696424
  9
$TDINDWG
 40
0.0013427431
  9
$TDUSRTIMER
 40
0.0006954977
  9
$USRTIMER
 70
     1
  9
$ANGBASE
 50
0.0
  9
$ANGDIR
 70
     0
  9
$PDMODE
 70
     3
  9
$PDSIZE
 40
0.3125
  9
$PLINEWID
 40
0.0
  9
$SPLFRAME
 70
     0
  9
$SPLINETYPE
 70
     6
  9
$SPLINESEGS
 70
     8
  9
$HANDSEED
  5
514
  9
$SURFTAB1
 70
     6
  9
$SURFTAB2
 70
     6
  9
$SURFTYPE
 70
     6
  9
$SURFU
 70
     6
  9
$SURFV
 70
     6
  9
$UCSBASE
  2

  9
$UCSNAME
  2

  9
$UCSORG
 10
0.0
 20
0.0
 30
0.0
  9
$UCSXDIR
 10
1.0
 20
0.0
 30
0.0
  9
$UCSYDIR
 10
0.0
 20
1.0
 30
0.0
  9
$UCSORTHOREF
  2

  9
$UCSORTHOVIEW
 70
     0
  9
$UCSORGTOP
 10
0.0
 20
0.0
 30
0.0
  9
$UCSORGBOTTOM
 10
0.0
 20
0.0
 30
0.0
  9
$UCSORGLEFT
 10
0.0
 20
0.0
 30
0.0
  9
$UCSORGRIGHT
 10
0.0
 20
0.0
 30
0.0
  9
$UCSORGFRONT
 10
0.0
 20
0.0
 30
0.0
  9
$UCSORGBACK
 10
0.0
 20
0.0
 30
0.0
  9
$PUCSBASE
  2

  9
$PUCSNAME
  2

  9
$PUCSORG
 10
0.0
 20
0.0
 30
0.0
  9
$PUCSXDIR
 10
1.0
 20
0.0
 30
0.0
  9
$PUCSYDIR
 10
0.0
 20
1.0
 30
0.0
  9
$PUCSORTHOREF
  2

  9
$PUCSORTHOVIEW
 70
     0
  9
$PUCSORGTOP
 10
0.0
 20
0.0
 30
0.0
  9
$PUCSORGBOTTOM
 10
0.0
 20
0.0
 30
0.0
  9
$PUCSORGLEFT
 10
0.0
 20
0.0
 30
0.0
  9
$PUCSORGRIGHT
 10
0.0
 20
0.0
 30
0.0
  9
$PUCSORGFRONT
 10
0.0
 20
0.0
 30
0.0
  9
$PUCSORGBACK
 10
0.0
 20
0.0
 30
0.0
  9
$USERI1
 70
     0
  9
$USERI2
 70
     0
  9
$USERI3
 70
     0
  9
$USERI4
 70
     0
  9
$USERI5
 70
     0
  9
$USERR1
 40
0.0
  9
$USERR2
 40
0.0
  9
$USERR3
 40
0.0
  9
$USERR4
 40
0.0
  9
$USERR5
 40
0.0
  9
$WORLDVIEW
 70
     1
  9
$SHADEDGE
 70
     3
  9
$SHADEDIF
 70
    70
  9
$TILEMODE
 70
     1
  9
$MAXACTVP
 70
    64
  9
$PINSBASE
 10
0.0
 20
0.0
 30
0.0
  9
$PLIMCHECK
 70
     0
  9
$PEXTMIN
 10
1.000000000000000E+20
 20
1.000000000000000E+20
 30
1.000000000000000E+20
  9
$PEXTMAX
 10
-1.000000000000000E+20
 20
-1.000000000000000E+20
 30
-1.000000000000000E+20
  9
$PLIMMIN
 10
0.0
 20
0.0
  9
$PLIMMAX
 10
420.0
 20
297.0
  9
$UNITMODE
 70
     0
  9
$VISRETAIN
 70
     1
  9
$PLINEGEN
 70
     0
  9
$PSLTSCALE
 70
     1
  9
$TREEDEPTH
 70
  3020
  9
$CMLSTYLE
  2
Standard
  9
$CMLJUST
 70
     0
  9
$CMLSCALE
 40
1.0
  9
$PROXYGRAPHICS
 70
     1
  9
$MEASUREMENT
 70
     1
  9
$CELWEIGHT
370
    -1
  9
$ENDCAPS
280
     0
  9
$JOINSTYLE
280
     0
  9
$LWDISPLAY
290
     0
  9
$INSUNITS
 70
     4
  9
$HYPERLINKBASE
  1

  9
$STYLESHEET
  1

  9
$XEDIT
290
     1
  9
$CEPSNTYPE
380
     0
  9
$PSTYLEMODE
290
     1
  9
$FINGERPRINTGUID
  2
{F5993D4C-6E9D-4EF6-901C-5C7CE2846559}
  9
$VERSIONGUID
  2
{FAEB1C32-E019-11D5-929B-00C0DF256EC4}
  9
$EXTNAMES
290
     1
  9
$PSVPSCALE
 40
0.0
  9
$OLESTARTUP
290
     0
  0
ENDSEC
  0
SECTION
  2
CLASSES
  0
CLASS
  1
ACDBDICTIONARYWDFLT
  2
AcDbDictionaryWithDefault
  3
ObjectDBX Classes
 90
        0
280
     0
281
     0
  0
CLASS
  1
ACDBPLACEHOLDER
  2
AcDbPlaceHolder
  3
ObjectDBX Classes
 90
        0
280
     0
281
     0
  0
CLASS
  1
LAYOUT
  2
AcDbLayout
  3
ObjectDBX Classes
 90
        0
280
     0
281
     0
  0
CLASS
  1
TABLESTYLE
  2
AcDbTableStyle
  3
ObjectDBX Classes
 90
     4095
280
     0
281
     0
  0
CLASS
  1
ACAD_TABLE
  2
AcDbTable
  3
ObjectDBX Classes
 90
     1025
280
     0
281
     1
  0
CLASS
  1
SCALE
  2
AcDbScale
  3
ObjectDBX Classes
 90
     1153
280
     0
281
     0
  0
CLASS
  1
TABLEGEOMETRY
  2
AcDbTableGeometry
  3
ObjectDBX Classes
 90
     1152
280
     0
281
     0
  0
CLASS
  1
VISUALSTYLE
  2
AcDbVisualStyle
  3
ObjectDBX Classes
 90
     4095
280
     0
281
     0
  0
CLASS
  1
MATERIAL
  2
AcDbMaterial
  3
ObjectDBX Classes
 90
     1153
280
     0
281
     0
  0
CLASS
  1
SUN
  2
AcDbSun
  3
SCENEOE
 90
     1153
280
     0
281
     0
  0
CLASS
  1
RASTERVARIABLES
  2
AcDbRasterVariables
  3
ISM
 90
        0
280
     0
281
     0
  0
CLASS
  1
MLEADERSTYLE
  2
AcDbMLeaderStyle
  3
ACDB_MLEADERSTYLE_CLASS
 90
     4095
280
     0
281
     0
  0
ENDSEC
  0
SECTION
  2
TABLES
  0
TABLE
  2
VPORT
  5
8
330
0
100
AcDbSymbolTable
 70
     1
  0
VPORT
  5
1F4
330
8
100
AcDbSymbolTableRecord
100
AcDbViewportTableRecord
  2
*ACTIVE
 70
     0
 10
0.0
 20
0.0
 11
1.0
 21
1.0
 12
210.0
 22
148.5
 13
0.0
 23
0.0
 14
1.0
 24
1.0
 15
0.0
 25
0.0
 16
0.0
 26
0.0
 36
1.0
 17
0.0
 27
0.0
 37
0.0
 40
297.0
 41
1.4141414141
 42
50.0
 43
0.0
 44
0.0
 50
0.0
 51
0.0
 71
     0
 72
   100
 73
     1
 74
     1
 75
     0
 76
     0
 77
     0
 78
     0
281
     0
 65
     1
110
0.0
120
0.0
130
0.0
111
1.0
121
0.0
131
0.0
112
0.0
122
1.0
132
0.0
 79
     0
146
0.0
  0
ENDTAB
  0
TABLE
  2
LTYPE
  5
5
330
0
100
AcDbSymbolTable
 70
     6
  0
LTYPE
  5
14
330
5
100
AcDbSymbolTableRecord
100
AcDbLinetypeTableRecord
  2
BYBLOCK
 70
     0
  3

 72
    65
 73
     0
 40
0.0
  0
LTYPE
  5
15
330
5
100
AcDbSymbolTableRecord
100
AcDbLinetypeTableRecord
  2
BYLAYER
 70
     0
  3

 72
    65
 73
     0
 40
0.0
  0
LTYPE
  5
16
330
5
100
AcDbSymbolTableRecord
100
AcDbLinetypeTableRecord
  2
CONTINUOUS
 70
     0
  3
Solid line
 72
    65
 73
     0
 40
0.0
  0
LTYPE
  5
1F5
330
5
100
AcDbSymbolTableRecord
100
AcDbLinetypeTableRecord
  2
CENTER
 70
     0
  3
____ _ ____ _ ____ _ ____ _ ____ _ ____ _ ____
 72
    65
 73
     4
 40
0.6
 49
0.375
 74
     0
 49
-0.075
 74
     0
 49
0.075
 74
     0
 49
-0.075
 74
     0
  0
LTYPE
  5
1F6
330
5
100
AcDbSymbolTableRecord
100
AcDbLinetypeTableRecord
  2
HIDDEN
 70
     0
  3
- - - - - - - - - - - - - - - - - - - -
 72
    65
 73
     2
 40
0.2
 49
0.1
 74
     0
 49
-0.1
 74
     0
  0
LTYPE
  5
1F7
330
5
100
AcDbSymbolTableRecord
100
AcDbLinetypeTableRecord
  2
PHANTOM
 70
     0
  3
_____ _ _ _____ _ _ _____ _ _ _____
 72
    65
 73
     6
 40
0.8
 49
0.45
 74
     0
 49
-0.05
 74
     0
 49
0.1
 74
     0
 49
-0.05
 74
     0
 49
0.1
 74
     0
 49
-0.05
 74
     0
  0
LTYPE
  5
1F8
330
5
100
AcDbSymbolTableRecord
100
AcDbLinetypeTableRecord
  2
DOT
 70
     0
  3
. . . . . . . . . . . . . . . . . . . .
 72
    65
 73
     2
 40
0.2
 49
0.1
 74
     0
 49
-0.1
 74
     0
  0
LTYPE
  5
1F9
330
5
100
AcDbSymbolTableRecord
100
AcDbLinetypeTableRecord
  2
DASHED
 70
     0
  3
- - - - - - - - - - - - - - - - - - - -
 72
    65
 73
     2
 40
0.2
 49
0.1
 74
     0
 49
-0.1
 74
     0
  0
ENDTAB
  0
TABLE
  2
LAYER
  5
2
330
0
100
AcDbSymbolTable
 70
    33
  0
LAYER
  5
10
330
2
100
AcDbSymbolTableRecord
100
AcDbLayerTableRecord
  2
0
 70
     0
 62
     7
  6
CONTINUOUS
370
    -3
390
F
  0
LAYER
  5
1FA
330
2
100
AcDbSymbolTableRecord
100
AcDbLayerTableRecord
  2
DEFAULT_1
 70
     0
 62
     7
  6
CENTER
370
    -3
390
F
  0
LAYER
  5
1FB
330
2
100
AcDbSymbolTableRecord
100
AcDbLayerTableRecord
  2
DEFAULT_2
 70
     0
 62
     8
  6
HIDDEN
370
    -3
390
F
  0
LAYER
  5
1FC
330
2
100
AcDbSymbolTableRecord
100
AcDbLayerTableRecord
  2
DEFAULT_3
 70
     0
 62
     7
  6
PHANTOM
370
    -3
390
F
  0
LAYER
  5
1FD
330
2
100
AcDbSymbolTableRecord
100
AcDbLayerTableRecord
  2
01_ALL_DTM_PLN
 70
     0
 62
     7
  6
CONTINUOUS
370
    -3
390
F
  0
LAYER
  5
1FE
330
2
100
AcDbSymbolTableRecord
100
AcDbLayerTableRecord
  2
01__ASM_ALL_DTM_PLN
 70
     0
 62
     7
  6
CONTINUOUS
370
    -3
390
F
  0
LAYER
  5
1FF
330
2
100
AcDbSymbolTableRecord
100
AcDbLayerTableRecord
  2
01__ASM_DEF_DTM_PLN
 70
     0
 62
     7
  6
CONTINUOUS
370
    -3
390
F
  0
LAYER
  5
200
330
2
100
AcDbSymbolTableRecord
100
AcDbLayerTableRecord
  2
01___PRT_ALL_DTM_PLN
 70
     0
 62
     7
  6
CONTINUOUS
370
    -3
390
F
  0
LAYER
  5
201
330
2
100
AcDbSymbolTableRecord
100
AcDbLayerTableRecord
  2
01___PRT_DEF_DTM_PLN
 70
     0
 62
     7
  6
CONTINUOUS
370
    -3
390
F
  0
LAYER
  5
202
330
2
100
AcDbSymbolTableRecord
100
AcDbLayerTableRecord
  2
02_ALL_AXES
 70
     0
 62
     7
  6
CONTINUOUS
370
    -3
390
F
  0
LAYER
  5
203
330
2
100
AcDbSymbolTableRecord
100
AcDbLayerTableRecord
  2
02__ASM_ALL_AXES
 70
     0
 62
     7
  6
CONTINUOUS
370
    -3
390
F
  0
LAYER
  5
204
330
2
100
AcDbSymbolTableRecord
100
AcDbLayerTableRecord
  2
02___PRT_ALL_AXES
 70
     0
 62
     7
  6
CONTINUOUS
370
    -3
390
F
  0
LAYER
  5
205
330
2
100
AcDbSymbolTableRecord
100
AcDbLayerTableRecord
  2
03_ALL_CURVES
 70
     0
 62
     7
  6
CONTINUOUS
370
    -3
390
F
  0
LAYER
  5
206
330
2
100
AcDbSymbolTableRecord
100
AcDbLayerTableRecord
  2
03__ASM_ALL_CURVES
 70
     0
 62
     7
  6
CONTINUOUS
370
    -3
390
F
  0
LAYER
  5
207
330
2
100
AcDbSymbolTableRecord
100
AcDbLayerTableRecord
  2
03___PRT_ALL_CURVES
 70
     0
 62
     7
  6
CONTINUOUS
370
    -3
390
F
  0
LAYER
  5
208
330
2
100
AcDbSymbolTableRecord
100
AcDbLayerTableRecord
  2
04_ALL_DTM_PNT
 70
     0
 62
     7
  6
CONTINUOUS
370
    -3
390
F
  0
LAYER
  5
209
330
2
100
AcDbSymbolTableRecord
100
AcDbLayerTableRecord
  2
04__ASM_ALL_DTM_PNT
 70
     0
 62
     7
  6
CONTINUOUS
370
    -3
390
F
  0
LAYER
  5
20A
330
2
100
AcDbSymbolTableRecord
100
AcDbLayerTableRecord
  2
04___PRT_ALL_DTM_PNT
 70
     0
 62
     7
  6
CONTINUOUS
370
    -3
390
F
  0
LAYER
  5
20B
330
2
100
AcDbSymbolTableRecord
100
AcDbLayerTableRecord
  2
05_ALL_DTM_CSYS
 70
     0
 62
     7
  6
CONTINUOUS
370
    -3
390
F
  0
LAYER
  5
20C
330
2
100
AcDbSymbolTableRecord
100
AcDbLayerTableRecord
  2
05__ASM_ALL_DTM_CSYS
 70
     0
 62
     7
  6
CONTINUOUS
370
    -3
390
F
  0
LAYER
  5
20D
330
2
100
AcDbSymbolTableRecord
100
AcDbLayerTableRecord
  2
05__ASM_DEF_DTM_CSYS
 70
     0
 62
     7
  6
CONTINUOUS
370
    -3
390
F
  0
LAYER
  5
20E
330
2
100
AcDbSymbolTableRecord
100
AcDbLayerTableRecord
  2
05___PRT_ALL_DTM_CSYS
 70
     0
 62
     7
  6
CONTINUOUS
370
    -3
390
F
  0
LAYER
  5
20F
330
2
100
AcDbSymbolTableRecord
100
AcDbLayerTableRecord
  2
05___PRT_DEF_DTM_CSYS
 70
     0
 62
     7
  6
CONTINUOUS
370
    -3
390
F
  0
LAYER
  5
210
330
2
100
AcDbSymbolTableRecord
100
AcDbLayerTableRecord
  2
06_ALL_SURFS
 70
     0
 62
     7
  6
CONTINUOUS
370
    -3
390
F
  0
LAYER
  5
211
330
2
100
AcDbSymbolTableRecord
100
AcDbLayerTableRecord
  2
06__ASM_ALL_SURFS
 70
     0
 62
     7
  6
CONTINUOUS
370
    -3
390
F
  0
LAYER
  5
212
330
2
100
AcDbSymbolTableRecord
100
AcDbLayerTableRecord
  2
06___PRT_ALL_SURFS
 70
     0
 62
     7
  6
CONTINUOUS
370
    -3
390
F
  0
LAYER
  5
213
330
2
100
AcDbSymbolTableRecord
100
AcDbLayerTableRecord
  2
07__ASM_ALL_SKELETONS
 70
     0
 62
     7
  6
CONTINUOUS
370
    -3
390
F
  0
LAYER
  5
214
330
2
100
AcDbSymbolTableRecord
100
AcDbLayerTableRecord
  2
1_ALL_PLANES
 70
     0
 62
     7
  6
CONTINUOUS
370
    -3
390
F
  0
LAYER
  5
215
330
2
100
AcDbSymbolTableRecord
100
AcDbLayerTableRecord
  2
3_ALL_AXES
 70
     0
 62
     7
  6
CONTINUOUS
370
    -3
390
F
  0
LAYER
  5
216
330
2
100
AcDbSymbolTableRecord
100
AcDbLayerTableRecord
  2
5_ALL_CURVES
 70
     0
 62
     7
  6
CONTINUOUS
370
    -3
390
F
  0
LAYER
  5
217
330
2
100
AcDbSymbolTableRecord
100
AcDbLayerTableRecord
  2
7_ALL_FEATURES
 70
     0
 62
     7
  6
CONTINUOUS
370
    -3
390
F
  0
LAYER
  5
218
330
2
100
AcDbSymbolTableRecord
100
AcDbLayerTableRecord
  2
8_ALL_NOTES_BALLOONS_SYMBOLS_GT
 70
     0
 62
     7
  6
CONTINUOUS
370
    -3
390
F
  0
LAYER
  5
4CD
330
2
100
AcDbSymbolTableRecord
100
AcDbLayerTableRecord
  2
Defpoints
 70
     0
 62
     7
  6
CONTINUOUS
290
     0
370
    -3
390
F
  0
ENDTAB
  0
TABLE
  2
STYLE
  5
3
330
0
100
AcDbSymbolTable
 70
     6
  0
STYLE
  5
11
330
3
100
AcDbSymbolTableRecord
100
AcDbTextStyleTableRecord
  2
STANDARD
 70
     0
 40
0.0
 41
0.85
 50
0.0
 71
     0
 42
0.2
  3
txt
  4

  0
STYLE
  5
219
330
3
100
AcDbSymbolTableRecord
100
AcDbTextStyleTableRecord
  2
TEXTSTYLE_1
 70
     0
 40
0.0
 41
0.8
 50
0.0
 71
     0
 42
0.2
  3
gdt
  4

  0
STYLE
  5
21A
330
3
100
AcDbSymbolTableRecord
100
AcDbTextStyleTableRecord
  2
TEXTSTYLE_2
 70
     0
 40
0.0
 41
0.9
 50
0.0
 71
     0
 42
0.2
  3
txt
  4

  0
STYLE
  5
21B
330
3
100
AcDbSymbolTableRecord
100
AcDbTextStyleTableRecord
  2
TEXTSTYLE_3
 70
     0
 40
0.0
 41
0.9
 50
0.0
 71
     0
 42
0.2
  3
txt
  4

  0
STYLE
  5
21C
330
3
100
AcDbSymbolTableRecord
100
AcDbTextStyleTableRecord
  2
TEXTSTYLE_4
 70
     0
 40
0.0
 41
0.85
 50
0.0
 71
     0
 42
0.2
  3
gdt
  4

  0
STYLE
  5
21D
330
3
100
AcDbSymbolTableRecord
100
AcDbTextStyleTableRecord
  2
TEXTSTYLE_5
 70
     0
 40
0.0
 41
0.85
 50
0.0
 71
     0
 42
0.2
  3
txt
  4

  0
ENDTAB
  0
TABLE
  2
VIEW
  5
6
330
0
100
AcDbSymbolTable
 70
     0
  0
ENDTAB
  0
TABLE
  2
UCS
  5
7
330
0
100
AcDbSymbolTable
 70
     0
  0
ENDTAB
  0
TABLE
  2
APPID
  5
9
330
0
100
AcDbSymbolTable
 70
     1
  0
APPID
  5
21E
330
9
100
AcDbSymbolTableRecord
100
AcDbRegAppTableRecord
  2
ACAD
 70
     0
  0
ENDTAB
  0
TABLE
  2
DIMSTYLE
  5
A
330
0
100
AcDbSymbolTable
 70
     4
100
AcDbDimStyleTable
  0
DIMSTYLE
105
227
330
A
100
AcDbSymbolTableRecord
100
AcDbDimStyleTableRecord
  2
STANDARD
 70
     0
 41
2.5
 47
0.01
 48
0.01
 71
     1
 73
     0
 74
     0
 77
     1
 78
     8
140
3.0
178
     0
271
     2
272
     2
284
     8
340
11
341
221
342
221
343
221
344
221
  0
DIMSTYLE
105
228
330
A
100
AcDbSymbolTableRecord
100
AcDbDimStyleTableRecord
  2
DIMSTYLE_1
 70
     0
 41
2.5
 47
0.5
 48
0.5
 73
     0
 74
     0
 77
     1
 78
     8
140
3.0
144
2.0
178
     0
271
     2
272
     2
284
     8
340
11
341
221
342
221
343
221
344
221
  0
DIMSTYLE
105
229
330
A
100
AcDbSymbolTableRecord
100
AcDbDimStyleTableRecord
  2
DIMSTYLE_2
 70
     0
 41
2.5
 47
0.3
 48
0.3
 73
     0
 74
     0
 77
     1
 78
     8
140
3.0
144
2.0
178
     0
271
     2
272
     2
284
     8
340
11
341
221
342
221
343
221
344
221
  0
DIMSTYLE
105
22A
330
A
100
AcDbSymbolTableRecord
100
AcDbDimStyleTableRecord
  2
DIMSTYLE_3
 70
     0
 41
2.5
 47
0.1
 48
0.1
 73
     0
 74
     0
 77
     1
 78
     8
140
3.0
144
2.0
178
     0
271
     2
272
     2
284
     8
340
11
341
221
342
221
343
221
344
221
  0
ENDTAB
  0
TABLE
  2
BLOCK_RECORD
  5
1
330
0
100
AcDbSymbolTable
 70
     6
  0
BLOCK_RECORD
  5
21F
330
1
100
AcDbSymbolTableRecord
100
AcDbBlockTableRecord
  2
*Model_Space
340
484
  0
BLOCK_RECORD
  5
220
330
1
100
AcDbSymbolTableRecord
100
AcDbBlockTableRecord
  2
*Paper_Space
340
485
  0
BLOCK_RECORD
  5
221
330
1
100
AcDbSymbolTableRecord
100
AcDbBlockTableRecord
  2
_CLOSED
340
0
102
{BLKREFS
331
270
331
276
331
277
331
281
331
282
102
}
  0
BLOCK_RECORD
  5
222
330
1
100
AcDbSymbolTableRecord
100
AcDbBlockTableRecord
  2
*D1
340
0
  0
BLOCK_RECORD
  5
223
330
1
100
AcDbSymbolTableRecord
100
AcDbBlockTableRecord
  2
*D2
340
0
  0
BLOCK_RECORD
  5
224
330
1
100
AcDbSymbolTableRecord
100
AcDbBlockTableRecord
  2
*D3
340
0
  0
BLOCK_RECORD
  5
225
330
1
100
AcDbSymbolTableRecord
100
AcDbBlockTableRecord
  2
LOGO2_BL0
340
0
102
{BLKREFS
331
2AA
102
}
  0
BLOCK_RECORD
  5
226
330
1
100
AcDbSymbolTableRecord
100
AcDbBlockTableRecord
  2
*T5
340
0
102
{BLKREFS
331
2AB
102
}
  0
ENDTAB
  0
ENDSEC
  0
SECTION
  2
BLOCKS
  0
BLOCK
  5
20
330
21F
100
AcDbEntity
  8
0
100
AcDbBlockBegin
  2
*Model_Space
 70
     0
 10
0.0
 20
0.0
 30
0.0
  3
*Model_Space
  1
*Model_Space
  0
ENDBLK
  5
21
330
21F
100
AcDbEntity
  8
0
100
AcDbBlockEnd
  0
BLOCK
  5
1C
330
220
100
AcDbEntity
 67
     1
  8
0
100
AcDbBlockBegin
  2
*Paper_Space
 70
     0
 10
0.0
 20
0.0
 30
0.0
  3
*Paper_Space
  1
*Paper_Space
  0
ENDBLK
  5
1D
330
220
100
AcDbEntity
 67
     1
  8
0
100
AcDbBlockEnd
  0
BLOCK
  5
267
330
221
100
AcDbEntity
  8
0
100
AcDbBlockBegin
  2
_CLOSED
 70
     0
 10
0.0
 20
0.0
 30
0.0
  3
_CLOSED
  1
_CLOSED
  0
LINE
  5
268
330
221
100
AcDbEntity
  8
0
  6
ByBlock
 62
     0
100
AcDbLine
 10
0.0
 20
0.0
 30
0.0
 11
-1.0
 21
0.2
 31
0.0
  0
LINE
  5
269
330
221
100
AcDbEntity
  8
0
  6
ByBlock
 62
     0
100
AcDbLine
 10
-1.0
 20
0.2
 30
0.0
 11
-1.0
 21
-0.2
 31
0.0
  0
LINE
  5
26A
330
221
100
AcDbEntity
  8
0
  6
ByBlock
 62
     0
100
AcDbLine
 10
-1.0
 20
-0.2
 30
0.0
 11
0.0
 21
0.0
 31
0.0
  0
LINE
  5
26B
330
221
100
AcDbEntity
  8
0
  6
ByBlock
 62
     0
100
AcDbLine
 10
-1.0
 20
0.0
 30
0.0
 11
0.0
 21
0.0
 31
0.0
  0
ENDBLK
  5
26C
330
221
100
AcDbEntity
  8
0
  6
ByBlock
 62
     0
100
AcDbBlockEnd
  0
BLOCK
  5
26D
330
222
100
AcDbEntity
  8
0
100
AcDbBlockBegin
  2
*D1
 70
     1
 10
0.0
 20
0.0
 30
0.0
  3
*D1
  1
*D1
  0
LINE
  5
26E
330
222
100
AcDbEntity
  8
0
  6
Continuous
 62
     0
370
    -2
100
AcDbLine
 10
107.0163074881389
 20
107.7555628072113
 30
0.0
 11
118.3238311123599
 21
116.9517867326975
 31
0.0
  0
MTEXT
  5
26F
330
222
100
AcDbEntity
  8
0
 62
     0
100
AcDbMText
 10
107.3526873633748
 20
114.4739590875401
 30
0.0
 40
3.0
 41
0.0
 71
     1
 72
     1
  1
\A1;%%c150
 11
0.7758163721592406
 21
0.6309587598961399
 31
0.0
 73
     1
 44
1.0
  0
INSERT
  5
270
330
222
100
AcDbEntity
  8
0
 62
     0
370
    -2
100
AcDbBlockReference
  2
_CLOSED
 10
105.0767665577409
 20
106.178165907471
 30
0.0
 41
2.5
 42
2.5
 43
2.5
 50
219.120893576515
  0
LINE
  5
4D0
330
222
100
AcDbEntity
  8
0
  6
Continuous
 62
     0
100
AcDbLine
 10
75.89365260175127
 20
82.51721241135104
 30
0.0
 11
76.07365260175128
 21
82.51721241135104
 31
0.0
  0
LINE
  5
4D1
330
222
100
AcDbEntity
  8
0
  6
Continuous
 62
     0
100
AcDbLine
 10
75.98365260175127
 20
82.42721241135104
 30
0.0
 11
75.98365260175127
 21
82.60721241135104
 31
0.0
  0
POINT
  5
4D4
330
222
100
AcDbEntity
  8
Defpoints
 62
     0
100
AcDbPoint
 10
105.0767665577409
 20
106.178165907471
 30
0.0
  0
POINT
  5
4D5
330
222
100
AcDbEntity
  8
Defpoints
 62
     0
100
AcDbPoint
 10
46.89053864576169
 20
58.8562589152311
 30
0.0
  0
ENDBLK
  5
271
330
222
100
AcDbEntity
  8
0
  6
ByBlock
 62
     0
100
AcDbBlockEnd
  0
BLOCK
  5
272
330
223
100
AcDbEntity
  8
0
100
AcDbBlockBegin
  2
*D2
 70
     1
 10
0.0
 20
0.0
 30
0.0
  3
*D2
  1
*D2
  0
LINE
  5
273
330
223
100
AcDbEntity
  8
0
  6
Continuous
 62
     0
370
    -2
100
AcDbLine
 10
116.4917954469
 20
234.0435440875
 30
0.0
 11
127.3824050811
 21
234.0435440875
 31
0.0
  0
LINE
  5
274
330
223
100
AcDbEntity
  8
0
  6
Continuous
 62
     0
370
    -2
100
AcDbLine
 10
116.0990681742
 20
199.0435440875
 30
0.0
 11
127.3824050811
 21
199.0435440875
 31
0.0
  0
LINE
  5
275
330
223
100
AcDbEntity
  8
0
  6
Continuous
 62
     0
370
    -2
100
AcDbLine
 10
127.2024050811
 20
231.5435440875
 30
0.0
 11
127.2024050811
 21
201.5435440875
 31
0.0
  0
INSERT
  5
276
330
223
100
AcDbEntity
  8
0
 62
     0
370
    -2
100
AcDbBlockReference
  2
_CLOSED
 10
127.2024050811
 20
234.0435440875
 30
0.0
 41
2.5
 42
2.5
 43
2.5
 50
90.0
  0
INSERT
  5
277
330
223
100
AcDbEntity
  8
0
 62
     0
370
    -2
100
AcDbBlockReference
  2
_CLOSED
 10
127.2024050811
 20
199.0435440875
 30
0.0
 41
2.5
 42
2.5
 43
2.5
 50
270.0
  0
MTEXT
  5
278
330
223
100
AcDbEntity
  8
0
 62
     0
100
AcDbMText
 10
122.2024050811
 20
216.5435440875
 30
0.0
 40
3.0
 41
0.0
 71
     2
 72
     1
  1
\A1;70
 11
0.0
 21
1.0
 31
0.0
 73
     1
 44
1.0
  0
POINT
  5
279
330
223
100
AcDbEntity
  8
Defpoints
 62
     0
100
AcDbPoint
 10
116.4292954469
 20
234.0435440875
 30
0.0
  0
POINT
  5
4CE
330
223
100
AcDbEntity
  8
Defpoints
 62
     0
100
AcDbPoint
 10
116.0365681742
 20
199.0435440875
 30
0.0
  0
POINT
  5
4CF
330
223
100
AcDbEntity
  8
Defpoints
 62
     0
100
AcDbPoint
 10
127.2024050811
 20
199.0435440875
 30
0.0
  0
ENDBLK
  5
27A
330
223
100
AcDbEntity
  8
0
  6
ByBlock
 62
     0
100
AcDbBlockEnd
  0
BLOCK
  5
27B
330
224
100
AcDbEntity
  8
0
100
AcDbBlockBegin
  2
*D3
 70
     1
 10
0.0
 20
0.0
 30
0.0
  3
*D3
  1
*D3
  0
LINE
  5
27C
330
224
100
AcDbEntity
  8
0
  6
Continuous
 62
     0
370
    -2
100
AcDbLine
 10
242.1434028287
 20
232.5435440875
 30
0.0
 11
253.9057932924
 21
232.5435440875
 31
0.0
  0
LINE
  5
27D
330
224
100
AcDbEntity
  8
0
  6
Continuous
 62
     0
370
    -2
100
AcDbLine
 10
241.9503695196
 20
234.0435440875
 30
0.0
 11
253.9057932924
 21
234.0435440875
 31
0.0
  0
LINE
  5
27E
330
224
100
AcDbEntity
  8
0
  6
Continuous
 62
     0
370
    -2
100
AcDbLine
 10
253.7257932924
 20
234.0435440875
 30
0.0
 11
253.7257932924
 21
244.7435440875
 31
0.0
  0
LINE
  5
27F
330
224
100
AcDbEntity
  8
0
  6
Continuous
 62
     0
370
    -2
100
AcDbLine
 10
253.7257932924
 20
230.0435440875
 30
0.0
 11
253.7257932924
 21
227.5435440875
 31
0.0
  0
LINE
  5
280
330
224
100
AcDbEntity
  8
0
  6
Continuous
 62
     0
370
    -2
100
AcDbLine
 10
253.7257932924
 20
236.5435440875
 30
0.0
 11
253.7257932924
 21
239.0435440875
 31
0.0
  0
INSERT
  5
281
330
224
100
AcDbEntity
  8
0
 62
     0
370
    -2
100
AcDbBlockReference
  2
_CLOSED
 10
253.7257932924
 20
232.5435440875
 30
0.0
 41
2.5
 42
2.5
 43
2.5
 50
90.0
  0
INSERT
  5
282
330
224
100
AcDbEntity
  8
0
 62
     0
370
    -2
100
AcDbBlockReference
  2
_CLOSED
 10
253.7257932924
 20
234.0435440875
 30
0.0
 41
2.5
 42
2.5
 43
2.5
 50
270.0
  0
MTEXT
  5
283
330
224
100
AcDbEntity
  8
0
 62
     0
100
AcDbMText
 10
248.7257932924
 20
241.0435440875
 30
0.0
 40
3.0
 41
0.0
 71
     1
 72
     1
  1
\A1;3
 11
0.0
 21
1.0
 31
0.0
 73
     1
 44
1.0
  0
POINT
  5
284
330
224
100
AcDbEntity
  8
Defpoints
 62
     0
100
AcDbPoint
 10
242.0809028287
 20
232.5435440875
 30
0.0
  0
POINT
  5
4D2
330
224
100
AcDbEntity
  8
Defpoints
 62
     0
100
AcDbPoint
 10
241.8878695196
 20
234.0435440875
 30
0.0
  0
POINT
  5
4D3
330
224
100
AcDbEntity
  8
Defpoints
 62
     0
100
AcDbPoint
 10
255.9757932924
 20
234.0435440875
 30
0.0
  0
ENDBLK
  5
285
330
224
100
AcDbEntity
  8
0
  6
ByBlock
 62
     0
100
AcDbBlockEnd
  0
BLOCK
  5
22B
330
225
100
AcDbEntity
  8
0
100
AcDbBlockBegin
  2
LOGO2_BL0
 70
     0
 10
333.1473869546
 20
37.5239270671
 30
0.0
  3
LOGO2_BL0
  1
LOGO2_BL0
  0
LINE
  5
22C
330
225
100
AcDbEntity
  8
0
  6
Continuous
 62
     7
100
AcDbLine
 10
324.8903121828
 20
40.7194184059
 30
0.0
 11
323.5859712535
 21
40.7194184059
 31
0.0
  0
LINE
  5
22D
330
225
100
AcDbEntity
  8
0
  6
Continuous
 62
     7
100
AcDbLine
 10
323.5859712535
 20
40.7194184059
 30
0.0
 11
323.5859712535
 21
30.260352346
 31
0.0
  0
LINE
  5
22E
330
225
100
AcDbEntity
  8
0
  6
Continuous
 62
     7
100
AcDbLine
 10
323.5859712535
 20
30.260352346
 30
0.0
 11
328.0670261417
 21
30.260352346
 31
0.0
  0
LINE
  5
22F
330
225
100
AcDbEntity
  8
0
  6
Continuous
 62
     7
100
AcDbLine
 10
328.0670261417
 20
30.260352346
 30
0.0
 11
328.0670261417
 21
31.4532066711
 31
0.0
  0
LINE
  5
230
330
225
100
AcDbEntity
  8
0
  6
Continuous
 62
     7
100
AcDbLine
 10
328.0670261417
 20
31.4532066711
 30
0.0
 11
324.8903121828
 21
31.4532066711
 31
0.0
  0
LINE
  5
231
330
225
100
AcDbEntity
  8
0
  6
Continuous
 62
     7
100
AcDbLine
 10
324.8903121828
 20
31.4532066711
 30
0.0
 11
324.8903121828
 21
40.7194184059
 31
0.0
  0
LINE
  5
232
330
225
100
AcDbEntity
  8
0
  6
Continuous
 62
     7
100
AcDbLine
 10
339.8266383991
 20
40.7194184059
 30
0.0
 11
338.522820881
 21
40.7194184059
 31
0.0
  0
LINE
  5
233
330
225
100
AcDbEntity
  8
0
  6
Continuous
 62
     7
100
AcDbLine
 10
338.522820881
 20
40.7194184059
 30
0.0
 11
338.522820881
 21
30.260352346
 31
0.0
  0
LINE
  5
234
330
225
100
AcDbEntity
  8
0
  6
Continuous
 62
     7
100
AcDbLine
 10
338.522820881
 20
30.260352346
 30
0.0
 11
343.0040066221
 21
30.260352346
 31
0.0
  0
LINE
  5
235
330
225
100
AcDbEntity
  8
0
  6
Continuous
 62
     7
100
AcDbLine
 10
343.0040066221
 20
30.260352346
 30
0.0
 11
343.0040066221
 21
31.4532066711
 31
0.0
  0
LINE
  5
236
330
225
100
AcDbEntity
  8
0
  6
Continuous
 62
     7
100
AcDbLine
 10
343.0040066221
 20
31.4532066711
 30
0.0
 11
339.8266383991
 21
31.4532066711
 31
0.0
  0
LINE
  5
237
330
225
100
AcDbEntity
  8
0
  6
Continuous
 62
     7
100
AcDbLine
 10
339.8266383991
 20
31.4532066711
 30
0.0
 11
339.8266383991
 21
40.7194184059
 31
0.0
  0
LWPOLYLINE
  5
238
330
225
100
AcDbEntity
  8
0
  6
Continuous
 62
     7
100
AcDbPolyline
 90
        2
 70
     0
 43
0.2
 10
321.9403661644
 20
26.9168010391
 10
321.9403661644
 20
25.0597377898
  0
LWPOLYLINE
  5
239
330
225
100
AcDbEntity
  8
0
  6
Continuous
 62
     7
100
AcDbPolyline
 90
        2
 70
     0
 43
0.2
 10
321.9403661644
 20
25.0597377898
 10
322.7360821748
 20
25.0597377898
  0
LWPOLYLINE
  5
23A
330
225
100
AcDbEntity
  8
0
  6
Continuous
 62
     7
100
AcDbPolyline
 90
        2
 70
     0
 43
0.2
 10
322.7360821748
 20
25.0597377898
 10
322.7360821748
 20
25.2717193614
  0
LWPOLYLINE
  5
23B
330
225
100
AcDbEntity
  8
0
  6
Continuous
 62
     7
100
AcDbPolyline
 90
        2
 70
     0
 43
0.2
 10
322.7360821748
 20
25.2717193614
 10
322.1719756593
 20
25.2717193614
  0
LWPOLYLINE
  5
23C
330
225
100
AcDbEntity
  8
0
  6
Continuous
 62
     7
100
AcDbPolyline
 90
        2
 70
     0
 43
0.2
 10
322.1719756593
 20
25.2717193614
 10
322.1719756593
 20
26.9168010391
  0
LWPOLYLINE
  5
23D
330
225
100
AcDbEntity
  8
0
  6
Continuous
 62
     7
100
AcDbPolyline
 90
        2
 70
     0
 43
0.2
 10
322.1719756593
 20
26.9168010391
 10
321.9403661644
 20
26.9168010391
  0
SPLINE
  5
23E
330
225
100
AcDbEntity
  8
0
  6
Continuous
 62
     7
100
AcDbSpline
 70
     3
 71
     3
 72
    35
 73
    31
 74
     0
 42
0.000000001
 43
0.0000001
 40
0.0
 40
0.0
 40
0.0
 40
0.0
 40
1.0
 40
1.0
 40
1.0
 40
2.0
 40
2.0
 40
2.0
 40
3.0
 40
3.0
 40
3.0
 40
4.0
 40
4.0
 40
4.0
 40
5.0
 40
5.0
 40
5.0
 40
6.0
 40
6.0
 40
6.0
 40
7.0
 40
7.0
 40
7.0
 40
8.0
 40
8.0
 40
8.0
 40
9.0
 40
9.0
 40
9.0
 40
10.0
 40
10.0
 40
10.0
 40
10.0
 10
324.1343754303
 20
26.2122894457
 30
0.0
 10
324.1343754303
 20
26.2122894457
 30
0.0
 10
324.1343754303
 20
25.5501741665
 30
0.0
 10
324.1343754303
 20
25.5501741665
 30
0.0
 10
324.1343754303
 20
25.2350805712
 30
0.0
 10
324.2822391191
 20
25.0204819432
 30
0.0
 10
324.6223256034
 20
25.0204819432
 30
0.0
 10
324.9618886764
 20
25.0204819432
 30
0.0
 10
325.1100140709
 20
25.2350805712
 30
0.0
 10
325.1100140709
 20
25.5501741665
 30
0.0
 10
325.1100140709
 20
25.5501741665
 30
0.0
 10
325.1100140709
 20
26.2122894457
 30
0.0
 10
325.1100140709
 20
26.2122894457
 30
0.0
 10
325.1100140709
 20
26.2122894457
 30
0.0
 10
324.887956832
 20
26.2122894457
 30
0.0
 10
324.887956832
 20
26.2122894457
 30
0.0
 10
324.887956832
 20
26.2122894457
 30
0.0
 10
324.887956832
 20
25.5752979083
 30
0.0
 10
324.887956832
 20
25.5752979083
 30
0.0
 10
324.887956832
 20
25.3894869011
 30
0.0
 10
324.8412423746
 20
25.2267059906
 30
0.0
 10
324.6223256034
 20
25.2267059906
 30
0.0
 10
324.402885421
 20
25.2267059906
 30
0.0
 10
324.3561709636
 20
25.3894869011
 30
0.0
 10
324.3561709636
 20
25.5752979083
 30
0.0
 10
324.3561709636
 20
25.5752979083
 30
0.0
 10
324.3561709636
 20
26.2122894457
 30
0.0
 10
324.3561709636
 20
26.2122894457
 30
0.0
 10
324.3561709636
 20
26.2122894457
 30
0.0
 10
324.1343754303
 20
26.2122894457
 30
0.0
 10
324.1343754303
 20
26.2122894457
 30
0.0
  0
SPLINE
  5
23F
330
225
100
AcDbEntity
  8
0
  6
Continuous
 62
     7
100
AcDbSpline
 70
     3
 71
     3
 72
    35
 73
    31
 74
     0
 42
0.000000001
 43
0.0000001
 40
0.0
 40
0.0
 40
0.0
 40
0.0
 40
1.0
 40
1.0
 40
1.0
 40
2.0
 40
2.0
 40
2.0
 40
3.0
 40
3.0
 40
3.0
 40
4.0
 40
4.0
 40
4.0
 40
5.0
 40
5.0
 40
5.0
 40
6.0
 40
6.0
 40
6.0
 40
7.0
 40
7.0
 40
7.0
 40
8.0
 40
8.0
 40
8.0
 40
9.0
 40
9.0
 40
9.0
 40
10.0
 40
10.0
 40
10.0
 40
10.0
 10
327.5331466281
 20
26.1709399539
 30
0.0
 10
327.4446901205
 20
26.2222342601
 30
0.0
 10
327.3312407238
 20
26.2473580019
 30
0.0
 10
327.2276052888
 20
26.2473580019
 30
0.0
 10
326.8727324356
 20
26.2473580019
 30
0.0
 10
326.5972872454
 20
25.9835587129
 30
0.0
 10
326.5972872454
 20
25.6260688032
 30
0.0
 10
326.5972872454
 20
25.2811407645
 30
0.0
 10
326.8757420505
 20
25.0210053545
 30
0.0
 10
327.2153051235
 20
25.0210053545
 30
0.0
 10
327.3312407238
 20
25.0210053545
 30
0.0
 10
327.4319973967
 20
25.0429886286
 30
0.0
 10
327.5331466281
 20
25.0968999912
 30
0.0
 10
327.5331466281
 20
25.0968999912
 30
0.0
 10
327.5331466281
 20
25.3795420867
 30
0.0
 10
327.5331466281
 20
25.3795420867
 30
0.0
 10
327.4492699692
 20
25.2863748774
 30
0.0
 10
327.345765387
 20
25.2272294019
 30
0.0
 10
327.2176604743
 20
25.2272294019
 30
0.0
 10
326.9839573343
 20
25.2272294019
 30
0.0
 10
326.8186902202
 20
25.3994317156
 30
0.0
 10
326.8186902202
 20
25.6360136177
 30
0.0
 10
326.8186902202
 20
25.8479951893
 30
0.0
 10
326.9864435379
 20
26.040087132
 30
0.0
 10
327.2032666639
 20
26.040087132
 30
0.0
 10
327.3360822782
 20
26.040087132
 30
0.0
 10
327.4446901205
 20
25.9861757693
 30
0.0
 10
327.5331466281
 20
25.8851573907
 30
0.0
 10
327.5331466281
 20
25.8851573907
 30
0.0
 10
327.5331466281
 20
26.1709399539
 30
0.0
 10
327.5331466281
 20
26.1709399539
 30
0.0
  0
SPLINE
  5
240
330
225
100
AcDbEntity
  8
0
  6
Continuous
 62
     7
100
AcDbSpline
 70
     3
 71
     3
 72
    32
 73
    28
 74
     0
 42
0.000000001
 43
0.0000001
 40
0.0
 40
0.0
 40
0.0
 40
0.0
 40
1.0
 40
1.0
 40
1.0
 40
2.0
 40
2.0
 40
2.0
 40
3.0
 40
3.0
 40
3.0
 40
4.0
 40
4.0
 40
4.0
 40
5.0
 40
5.0
 40
5.0
 40
6.0
 40
6.0
 40
6.0
 40
7.0
 40
7.0
 40
7.0
 40
8.0
 40
8.0
 40
8.0
 40
9.0
 40
9.0
 40
9.0
 40
9.0
 10
330.0650178804
 20
25.5993748276
 30
0.0
 10
330.0650178804
 20
25.5993748276
 30
0.0
 10
330.0650178804
 20
25.6333965613
 30
0.0
 10
330.0650178804
 20
25.6333965613
 30
0.0
 10
330.0650178804
 20
25.9757075435
 30
0.0
 10
329.8921613025
 20
26.2473580019
 30
0.0
 10
329.5255116954
 20
26.2473580019
 30
0.0
 10
329.153889681
 20
26.2473580019
 30
0.0
 10
328.9641530891
 20
25.9809416564
 30
0.0
 10
328.9641530891
 20
25.6260688032
 30
0.0
 10
328.9641530891
 20
25.2863748774
 30
0.0
 10
329.1782283059
 20
25.0204819432
 30
0.0
 10
329.5303532498
 20
25.0204819432
 30
0.0
 10
329.754373281
 20
25.0204819432
 30
0.0
 10
329.9565408909
 20
25.1361558378
 30
0.0
 10
330.0650178804
 20
25.3355755385
 30
0.0
 10
330.0650178804
 20
25.3355755385
 30
0.0
 10
329.8773749337
 20
25.4423514412
 30
0.0
 10
329.8773749337
 20
25.4423514412
 30
0.0
 10
329.7938908332
 20
25.3036474499
 30
0.0
 10
329.7026864163
 20
25.2178079987
 30
0.0
 10
329.5331011591
 20
25.2178079987
 30
0.0
 10
329.3211195875
 20
25.2178079987
 30
0.0
 10
329.1881731204
 20
25.4025721833
 30
0.0
 10
329.1858177696
 20
25.5993748276
 30
0.0
 10
329.1858177696
 20
25.5993748276
 30
0.0
 10
330.0650178804
 20
25.5993748276
 30
0.0
 10
330.0650178804
 20
25.5993748276
 30
0.0
  0
SPLINE
  5
241
330
225
100
AcDbEntity
  8
0
  6
Continuous
 62
     7
100
AcDbSpline
 70
     3
 71
     3
 72
    14
 73
    10
 74
     0
 42
0.000000001
 43
0.0000001
 40
0.0
 40
0.0
 40
0.0
 40
0.0
 40
1.0
 40
1.0
 40
1.0
 40
2.0
 40
2.0
 40
2.0
 40
3.0
 40
3.0
 40
3.0
 40
3.0
 10
329.1978562292
 20
25.7668664397
 30
0.0
 10
329.2254661746
 20
25.9317409954
 30
0.0
 10
329.3533093817
 20
26.054742648
 30
0.0
 10
329.5255116954
 20
26.054742648
 30
0.0
 10
329.7026864163
 20
26.054742648
 30
0.0
 10
329.816135813
 20
25.9390687534
 30
0.0
 10
329.8433531999
 20
25.7668664397
 30
0.0
 10
329.8433531999
 20
25.7668664397
 30
0.0
 10
329.1978562292
 20
25.7668664397
 30
0.0
 10
329.1978562292
 20
25.7668664397
 30
0.0
  0
SPLINE
  5
242
330
225
100
AcDbEntity
  8
0
  6
Continuous
 62
     7
100
AcDbSpline
 70
     3
 71
     3
 72
    20
 73
    16
 74
     0
 42
0.000000001
 43
0.0000001
 40
0.0
 40
0.0
 40
0.0
 40
0.0
 40
1.0
 40
1.0
 40
1.0
 40
2.0
 40
2.0
 40
2.0
 40
3.0
 40
3.0
 40
3.0
 40
4.0
 40
4.0
 40
4.0
 40
5.0
 40
5.0
 40
5.0
 40
5.0
 10
332.0890493306
 20
25.9762309548
 30
0.0
 10
332.0890493306
 20
25.9762309548
 30
0.0
 10
332.5001888972
 20
25.4737561185
 30
0.0
 10
332.5001888972
 20
25.4737561185
 30
0.0
 10
332.3841224441
 20
25.3580822239
 30
0.0
 10
332.2463344226
 20
25.2277528132
 30
0.0
 10
332.0743938145
 20
25.2277528132
 30
0.0
 10
331.8969573879
 20
25.2277528132
 30
0.0
 10
331.7294657758
 20
25.3921039576
 30
0.0
 10
331.7294657758
 20
25.5690169729
 30
0.0
 10
331.7294657758
 20
25.7469768107
 30
0.0
 10
331.9392228494
 20
25.8731189311
 30
0.0
 10
332.0668043508
 20
25.9610520275
 30
0.0
 10
332.0668043508
 20
25.9610520275
 30
0.0
 10
332.0890493306
 20
25.9762309548
 30
0.0
 10
332.0890493306
 20
25.9762309548
 30
0.0
  0
SPLINE
  5
243
330
225
100
AcDbEntity
  8
0
  6
Continuous
 62
     7
100
AcDbSpline
 70
     3
 71
     3
 72
    23
 73
    19
 74
     0
 42
0.000000001
 43
0.0000001
 40
0.0
 40
0.0
 40
0.0
 40
0.0
 40
1.0
 40
1.0
 40
1.0
 40
2.0
 40
2.0
 40
2.0
 40
3.0
 40
3.0
 40
3.0
 40
4.0
 40
4.0
 40
4.0
 40
5.0
 40
5.0
 40
5.0
 40
6.0
 40
6.0
 40
6.0
 40
6.0
 10
332.1383808444
 20
26.2672476309
 30
0.0
 10
332.1383808444
 20
26.2672476309
 30
0.0
 10
332.0767491653
 20
26.3457593241
 30
0.0
 10
332.0767491653
 20
26.3457593241
 30
0.0
 10
332.0228378026
 20
26.4143262028
 30
0.0
 10
331.9660476779
 20
26.4834164928
 30
0.0
 10
331.9660476779
 20
26.5771071133
 30
0.0
 10
331.9660476779
 20
26.6959214757
 30
0.0
 10
332.0619627964
 20
26.7733863463
 30
0.0
 10
332.1729259894
 20
26.7733863463
 30
0.0
 10
332.2961893477
 20
26.7733863463
 30
0.0
 10
332.3894874098
 20
26.7022024111
 30
0.0
 10
332.3894874098
 20
26.5718730004
 30
0.0
 10
332.3894874098
 20
26.4368328882
 30
0.0
 10
332.2613824971
 20
26.3604148401
 30
0.0
 10
332.1678227294
 20
26.2866138485
 30
0.0
 10
332.1678227294
 20
26.2866138485
 30
0.0
 10
332.1383808444
 20
26.2672476309
 30
0.0
 10
332.1383808444
 20
26.2672476309
 30
0.0
  0
SPLINE
  5
244
330
225
100
AcDbEntity
  8
0
  6
Continuous
 62
     7
100
AcDbSpline
 70
     3
 71
     3
 72
    50
 73
    46
 74
     0
 42
0.000000001
 43
0.0000001
 40
0.0
 40
0.0
 40
0.0
 40
0.0
 40
1.0
 40
1.0
 40
1.0
 40
2.0
 40
2.0
 40
2.0
 40
3.0
 40
3.0
 40
3.0
 40
4.0
 40
4.0
 40
4.0
 40
5.0
 40
5.0
 40
5.0
 40
6.0
 40
6.0
 40
6.0
 40
7.0
 40
7.0
 40
7.0
 40
8.0
 40
8.0
 40
8.0
 40
9.0
 40
9.0
 40
9.0
 40
10.0
 40
10.0
 40
10.0
 40
11.0
 40
11.0
 40
11.0
 40
12.0
 40
12.0
 40
12.0
 40
13.0
 40
13.0
 40
13.0
 40
14.0
 40
14.0
 40
14.0
 40
15.0
 40
15.0
 40
15.0
 40
15.0
 10
332.8405370871
 20
25.0602612011
 30
0.0
 10
332.8405370871
 20
25.0602612011
 30
0.0
 10
333.1259270918
 20
25.0602612011
 30
0.0
 10
333.1259270918
 20
25.0602612011
 30
0.0
 10
333.1259270918
 20
25.0602612011
 30
0.0
 10
332.793560924
 20
25.471139062
 30
0.0
 10
332.793560924
 20
25.471139062
 30
0.0
 10
332.793560924
 20
25.471139062
 30
0.0
 10
333.0200671588
 20
25.7370319963
 30
0.0
 10
333.0200671588
 20
25.7370319963
 30
0.0
 10
333.0200671588
 20
25.7370319963
 30
0.0
 10
332.8718109116
 20
25.8898680923
 30
0.0
 10
332.8718109116
 20
25.8898680923
 30
0.0
 10
332.8718109116
 20
25.8898680923
 30
0.0
 10
332.6559037553
 20
25.6386306742
 30
0.0
 10
332.6559037553
 20
25.6386306742
 30
0.0
 10
332.6559037553
 20
25.6386306742
 30
0.0
 10
332.2688411079
 20
26.1065603655
 30
0.0
 10
332.2688411079
 20
26.1065603655
 30
0.0
 10
332.4242942604
 20
26.2206640263
 30
0.0
 10
332.6065722414
 20
26.3604148401
 30
0.0
 10
332.6065722414
 20
26.5697793553
 30
0.0
 10
332.6065722414
 20
26.8136890154
 30
0.0
 10
332.4045354843
 20
26.9571037083
 30
0.0
 10
332.1780292495
 20
26.9571037083
 30
0.0
 10
331.9338578837
 20
26.9571037083
 30
0.0
 10
331.7494862575
 20
26.8063612574
 30
0.0
 10
331.7494862575
 20
26.5498897263
 30
0.0
 10
331.7494862575
 20
26.3923429287
 30
0.0
 10
331.8481492853
 20
26.25468576
 30
0.0
 10
331.953485807
 20
26.1437225669
 30
0.0
 10
331.953485807
 20
26.1437225669
 30
0.0
 10
331.8379427652
 20
26.0599767609
 30
0.0
 10
331.8379427652
 20
26.0599767609
 30
0.0
 10
331.660244633
 20
25.9317409954
 30
0.0
 10
331.5129043554
 20
25.8040286411
 30
0.0
 10
331.5129043554
 20
25.5669233277
 30
0.0
 10
331.5129043554
 20
25.2465956195
 30
0.0
 10
331.7714695316
 20
25.0204819432
 30
0.0
 10
332.0818524253
 20
25.0204819432
 30
0.0
 10
332.3007691965
 20
25.0204819432
 30
0.0
 10
332.4979643992
 20
25.145577241
 30
0.0
 10
332.6382386243
 20
25.3114986192
 30
0.0
 10
332.6382386243
 20
25.3114986192
 30
0.0
 10
332.8405370871
 20
25.0602612011
 30
0.0
 10
332.8405370871
 20
25.0602612011
 30
0.0
  0
LWPOLYLINE
  5
245
330
225
100
AcDbEntity
  8
0
  6
Continuous
 62
     7
100
AcDbPolyline
 90
        2
 70
     0
 43
0.2
 10
334.7759811768
 20
26.9168010391
 10
334.5446333876
 20
26.9168010391
  0
LWPOLYLINE
  5
246
330
225
100
AcDbEntity
  8
0
  6
Continuous
 62
     7
100
AcDbPolyline
 90
        2
 70
     0
 43
0.2
 10
334.5446333876
 20
26.9168010391
 10
334.5446333876
 20
25.0597377898
  0
LWPOLYLINE
  5
247
330
225
100
AcDbEntity
  8
0
  6
Continuous
 62
     7
100
AcDbPolyline
 90
        2
 70
     0
 43
0.2
 10
334.5446333876
 20
25.0597377898
 10
335.3399568395
 20
25.0597377898
  0
LWPOLYLINE
  5
248
330
225
100
AcDbEntity
  8
0
  6
Continuous
 62
     7
100
AcDbPolyline
 90
        2
 70
     0
 43
0.2
 10
335.3399568395
 20
25.0597377898
 10
335.3399568395
 20
25.2717193614
  0
LWPOLYLINE
  5
249
330
225
100
AcDbEntity
  8
0
  6
Continuous
 62
     7
100
AcDbPolyline
 90
        2
 70
     0
 43
0.2
 10
335.3399568395
 20
25.2717193614
 10
334.7759811768
 20
25.2717193614
  0
LWPOLYLINE
  5
24A
330
225
100
AcDbEntity
  8
0
  6
Continuous
 62
     7
100
AcDbPolyline
 90
        2
 70
     0
 43
0.2
 10
334.7759811768
 20
25.2717193614
 10
334.7759811768
 20
26.9168010391
  0
LWPOLYLINE
  5
24B
330
225
100
AcDbEntity
  8
0
  6
Continuous
 62
     7
100
AcDbPolyline
 90
        2
 70
     0
 43
0.2
 10
337.019060251
 20
26.2122894457
 10
336.7979189819
 20
26.2122894457
  0
LWPOLYLINE
  5
24C
330
225
100
AcDbEntity
  8
0
  6
Continuous
 62
     7
100
AcDbPolyline
 90
        2
 70
     0
 43
0.2
 10
336.7979189819
 20
26.2122894457
 10
336.7979189819
 20
25.0602612011
  0
LWPOLYLINE
  5
24D
330
225
100
AcDbEntity
  8
0
  6
Continuous
 62
     7
100
AcDbPolyline
 90
        2
 70
     0
 43
0.2
 10
336.7979189819
 20
25.0602612011
 10
337.019060251
 20
25.0602612011
  0
LWPOLYLINE
  5
24E
330
225
100
AcDbEntity
  8
0
  6
Continuous
 62
     7
100
AcDbPolyline
 90
        2
 70
     0
 43
0.2
 10
337.019060251
 20
25.0602612011
 10
337.019060251
 20
26.2122894457
  0
SPLINE
  5
24F
330
225
100
AcDbEntity
  8
0
  6
Continuous
 62
     7
100
AcDbSpline
 70
     3
 71
     3
 72
    17
 73
    13
 74
     0
 42
0.000000001
 43
0.0000001
 40
0.0
 40
0.0
 40
0.0
 40
0.0
 40
1.0
 40
1.0
 40
1.0
 40
2.0
 40
2.0
 40
2.0
 40
3.0
 40
3.0
 40
3.0
 40
4.0
 40
4.0
 40
4.0
 40
4.0
 10
336.9086204693
 20
26.894817765
 30
0.0
 10
336.8246129576
 20
26.894817765
 30
0.0
 10
336.7560460788
 20
26.825727475
 30
0.0
 10
336.7560460788
 20
26.7398880238
 30
0.0
 10
336.7560460788
 20
26.6556188065
 30
0.0
 10
336.8246129576
 20
26.5896689842
 30
0.0
 10
336.9086204693
 20
26.5896689842
 30
0.0
 10
336.9923662753
 20
26.5896689842
 30
0.0
 10
337.0611948597
 20
26.6556188065
 30
0.0
 10
337.0611948597
 20
26.7398880238
 30
0.0
 10
337.0611948597
 20
26.825727475
 30
0.0
 10
336.9923662753
 20
26.894817765
 30
0.0
 10
336.9086204693
 20
26.894817765
 30
0.0
  0
SPLINE
  5
250
330
225
100
AcDbEntity
  8
0
  6
Continuous
 62
     7
100
AcDbSpline
 70
     3
 71
     3
 72
    17
 73
    13
 74
     0
 42
0.000000001
 43
0.0000001
 40
0.0
 40
0.0
 40
0.0
 40
0.0
 40
1.0
 40
1.0
 40
1.0
 40
2.0
 40
2.0
 40
2.0
 40
3.0
 40
3.0
 40
3.0
 40
4.0
 40
4.0
 40
4.0
 40
4.0
 10
339.1493441926
 20
25.2178079987
 30
0.0
 10
338.915379347
 20
25.2178079987
 30
0.0
 10
338.7850499363
 20
25.4198447558
 30
0.0
 10
338.7850499363
 20
25.6360136177
 30
0.0
 10
338.7850499363
 20
25.8506122457
 30
0.0
 10
338.9208751655
 20
26.0495085351
 30
0.0
 10
339.1493441926
 20
26.0495085351
 30
0.0
 10
339.3888048568
 20
26.0495085351
 30
0.0
 10
339.5243683804
 20
25.8605570602
 30
0.0
 10
339.5243683804
 20
25.6360136177
 30
0.0
 10
339.5243683804
 20
25.4098999414
 30
0.0
 10
339.3911602076
 20
25.2178079987
 30
0.0
 10
339.1493441926
 20
25.2178079987
 30
0.0
  0
SPLINE
  5
251
330
225
100
AcDbEntity
  8
0
  6
Continuous
 62
     7
100
AcDbSpline
 70
     3
 71
     3
 72
    50
 73
    46
 74
     0
 42
0.000000001
 43
0.0000001
 40
0.0
 40
0.0
 40
0.0
 40
0.0
 40
1.0
 40
1.0
 40
1.0
 40
2.0
 40
2.0
 40
2.0
 40
3.0
 40
3.0
 40
3.0
 40
4.0
 40
4.0
 40
4.0
 40
5.0
 40
5.0
 40
5.0
 40
6.0
 40
6.0
 40
6.0
 40
7.0
 40
7.0
 40
7.0
 40
8.0
 40
8.0
 40
8.0
 40
9.0
 40
9.0
 40
9.0
 40
10.0
 40
10.0
 40
10.0
 40
11.0
 40
11.0
 40
11.0
 40
12.0
 40
12.0
 40
12.0
 40
13.0
 40
13.0
 40
13.0
 40
14.0
 40
14.0
 40
14.0
 40
15.0
 40
15.0
 40
15.0
 40
15.0
 10
339.7334711899
 20
26.2128128569
 30
0.0
 10
339.7334711899
 20
26.2128128569
 30
0.0
 10
339.5118065095
 20
26.2128128569
 30
0.0
 10
339.5118065095
 20
26.2128128569
 30
0.0
 10
339.5118065095
 20
26.2128128569
 30
0.0
 10
339.5118065095
 20
26.0154868014
 30
0.0
 10
339.5118065095
 20
26.0154868014
 30
0.0
 10
339.5118065095
 20
26.0154868014
 30
0.0
 10
339.5070958079
 20
26.0154868014
 30
0.0
 10
339.5070958079
 20
26.0154868014
 30
0.0
 10
339.4157605382
 20
26.158378083
 30
0.0
 10
339.2778416638
 20
26.2468345907
 30
0.0
 10
339.1051159388
 20
26.2468345907
 30
0.0
 10
338.772749771
 20
26.2468345907
 30
0.0
 10
338.5636469615
 20
25.9589583823
 30
0.0
 10
338.5636469615
 20
25.6433413757
 30
0.0
 10
338.5636469615
 20
25.3135922644
 30
0.0
 10
338.7607113114
 20
25.0204819432
 30
0.0
 10
339.1155841646
 20
25.0204819432
 30
0.0
 10
339.2778416638
 20
25.0204819432
 30
0.0
 10
339.4178541833
 20
25.1089384508
 30
0.0
 10
339.5070958079
 20
25.2397912728
 30
0.0
 10
339.5070958079
 20
25.2397912728
 30
0.0
 10
339.5118065095
 20
25.2397912728
 30
0.0
 10
339.5118065095
 20
25.2397912728
 30
0.0
 10
339.5118065095
 20
25.2397912728
 30
0.0
 10
339.5118065095
 20
25.0204819432
 30
0.0
 10
339.5118065095
 20
25.0204819432
 30
0.0
 10
339.5118065095
 20
24.7839000411
 30
0.0
 10
339.4552780904
 20
24.5970422113
 30
0.0
 10
339.1820573981
 20
24.5970422113
 30
0.0
 10
338.9797589354
 20
24.5970422113
 30
0.0
 10
338.8371293594
 20
24.7153331624
 30
0.0
 10
338.8371293594
 20
24.9215572098
 30
0.0
 10
338.8371293594
 20
24.9215572098
 30
0.0
 10
338.615464679
 20
24.9215572098
 30
0.0
 10
338.615464679
 20
24.9215572098
 30
0.0
 10
338.6204370862
 20
24.5970422113
 30
0.0
 10
338.8515231698
 20
24.4002395671
 30
0.0
 10
339.171850878
 20
24.4002395671
 30
0.0
 10
339.6198909404
 20
24.4002395671
 30
0.0
 10
339.7334711899
 20
24.6854987189
 30
0.0
 10
339.7334711899
 20
25.0822444751
 30
0.0
 10
339.7334711899
 20
25.0822444751
 30
0.0
 10
339.7334711899
 20
26.2128128569
 30
0.0
 10
339.7334711899
 20
26.2128128569
 30
0.0
  0
SPLINE
  5
252
330
225
100
AcDbEntity
  8
0
  6
Continuous
 62
     7
100
AcDbSpline
 70
     3
 71
     3
 72
    44
 73
    40
 74
     0
 42
0.000000001
 43
0.0000001
 40
0.0
 40
0.0
 40
0.0
 40
0.0
 40
1.0
 40
1.0
 40
1.0
 40
2.0
 40
2.0
 40
2.0
 40
3.0
 40
3.0
 40
3.0
 40
4.0
 40
4.0
 40
4.0
 40
5.0
 40
5.0
 40
5.0
 40
6.0
 40
6.0
 40
6.0
 40
7.0
 40
7.0
 40
7.0
 40
8.0
 40
8.0
 40
8.0
 40
9.0
 40
9.0
 40
9.0
 40
10.0
 40
10.0
 40
10.0
 40
11.0
 40
11.0
 40
11.0
 40
12.0
 40
12.0
 40
12.0
 40
13.0
 40
13.0
 40
13.0
 40
13.0
 10
341.3023965253
 20
27.1978729007
 30
0.0
 10
341.3023965253
 20
27.1978729007
 30
0.0
 10
341.3023965253
 20
25.0597377898
 30
0.0
 10
341.3023965253
 20
25.0597377898
 30
0.0
 10
341.3023965253
 20
25.0597377898
 30
0.0
 10
341.5237995001
 20
25.0597377898
 30
0.0
 10
341.5237995001
 20
25.0597377898
 30
0.0
 10
341.5237995001
 20
25.0597377898
 30
0.0
 10
341.5237995001
 20
25.5894300131
 30
0.0
 10
341.5237995001
 20
25.5894300131
 30
0.0
 10
341.5237995001
 20
25.7993179395
 30
0.0
 10
341.5237995001
 20
26.0500319464
 30
0.0
 10
341.8090586519
 20
26.0500319464
 30
0.0
 10
342.0359574452
 20
26.0500319464
 30
0.0
 10
342.0629131266
 20
25.9170854793
 30
0.0
 10
342.0629131266
 20
25.7208062464
 30
0.0
 10
342.0629131266
 20
25.7208062464
 30
0.0
 10
342.0629131266
 20
25.0597377898
 30
0.0
 10
342.0629131266
 20
25.0597377898
 30
0.0
 10
342.0629131266
 20
25.0597377898
 30
0.0
 10
342.2848395126
 20
25.0597377898
 30
0.0
 10
342.2848395126
 20
25.0597377898
 30
0.0
 10
342.2848395126
 20
25.0597377898
 30
0.0
 10
342.2848395126
 20
25.7469768107
 30
0.0
 10
342.2848395126
 20
25.7469768107
 30
0.0
 10
342.2848395126
 20
26.027525261
 30
0.0
 10
342.2008320009
 20
26.2473580019
 30
0.0
 10
341.8757935911
 20
26.2473580019
 30
0.0
 10
341.7360427773
 20
26.2473580019
 30
0.0
 10
341.5978621973
 20
26.1808847684
 30
0.0
 10
341.5285102016
 20
26.0578831157
 30
0.0
 10
341.5285102016
 20
26.0578831157
 30
0.0
 10
341.5237995001
 20
26.0578831157
 30
0.0
 10
341.5237995001
 20
26.0578831157
 30
0.0
 10
341.5237995001
 20
26.0578831157
 30
0.0
 10
341.5237995001
 20
27.1978729007
 30
0.0
 10
341.5237995001
 20
27.1978729007
 30
0.0
 10
341.5237995001
 20
27.1978729007
 30
0.0
 10
341.3023965253
 20
27.1978729007
 30
0.0
 10
341.3023965253
 20
27.1978729007
 30
0.0
  0
LWPOLYLINE
  5
253
330
225
100
AcDbEntity
  8
0
  6
Continuous
 62
     7
100
AcDbPolyline
 90
        2
 70
     0
 43
0.2
 10
344.1246301895
 20
26.005541987
 10
344.341060757
 20
26.005541987
  0
LWPOLYLINE
  5
254
330
225
100
AcDbEntity
  8
0
  6
Continuous
 62
     7
100
AcDbPolyline
 90
        2
 70
     0
 43
0.2
 10
344.341060757
 20
26.005541987
 10
344.341060757
 20
26.2122894457
  0
LWPOLYLINE
  5
255
330
225
100
AcDbEntity
  8
0
  6
Continuous
 62
     7
100
AcDbPolyline
 90
        2
 70
     0
 43
0.2
 10
344.341060757
 20
26.2122894457
 10
344.1246301895
 20
26.2122894457
  0
LWPOLYLINE
  5
256
330
225
100
AcDbEntity
  8
0
  6
Continuous
 62
     7
100
AcDbPolyline
 90
        2
 70
     0
 43
0.2
 10
344.1246301895
 20
26.2122894457
 10
344.1246301895
 20
26.65300175
  0
LWPOLYLINE
  5
257
330
225
100
AcDbEntity
  8
0
  6
Continuous
 62
     7
100
AcDbPolyline
 90
        2
 70
     0
 43
0.2
 10
344.1246301895
 20
26.65300175
 10
343.9029655091
 20
26.65300175
  0
LWPOLYLINE
  5
258
330
225
100
AcDbEntity
  8
0
  6
Continuous
 62
     7
100
AcDbPolyline
 90
        2
 70
     0
 43
0.2
 10
343.9029655091
 20
26.65300175
 10
343.9029655091
 20
26.2122894457
  0
LWPOLYLINE
  5
259
330
225
100
AcDbEntity
  8
0
  6
Continuous
 62
     7
100
AcDbPolyline
 90
        2
 70
     0
 43
0.2
 10
343.9029655091
 20
26.2122894457
 10
343.7823192072
 20
26.2122894457
  0
LWPOLYLINE
  5
25A
330
225
100
AcDbEntity
  8
0
  6
Continuous
 62
     7
100
AcDbPolyline
 90
        2
 70
     0
 43
0.2
 10
343.7823192072
 20
26.2122894457
 10
343.7823192072
 20
26.005541987
  0
LWPOLYLINE
  5
25B
330
225
100
AcDbEntity
  8
0
  6
Continuous
 62
     7
100
AcDbPolyline
 90
        2
 70
     0
 43
0.2
 10
343.7823192072
 20
26.005541987
 10
343.9029655091
 20
26.005541987
  0
LWPOLYLINE
  5
25C
330
225
100
AcDbEntity
  8
0
  6
Continuous
 62
     7
100
AcDbPolyline
 90
        2
 70
     0
 43
0.2
 10
343.9029655091
 20
26.005541987
 10
343.9029655091
 20
25.0597377898
  0
LWPOLYLINE
  5
25D
330
225
100
AcDbEntity
  8
0
  6
Continuous
 62
     7
100
AcDbPolyline
 90
        2
 70
     0
 43
0.2
 10
343.9029655091
 20
25.0597377898
 10
344.1246301895
 20
25.0597377898
  0
LWPOLYLINE
  5
25E
330
225
100
AcDbEntity
  8
0
  6
Continuous
 62
     7
100
AcDbPolyline
 90
        2
 70
     0
 43
0.2
 10
344.1246301895
 20
25.0597377898
 10
344.1246301895
 20
26.005541987
  0
SPLINE
  5
25F
330
225
100
AcDbEntity
  8
0
  6
Continuous
 62
     7
100
AcDbSpline
 70
     3
 71
     3
 72
    20
 73
    16
 74
     0
 42
0.000000001
 43
0.0000001
 40
0.0
 40
0.0
 40
0.0
 40
0.0
 40
1.0
 40
1.0
 40
1.0
 40
2.0
 40
2.0
 40
2.0
 40
3.0
 40
3.0
 40
3.0
 40
4.0
 40
4.0
 40
4.0
 40
5.0
 40
5.0
 40
5.0
 40
5.0
 10
331.9066404967
 20
35.4206642332
 30
0.0
 10
331.9066404967
 20
35.4206642332
 30
0.0
 10
334.2229971512
 20
32.5911028109
 30
0.0
 10
334.2229971512
 20
32.5911028109
 30
0.0
 10
333.5713500978
 20
31.9389323462
 30
0.0
 10
332.7944768938
 20
31.2030160755
 30
0.0
 10
331.8232872491
 20
31.2030160755
 30
0.0
 10
330.8247493647
 20
31.2030160755
 30
0.0
 10
329.8814313711
 20
32.1325945228
 30
0.0
 10
329.8814313711
 20
33.1317866713
 30
0.0
 10
329.8814313711
 20
34.1309788198
 30
0.0
 10
331.0602844442
 20
34.8375840585
 30
0.0
 10
331.7818069046
 20
35.3374418384
 30
0.0
 10
331.7818069046
 20
35.3374418384
 30
0.0
 10
331.9066404967
 20
35.4206642332
 30
0.0
 10
331.9066404967
 20
35.4206642332
 30
0.0
  0
SPLINE
  5
260
330
225
100
AcDbEntity
  8
0
  6
Continuous
 62
     7
100
AcDbSpline
 70
     3
 71
     3
 72
    23
 73
    19
 74
     0
 42
0.000000001
 43
0.0000001
 40
0.0
 40
0.0
 40
0.0
 40
0.0
 40
1.0
 40
1.0
 40
1.0
 40
2.0
 40
2.0
 40
2.0
 40
3.0
 40
3.0
 40
3.0
 40
4.0
 40
4.0
 40
4.0
 40
5.0
 40
5.0
 40
5.0
 40
6.0
 40
6.0
 40
6.0
 40
6.0
 10
332.1840484793
 20
37.0584181529
 30
0.0
 10
332.1840484793
 20
37.0584181529
 30
0.0
 10
331.8375502067
 20
37.5017475137
 30
0.0
 10
331.8375502067
 20
37.5017475137
 30
0.0
 10
331.5317471618
 20
37.8898569837
 30
0.0
 10
331.2128588347
 20
38.2783590121
 30
0.0
 10
331.2128588347
 20
38.8053033262
 30
0.0
 10
331.2128588347
 20
39.4714750428
 30
0.0
 10
331.7541969591
 20
39.9151969621
 30
0.0
 10
332.3781032143
 20
39.9151969621
 30
0.0
 10
333.0718848763
 20
39.9151969621
 30
0.0
 10
333.5990908961
 20
39.5129553874
 30
0.0
 10
333.5990908961
 20
38.7779550864
 30
0.0
 10
333.5990908961
 20
38.0146905758
 30
0.0
 10
332.8778301414
 20
37.58457735
 30
0.0
 10
332.3507549745
 20
37.1688579346
 30
0.0
 10
332.3507549745
 20
37.1688579346
 30
0.0
 10
332.1840484793
 20
37.0584181529
 30
0.0
 10
332.1840484793
 20
37.0584181529
 30
0.0
  0
SPLINE
  5
261
330
225
100
AcDbEntity
  8
0
  6
Continuous
 62
     7
100
AcDbSpline
 70
     3
 71
     3
 72
    50
 73
    46
 74
     0
 42
0.000000001
 43
0.0000001
 40
0.0
 40
0.0
 40
0.0
 40
0.0
 40
1.0
 40
1.0
 40
1.0
 40
2.0
 40
2.0
 40
2.0
 40
3.0
 40
3.0
 40
3.0
 40
4.0
 40
4.0
 40
4.0
 40
5.0
 40
5.0
 40
5.0
 40
6.0
 40
6.0
 40
6.0
 40
7.0
 40
7.0
 40
7.0
 40
8.0
 40
8.0
 40
8.0
 40
9.0
 40
9.0
 40
9.0
 40
10.0
 40
10.0
 40
10.0
 40
11.0
 40
11.0
 40
11.0
 40
12.0
 40
12.0
 40
12.0
 40
13.0
 40
13.0
 40
13.0
 40
14.0
 40
14.0
 40
14.0
 40
15.0
 40
15.0
 40
15.0
 40
15.0
 10
336.1376356422
 20
30.2598289348
 30
0.0
 10
336.1376356422
 20
30.2598289348
 30
0.0
 10
337.7468636468
 20
30.2598289348
 30
0.0
 10
337.7468636468
 20
30.2598289348
 30
0.0
 10
337.7468636468
 20
30.2598289348
 30
0.0
 10
335.8738363531
 20
32.5769707062
 30
0.0
 10
335.8738363531
 20
32.5769707062
 30
0.0
 10
335.8738363531
 20
32.5769707062
 30
0.0
 10
337.1501747786
 20
34.0744504008
 30
0.0
 10
337.1501747786
 20
34.0744504008
 30
0.0
 10
337.1501747786
 20
34.0744504008
 30
0.0
 10
336.3179508309
 20
34.9354619693
 30
0.0
 10
336.3179508309
 20
34.9354619693
 30
0.0
 10
336.3179508309
 20
34.9354619693
 30
0.0
 10
335.0973557076
 20
33.5201578469
 30
0.0
 10
335.0973557076
 20
33.5201578469
 30
0.0
 10
335.0973557076
 20
33.5201578469
 30
0.0
 10
332.9194413388
 20
36.1555336813
 30
0.0
 10
332.9194413388
 20
36.1555336813
 30
0.0
 10
333.7930147782
 20
36.7935720412
 30
0.0
 10
334.8196860194
 20
37.58457735
 30
0.0
 10
334.8196860194
 20
38.7634304231
 30
0.0
 10
334.8196860194
 20
40.1371233482
 30
0.0
 10
333.6817898795
 20
40.9416064976
 30
0.0
 10
332.4064982766
 20
40.9416064976
 30
0.0
 10
331.0330670573
 20
40.9416064976
 30
0.0
 10
329.9921328585
 20
40.0953812979
 30
0.0
 10
329.9921328585
 20
38.6527289358
 30
0.0
 10
329.9921328585
 20
37.7651542444
 30
0.0
 10
330.547472235
 20
36.9882810403
 30
0.0
 10
331.1436376918
 20
36.3638513739
 30
0.0
 10
331.1436376918
 20
36.3638513739
 30
0.0
 10
330.4917289328
 20
35.8922578035
 30
0.0
 10
330.4917289328
 20
35.8922578035
 30
0.0
 10
329.4931910484
 20
35.1709970488
 30
0.0
 10
328.6603128365
 20
34.4497362942
 30
0.0
 10
328.6603128365
 20
33.1181779778
 30
0.0
 10
328.6603128365
 20
31.3145026798
 30
0.0
 10
330.1173590091
 20
30.0379025487
 30
0.0
 10
331.8648984465
 20
30.0379025487
 30
0.0
 10
333.0997565274
 20
30.0379025487
 30
0.0
 10
334.2091267521
 20
30.7460780212
 30
0.0
 10
335.000001208
 20
31.6746096459
 30
0.0
 10
335.000001208
 20
31.6746096459
 30
0.0
 10
336.1376356422
 20
30.2598289348
 30
0.0
 10
336.1376356422
 20
30.2598289348
 30
0.0
  0
LINE
  5
262
330
225
100
AcDbEntity
  8
0
  6
Continuous
 62
     7
100
AcDbLine
 10
321.9404970172
 20
28.2337038394
 30
0.0
 11
344.3544077449
 21
28.2337038394
 31
0.0
  0
LINE
  5
263
330
225
100
AcDbEntity
  8
0
  6
Continuous
 62
     7
100
AcDbLine
 10
344.3544077449
 20
28.2337038394
 30
0.0
 11
344.3544077449
 21
50.6476145671
 31
0.0
  0
LINE
  5
264
330
225
100
AcDbEntity
  8
0
  6
Continuous
 62
     7
100
AcDbLine
 10
344.3544077449
 20
50.6476145671
 30
0.0
 11
321.9404970172
 21
50.6476145671
 31
0.0
  0
LINE
  5
265
330
225
100
AcDbEntity
  8
0
  6
Continuous
 62
     7
100
AcDbLine
 10
321.9404970172
 20
50.6476145671
 30
0.0
 11
321.9404970172
 21
28.2337038394
 31
0.0
  0
ENDBLK
  5
266
330
225
100
AcDbEntity
  8
0
  6
ByBlock
 62
     0
100
AcDbBlockEnd
  0
BLOCK
  5
286
330
226
100
AcDbEntity
  8
0
100
AcDbBlockBegin
  2
*T5
 70
     1
 10
0.0
 20
0.0
 30
0.0
  3
*T5
  1
*T5
  0
MTEXT
  5
287
330
226
100
AcDbEntity
  8
0
  6
Continuous
 62
     0
100
AcDbMText
 10
30.06
 20
-3.0
 30
0.0
 40
3.0
 41
39.88
 71
     4
 72
     5
  1
250_C_011
 73
     1
 44
1.0
  0
MTEXT
  5
288
330
226
100
AcDbEntity
  8
0
  6
Continuous
 62
     0
100
AcDbMText
 10
70.06
 20
-0.06
 30
0.0
 40
3.5
 41
19.88
 71
     1
 72
     5
  1
Rev:00
 73
     1
 44
1.0
  0
MTEXT
  5
289
330
226
100
AcDbEntity
  8
0
  6
Continuous
 62
     0
100
AcDbMText
 10
30.06
 20
-6.06
 30
0.0
 40
3.5
 41
39.88
 71
     1
 72
     5
  1
Scale:1:1
 73
     1
 44
1.0
  0
MTEXT
  5
28A
330
226
100
AcDbEntity
  8
0
  6
Continuous
 62
     0
100
AcDbMText
 10
70.06
 20
-9.0
 30
0.0
 40
3.5
 41
19.88
 71
     4
 72
     5
  1
A3
 73
     1
 44
1.0
  0
MTEXT
  5
28B
330
226
100
AcDbEntity
  8
0
  6
Continuous
 62
     0
100
AcDbMText
 10
30.06
 20
-17.0
 30
0.0
 40
3.5
 41
59.88
 71
     4
 72
     5
  1
BRIGHT 5.6
 73
     1
 44
1.0
  0
MTEXT
  5
28C
330
226
100
AcDbEntity
  8
0
  6
Continuous
 62
     0
100
AcDbMText
 10
30.06
 20
-24.5
 30
0.0
 40
2.5
 41
59.88
 71
     4
 72
     5
  1
DATE:21/03/2014
 73
     1
 44
1.0
  0
MTEXT
  5
28D
330
226
100
AcDbEntity
  8
0
  6
Continuous
 62
     0
100
AcDbMText
 10
0.06
 20
-27.06
 30
0.0
 40
1.85
 41
89.88
 71
     1
 72
     5
  1
Any integral or partial reproductions are prohibited \Pwithout prior authorisation of L & L Luce & Light s.r.l., \Pin accordance with the law in force. \PAll rights reserved.
 73
     1
 44
1.0
  0
LINE
  5
28E
330
226
100
AcDbEntity
  8
0
  6
Continuous
 62
     0
370
    -2
100
AcDbLine
 10
0.0
 20
0.0
 30
0.0
 11
10.0
 21
0.0
 31
0.0
  0
LINE
  5
28F
330
226
100
AcDbEntity
  8
0
  6
Continuous
 62
     0
370
    -2
100
AcDbLine
 10
10.0
 20
0.0
 30
0.0
 11
20.0
 21
0.0
 31
0.0
  0
LINE
  5
290
330
226
100
AcDbEntity
  8
0
  6
Continuous
 62
     0
370
    -2
100
AcDbLine
 10
20.0
 20
0.0
 30
0.0
 11
30.0
 21
0.0
 31
0.0
  0
LINE
  5
291
330
226
100
AcDbEntity
  8
0
  6
Continuous
 62
     0
370
    -2
100
AcDbLine
 10
0.0
 20
0.0
 30
0.0
 11
0.0
 21
-6.0
 31
0.0
  0
LINE
  5
292
330
226
100
AcDbEntity
  8
0
  6
Continuous
 62
     0
370
    -2
100
AcDbLine
 10
0.0
 20
-6.0
 30
0.0
 11
0.0
 21
-12.0
 31
0.0
  0
LINE
  5
293
330
226
100
AcDbEntity
  8
0
  6
Continuous
 62
     0
370
    -2
100
AcDbLine
 10
0.0
 20
-12.0
 30
0.0
 11
0.0
 21
-22.0
 31
0.0
  0
LINE
  5
294
330
226
100
AcDbEntity
  8
0
  6
Continuous
 62
     0
370
    -2
100
AcDbLine
 10
0.0
 20
-22.0
 30
0.0
 11
0.0
 21
-27.0
 31
0.0
  0
LINE
  5
295
330
226
100
AcDbEntity
  8
0
  6
Continuous
 62
     0
370
    -2
100
AcDbLine
 10
30.0
 20
0.0
 30
0.0
 11
70.0
 21
0.0
 31
0.0
  0
LINE
  5
296
330
226
100
AcDbEntity
  8
0
  6
Continuous
 62
     0
370
    -2
100
AcDbLine
 10
30.0
 20
0.0
 30
0.0
 11
30.0
 21
-6.0
 31
0.0
  0
LINE
  5
297
330
226
100
AcDbEntity
  8
0
  6
Continuous
 62
     0
370
    -2
100
AcDbLine
 10
70.0
 20
0.0
 30
0.0
 11
90.0
 21
0.0
 31
0.0
  0
LINE
  5
4D6
330
226
100
AcDbEntity
  8
0
  6
Continuous
 62
     0
370
    -2
100
AcDbLine
 10
70.0
 20
0.0
 30
0.0
 11
70.0
 21
-6.0
 31
0.0
  0
LINE
  5
4D7
330
226
100
AcDbEntity
  8
0
  6
Continuous
 62
     0
370
    -2
100
AcDbLine
 10
90.0
 20
0.0
 30
0.0
 11
90.0
 21
-6.0
 31
0.0
  0
LINE
  5
4D8
330
226
100
AcDbEntity
  8
0
  6
Continuous
 62
     0
370
    -2
100
AcDbLine
 10
30.0
 20
-6.0
 30
0.0
 11
70.0
 21
-6.0
 31
0.0
  0
LINE
  5
4D9
330
226
100
AcDbEntity
  8
0
  6
Continuous
 62
     0
370
    -2
100
AcDbLine
 10
30.0
 20
-6.0
 30
0.0
 11
30.0
 21
-12.0
 31
0.0
  0
LINE
  5
4DA
330
226
100
AcDbEntity
  8
0
  6
Continuous
 62
     0
370
    -2
100
AcDbLine
 10
70.0
 20
-6.0
 30
0.0
 11
90.0
 21
-6.0
 31
0.0
  0
LINE
  5
4DB
330
226
100
AcDbEntity
  8
0
  6
Continuous
 62
     0
370
    -2
100
AcDbLine
 10
70.0
 20
-6.0
 30
0.0
 11
70.0
 21
-12.0
 31
0.0
  0
LINE
  5
4DC
330
226
100
AcDbEntity
  8
0
  6
Continuous
 62
     0
370
    -2
100
AcDbLine
 10
90.0
 20
-6.0
 30
0.0
 11
90.0
 21
-12.0
 31
0.0
  0
LINE
  5
4DD
330
226
100
AcDbEntity
  8
0
  6
Continuous
 62
     0
370
    -2
100
AcDbLine
 10
30.0
 20
-12.0
 30
0.0
 11
70.0
 21
-12.0
 31
0.0
  0
LINE
  5
4DE
330
226
100
AcDbEntity
  8
0
  6
Continuous
 62
     0
370
    -2
100
AcDbLine
 10
70.0
 20
-12.0
 30
0.0
 11
90.0
 21
-12.0
 31
0.0
  0
LINE
  5
4DF
330
226
100
AcDbEntity
  8
0
  6
Continuous
 62
     0
370
    -2
100
AcDbLine
 10
30.0
 20
-12.0
 30
0.0
 11
30.0
 21
-22.0
 31
0.0
  0
LINE
  5
4E0
330
226
100
AcDbEntity
  8
0
  6
Continuous
 62
     0
370
    -2
100
AcDbLine
 10
90.0
 20
-12.0
 30
0.0
 11
90.0
 21
-22.0
 31
0.0
  0
LINE
  5
4E1
330
226
100
AcDbEntity
  8
0
  6
Continuous
 62
     0
370
    -2
100
AcDbLine
 10
30.0
 20
-22.0
 30
0.0
 11
70.0
 21
-22.0
 31
0.0
  0
LINE
  5
4E2
330
226
100
AcDbEntity
  8
0
  6
Continuous
 62
     0
370
    -2
100
AcDbLine
 10
70.0
 20
-22.0
 30
0.0
 11
90.0
 21
-22.0
 31
0.0
  0
LINE
  5
4E3
330
226
100
AcDbEntity
  8
0
  6
Continuous
 62
     0
370
    -2
100
AcDbLine
 10
30.0
 20
-22.0
 30
0.0
 11
30.0
 21
-27.0
 31
0.0
  0
LINE
  5
4E4
330
226
100
AcDbEntity
  8
0
  6
Continuous
 62
     0
370
    -2
100
AcDbLine
 10
90.0
 20
-22.0
 30
0.0
 11
90.0
 21
-27.0
 31
0.0
  0
LINE
  5
4E5
330
226
100
AcDbEntity
  8
0
  6
Continuous
 62
     0
370
    -2
100
AcDbLine
 10
0.0
 20
-27.0
 30
0.0
 11
10.0
 21
-27.0
 31
0.0
  0
LINE
  5
4E6
330
226
100
AcDbEntity
  8
0
  6
Continuous
 62
     0
370
    -2
100
AcDbLine
 10
10.0
 20
-27.0
 30
0.0
 11
20.0
 21
-27.0
 31
0.0
  0
LINE
  5
4E7
330
226
100
AcDbEntity
  8
0
  6
Continuous
 62
     0
370
    -2
100
AcDbLine
 10
20.0
 20
-27.0
 30
0.0
 11
30.0
 21
-27.0
 31
0.0
  0
LINE
  5
4E8
330
226
100
AcDbEntity
  8
0
  6
Continuous
 62
     0
370
    -2
100
AcDbLine
 10
30.0
 20
-27.0
 30
0.0
 11
70.0
 21
-27.0
 31
0.0
  0
LINE
  5
4E9
330
226
100
AcDbEntity
  8
0
  6
Continuous
 62
     0
370
    -2
100
AcDbLine
 10
70.0
 20
-27.0
 30
0.0
 11
90.0
 21
-27.0
 31
0.0
  0
LINE
  5
4EA
330
226
100
AcDbEntity
  8
0
  6
Continuous
 62
     0
370
    -2
100
AcDbLine
 10
0.0
 20
-27.0
 30
0.0
 11
0.0
 21
-40.0
 31
0.0
  0
LINE
  5
4EB
330
226
100
AcDbEntity
  8
0
  6
Continuous
 62
     0
370
    -2
100
AcDbLine
 10
90.0
 20
-27.0
 30
0.0
 11
90.0
 21
-40.0
 31
0.0
  0
LINE
  5
4EC
330
226
100
AcDbEntity
  8
0
  6
Continuous
 62
     0
370
    -2
100
AcDbLine
 10
0.0
 20
-40.0
 30
0.0
 11
10.0
 21
-40.0
 31
0.0
  0
LINE
  5
4ED
330
226
100
AcDbEntity
  8
0
  6
Continuous
 62
     0
370
    -2
100
AcDbLine
 10
10.0
 20
-40.0
 30
0.0
 11
20.0
 21
-40.0
 31
0.0
  0
LINE
  5
4EE
330
226
100
AcDbEntity
  8
0
  6
Continuous
 62
     0
370
    -2
100
AcDbLine
 10
20.0
 20
-40.0
 30
0.0
 11
30.0
 21
-40.0
 31
0.0
  0
LINE
  5
4EF
330
226
100
AcDbEntity
  8
0
  6
Continuous
 62
     0
370
    -2
100
AcDbLine
 10
30.0
 20
-40.0
 30
0.0
 11
70.0
 21
-40.0
 31
0.0
  0
LINE
  5
4F0
330
226
100
AcDbEntity
  8
0
  6
Continuous
 62
     0
370
    -2
100
AcDbLine
 10
70.0
 20
-40.0
 30
0.0
 11
90.0
 21
-40.0
 31
0.0
  0
ENDBLK
  5
298
330
226
100
AcDbEntity
  8
0
100
AcDbBlockEnd
  0
ENDSEC
  0
SECTION
  2
ENTITIES
  0
MTEXT
  5
299
330
21F
100
AcDbEntity
  8
0
  6
Continuous
 62
     2
100
AcDbMText
 10
1.6467220993
 20
53.595027386
 30
0.0
 40
4.0
 41
2.2857142857
 71
     1
 72
     1
  1
1
  7
TEXTSTYLE_2
 73
     1
 44
0.9
  0
MTEXT
  5
29A
330
21F
100
AcDbEntity
  8
0
  6
Continuous
 62
     2
100
AcDbMText
 10
1.6467220993
 20
153.595027386
 30
0.0
 40
4.0
 41
3.1428571429
 71
     1
 72
     1
  1
2
  7
TEXTSTYLE_2
 73
     1
 44
0.9
  0
MTEXT
  5
29B
330
21F
100
AcDbEntity
  8
0
  6
Continuous
 62
     2
100
AcDbMText
 10
1.6467220993
 20
253.595027386
 30
0.0
 40
4.0
 41
2.8571428571
 71
     1
 72
     1
  1
3
  7
TEXTSTYLE_2
 73
     1
 44
0.9
  0
MTEXT
  5
29C
330
21F
100
AcDbEntity
  8
0
  6
Continuous
 62
     2
100
AcDbMText
 10
414.6467220993
 20
60.6268709614
 30
0.0
 40
4.0
 41
2.2857142857
 71
     1
 72
     1
  1
1
  7
TEXTSTYLE_2
 73
     1
 44
0.9
  0
MTEXT
  5
29D
330
21F
100
AcDbEntity
  8
0
  6
Continuous
 62
     2
100
AcDbMText
 10
414.6467220993
 20
160.6268709614
 30
0.0
 40
4.0
 41
3.1428571429
 71
     1
 72
     1
  1
2
  7
TEXTSTYLE_2
 73
     1
 44
0.9
  0
MTEXT
  5
29E
330
21F
100
AcDbEntity
  8
0
  6
Continuous
 62
     2
100
AcDbMText
 10
414.6467220993
 20
260.6268709614
 30
0.0
 40
4.0
 41
2.8571428571
 71
     1
 72
     1
  1
3
  7
TEXTSTYLE_2
 73
     1
 44
0.9
  0
MTEXT
  5
29F
330
21F
100
AcDbEntity
  8
0
  6
Continuous
 62
     2
100
AcDbMText
 10
362.154890719
 20
5.35876025
 30
0.0
 40
4.0
 41
3.6
 71
     1
 72
     1
  1
A
  7
TEXTSTYLE_3
 73
     1
 44
0.9
  0
MTEXT
  5
2A0
330
21F
100
AcDbEntity
  8
0
  6
Continuous
 62
     2
100
AcDbMText
 10
262.154890719
 20
5.35876025
 30
0.0
 40
4.0
 41
3.6
 71
     1
 72
     1
  1
B
  7
TEXTSTYLE_3
 73
     1
 44
0.9
  0
MTEXT
  5
2A1
330
21F
100
AcDbEntity
  8
0
  6
Continuous
 62
     2
100
AcDbMText
 10
162.154890719
 20
5.35876025
 30
0.0
 40
4.0
 41
3.6
 71
     1
 72
     1
  1
C
  7
TEXTSTYLE_3
 73
     1
 44
0.9
  0
MTEXT
  5
2A2
330
21F
100
AcDbEntity
  8
0
  6
Continuous
 62
     2
100
AcDbMText
 10
55.7978688212
 20
5.5353441916
 30
0.0
 40
4.0
 41
3.6
 71
     1
 72
     1
  1
D
  7
TEXTSTYLE_3
 73
     1
 44
0.9
  0
MTEXT
  5
2A3
330
21F
100
AcDbEntity
  8
0
  6
Continuous
 62
     2
100
AcDbMText
 10
362.154890719
 20
295.35876025
 30
0.0
 40
4.0
 41
3.6
 71
     1
 72
     1
  1
A
  7
TEXTSTYLE_3
 73
     1
 44
0.9
  0
MTEXT
  5
2A4
330
21F
100
AcDbEntity
  8
0
  6
Continuous
 62
     2
100
AcDbMText
 10
262.154890719
 20
295.35876025
 30
0.0
 40
4.0
 41
3.6
 71
     1
 72
     1
  1
B
  7
TEXTSTYLE_3
 73
     1
 44
0.9
  0
MTEXT
  5
2A5
330
21F
100
AcDbEntity
  8
0
  6
Continuous
 62
     2
100
AcDbMText
 10
162.154890719
 20
295.35876025
 30
0.0
 40
4.0
 41
3.6
 71
     1
 72
     1
  1
C
  7
TEXTSTYLE_3
 73
     1
 44
0.9
  0
MTEXT
  5
2A6
330
21F
100
AcDbEntity
  8
0
  6
Continuous
 62
     2
100
AcDbMText
 10
53.9878834197
 20
295.579490177
 30
0.0
 40
4.0
 41
3.6
 71
     1
 72
     1
  1
D
  7
TEXTSTYLE_3
 73
     1
 44
0.9
  0
INSERT
  5
2AA
330
21F
100
AcDbEntity
  8
0
  6
Continuous
 62
     2
100
AcDbBlockReference
  2
LOGO2_BL0
 10
333.1473869546
 20
37.5239270671
 30
0.0
  0
INSERT
  5
2AB
330
21F
100
AcDbEntity
  8
0
  6
Continuous
 62
     2
100
AcDbBlockReference
  2
*T5
 10
319.3213399098
 20
51.0239270671
 30
0.0
  0
LINE
  5
2AE
330
21F
100
AcDbEntity
  8
0
  6
Continuous
 62
     7
100
AcDbLine
 10
0.0
 20
0.0
 30
0.0
 11
0.0
 21
297.0
 31
0.0
  0
LWPOLYLINE
  5
2AF
330
21F
100
AcDbEntity
  8
0
  6
Continuous
 62
     7
100
AcDbPolyline
 90
        2
 70
     0
 43
0.1000000003
 10
7.0536312849
 20
0.0
 10
7.0536312849
 20
297.0
  0
LWPOLYLINE
  5
2B0
330
21F
100
AcDbEntity
  8
0
  6
Continuous
 62
     7
100
AcDbPolyline
 90
        2
 70
     0
 43
0.4999999952
 10
10.0536312849
 20
10.0318435754
 10
10.0536312849
 20
287.0
  0
LINE
  5
2B1
330
21F
100
AcDbEntity
  8
0
  6
Continuous
 62
     7
100
AcDbLine
 10
0.0
 20
0.0
 30
0.0
 11
420.0
 21
0.0
 31
0.0
  0
LWPOLYLINE
  5
2B2
330
21F
100
AcDbEntity
  8
0
  6
Continuous
 62
     7
100
AcDbPolyline
 90
        2
 70
     0
 43
0.1000000003
 10
0.0
 20
7.0318435754
 10
420.0
 20
7.0318435754
  0
LWPOLYLINE
  5
2B3
330
21F
100
AcDbEntity
  8
0
  6
Continuous
 62
     7
100
AcDbPolyline
 90
        2
 70
     0
 43
0.4999999952
 10
10.0536312849
 20
10.0318435754
 10
410.0
 20
10.0318435754
  0
LINE
  5
2B4
330
21F
100
AcDbEntity
  8
0
  6
Continuous
 62
     7
100
AcDbLine
 10
113.0
 20
297.0
 30
0.0
 11
113.0
 21
290.0
 31
0.0
  0
LINE
  5
2B5
330
21F
100
AcDbEntity
  8
0
  6
Continuous
 62
     7
100
AcDbLine
 10
113.0
 20
7.0
 30
0.0
 11
113.0
 21
0.0
 31
0.0
  0
LWPOLYLINE
  5
2B6
330
21F
100
AcDbEntity
  8
0
  6
Continuous
 62
     7
100
AcDbPolyline
 90
        2
 70
     0
 43
0.1000000003
 10
123.0
 20
10.0
 10
123.0
 20
0.0
  0
LWPOLYLINE
  5
2B7
330
21F
100
AcDbEntity
  8
0
  6
Continuous
 62
     7
100
AcDbPolyline
 90
        2
 70
     0
 43
0.1000000003
 10
123.0
 20
287.0
 10
123.0
 20
297.0
  0
LINE
  5
2B8
330
21F
100
AcDbEntity
  8
0
  6
Continuous
 62
     7
100
AcDbLine
 10
0.0
 20
99.9681564246
 30
0.0
 11
7.0
 21
99.9681564246
 31
0.0
  0
LINE
  5
2B9
330
21F
100
AcDbEntity
  8
0
  6
Continuous
 62
     7
100
AcDbLine
 10
413.0
 20
107.0
 30
0.0
 11
420.0
 21
107.0
 31
0.0
  0
LWPOLYLINE
  5
2BA
330
21F
100
AcDbEntity
  8
0
  6
Continuous
 62
     7
100
AcDbPolyline
 90
        2
 70
     0
 43
0.1000000003
 10
210.0
 20
10.0
 10
210.0
 20
0.0
  0
LWPOLYLINE
  5
2BB
330
21F
100
AcDbEntity
  8
0
  6
Continuous
 62
     7
100
AcDbPolyline
 90
        2
 70
     0
 43
0.1000000003
 10
210.0
 20
287.0
 10
210.0
 20
297.0
  0
LWPOLYLINE
  5
2BC
330
21F
100
AcDbEntity
  8
0
  6
Continuous
 62
     7
100
AcDbPolyline
 90
        2
 70
     0
 43
0.1000000003
 10
10.0
 20
148.5
 10
0.0
 20
148.5
  0
LWPOLYLINE
  5
2BD
330
21F
100
AcDbEntity
  8
0
  6
Continuous
 62
     7
100
AcDbPolyline
 90
        2
 70
     0
 43
0.1000000003
 10
410.0
 20
148.5
 10
420.0
 20
148.5
  0
LINE
  5
2BE
330
21F
100
AcDbEntity
  8
0
  6
Continuous
 62
     7
100
AcDbLine
 10
0.0
 20
199.9681564246
 30
0.0
 11
7.0
 21
199.9681564246
 31
0.0
  0
LWPOLYLINE
  5
2BF
330
21F
100
AcDbEntity
  8
0
  6
Continuous
 62
     7
100
AcDbPolyline
 90
        2
 70
     0
 43
0.1000000003
 10
10.0
 20
202.9681564246
 10
0.0
 20
202.9681564246
  0
LWPOLYLINE
  5
2C0
330
21F
100
AcDbEntity
  8
0
  6
Continuous
 62
     7
100
AcDbPolyline
 90
        2
 70
     0
 43
0.1000000003
 10
410.0
 20
210.0
 10
420.0
 20
210.0
  0
LINE
  5
2C1
330
21F
100
AcDbEntity
  8
0
  6
Continuous
 62
     7
100
AcDbLine
 10
313.0
 20
297.0
 30
0.0
 11
313.0
 21
290.0
 31
0.0
  0
LINE
  5
2C2
330
21F
100
AcDbEntity
  8
0
  6
Continuous
 62
     7
100
AcDbLine
 10
313.0
 20
7.0
 30
0.0
 11
313.0
 21
0.0
 31
0.0
  0
LWPOLYLINE
  5
2C3
330
21F
100
AcDbEntity
  8
0
  6
Continuous
 62
     7
100
AcDbPolyline
 90
        2
 70
     0
 43
0.4999999952
 10
10.0536312849
 20
287.0
 10
410.0
 20
287.0
  0
LWPOLYLINE
  5
2C4
330
21F
100
AcDbEntity
  8
0
  6
Continuous
 62
     7
100
AcDbPolyline
 90
        2
 70
     0
 43
0.1000000003
 10
0.0
 20
290.0
 10
420.0
 20
290.0
  0
LINE
  5
2C5
330
21F
100
AcDbEntity
  8
0
  6
Continuous
 62
     7
100
AcDbLine
 10
0.0
 20
297.0
 30
0.0
 11
420.0
 21
297.0
 31
0.0
  0
LWPOLYLINE
  5
2C6
330
21F
100
AcDbEntity
  8
0
  6
Continuous
 62
     7
100
AcDbPolyline
 90
        2
 70
     0
 43
0.4999999952
 10
410.0
 20
10.0318435754
 10
410.0
 20
287.0
  0
LWPOLYLINE
  5
2C7
330
21F
100
AcDbEntity
  8
0
  6
Continuous
 62
     7
100
AcDbPolyline
 90
        2
 70
     0
 43
0.1000000003
 10
413.0
 20
0.0
 10
413.0
 20
297.0
  0
LINE
  5
2C8
330
21F
100
AcDbEntity
  8
0
  6
Continuous
 62
     7
100
AcDbLine
 10
420.0
 20
0.0
 30
0.0
 11
420.0
 21
297.0
 31
0.0
  0
LINE
  5
2C9
330
21F
100
AcDbEntity
  8
3_ALL_AXES
  6
Continuous
 62
     7
100
AcDbLine
 10
24.62175499447314
 20
270.1956849555626
 30
0.0
 11
26.44601906327314
 21
272.0199490243627
 31
0.0
  0
LINE
  5
2CA
330
21F
100
AcDbEntity
  8
3_ALL_AXES
  6
Continuous
 62
     7
100
AcDbLine
 10
24.53388702887314
 20
269.4078169899627
 30
0.0
 11
24.53388702887314
 21
269.9835529211626
 31
0.0
  0
LINE
  5
2CB
330
21F
100
AcDbEntity
  8
3_ALL_AXES
  6
Continuous
 62
     7
100
AcDbLine
 10
37.53388702887314
 20
247.1078169899627
 30
0.0
 11
37.53388702887314
 21
261.8078169153626
 31
0.0
  0
LINE
  5
2CC
330
21F
100
AcDbEntity
  8
3_ALL_AXES
  6
Continuous
 62
     7
100
AcDbLine
 10
37.53388702887314
 20
262.4078169899627
 30
0.0
 11
37.53388702887314
 21
268.8078169899626
 31
0.0
  0
LINE
  5
2CD
330
21F
100
AcDbEntity
  8
7_ALL_FEATURES
  6
Continuous
 62
     7
100
AcDbLine
 10
37.83388955887314
 20
262.1078145335626
 30
0.0
 11
37.53388949687313
 21
261.8078144473627
 31
0.0
  0
LINE
  5
2CE
330
21F
100
AcDbEntity
  8
3_ALL_AXES
  6
Continuous
 62
     7
100
AcDbLine
 10
49.53388702887314
 20
223.1078169899627
 30
0.0
 11
49.53388702887314
 21
225.1078169899627
 31
0.0
  0
LINE
  5
2CF
330
21F
100
AcDbEntity
  8
3_ALL_AXES
  6
Continuous
 62
     7
100
AcDbLine
 10
49.53388702887314
 20
228.1078169899627
 30
0.0
 11
49.53388702887314
 21
230.6078169899627
 31
0.0
  0
LINE
  5
2D0
330
21F
100
AcDbEntity
  8
3_ALL_AXES
  6
Continuous
 62
     7
100
AcDbLine
 10
49.53388702887314
 20
233.6078169899627
 30
0.0
 11
49.53388702887314
 21
236.1078169899627
 31
0.0
  0
LINE
  5
2D1
330
21F
100
AcDbEntity
  8
3_ALL_AXES
  6
Continuous
 62
     7
100
AcDbLine
 10
49.53388702887314
 20
239.1078169899627
 30
0.0
 11
49.53388702887314
 21
247.1078169899627
 31
0.0
  0
LINE
  5
2D2
330
21F
100
AcDbEntity
  8
7_ALL_FEATURES
  6
Continuous
 62
     7
100
AcDbLine
 10
50.53388702887314
 20
222.1078169899627
 30
0.0
 11
49.53388702887314
 21
223.1078169899627
 31
0.0
  0
LINE
  5
2D3
330
21F
100
AcDbEntity
  8
7_ALL_FEATURES
  6
Continuous
 62
     7
100
AcDbLine
 10
59.53388702887314
 20
239.1078169899627
 30
0.0
 11
59.53388702887314
 21
236.1078169899627
 31
0.0
  0
LINE
  5
2D4
330
21F
100
AcDbEntity
  8
7_ALL_FEATURES
  6
Continuous
 62
     7
100
AcDbLine
 10
59.53388702887314
 20
233.6078169899627
 30
0.0
 11
59.53388702887314
 21
230.6078169899627
 31
0.0
  0
LINE
  5
2D5
330
21F
100
AcDbEntity
  8
7_ALL_FEATURES
  6
Continuous
 62
     7
100
AcDbLine
 10
59.53388702887314
 20
228.1078169899627
 30
0.0
 11
59.53388702887314
 21
225.1078169899627
 31
0.0
  0
LINE
  5
2D6
330
21F
100
AcDbEntity
  8
02___PRT_ALL_AXES
  6
Continuous
 62
     7
100
AcDbLine
 10
94.69222743207312
 20
202.1078169899627
 30
0.0
 11
104.3755466256731
 21
202.1078169899627
 31
0.0
  0
LINE
  5
2D7
330
21F
100
AcDbEntity
  8
02___PRT_ALL_AXES
  6
Continuous
 62
     9
100
AcDbLine
 10
92.47420985527314
 20
206.3642733753626
 30
0.0
 11
91.03388702887314
 21
206.3642733753626
 31
0.0
  0
LINE
  5
2D8
330
21F
100
AcDbEntity
  8
02___PRT_ALL_AXES
  6
Continuous
 62
     9
100
AcDbLine
 10
98.09356420247313
 20
206.3642733753626
 30
0.0
 11
100.9742098552731
 21
206.3642733753626
 31
0.0
  0
LINE
  5
2D9
330
21F
100
AcDbEntity
  8
02___PRT_ALL_AXES
  6
Continuous
 62
     9
100
AcDbLine
 10
106.5935642024731
 20
206.3642733753626
 30
0.0
 11
108.0338870288731
 21
206.3642733753626
 31
0.0
  0
LINE
  5
2DA
330
21F
100
AcDbEntity
  8
02___PRT_ALL_AXES
  6
Continuous
 62
     7
100
AcDbLine
 10
92.47420985527314
 20
206.3909783959626
 30
0.0
 11
91.03388702887314
 21
206.3909783959626
 31
0.0
  0
LINE
  5
2DB
330
21F
100
AcDbEntity
  8
02___PRT_ALL_AXES
  6
Continuous
 62
     7
100
AcDbLine
 10
98.09356420247313
 20
206.3909783959626
 30
0.0
 11
100.9742098552731
 21
206.3909783959626
 31
0.0
  0
LINE
  5
2DC
330
21F
100
AcDbEntity
  8
02___PRT_ALL_AXES
  6
Continuous
 62
     7
100
AcDbLine
 10
106.5935642024731
 20
206.3909783959626
 30
0.0
 11
108.0338870288731
 21
206.3909783959626
 31
0.0
  0
LINE
  5
2DD
330
21F
100
AcDbEntity
  8
02___PRT_ALL_AXES
  6
Continuous
 62
     7
100
AcDbLine
 10
108.0338870288731
 20
214.6078169899627
 30
0.0
 11
91.03388702887314
 21
214.6078169899627
 31
0.0
  0
LINE
  5
2DE
330
21F
100
AcDbEntity
  8
02___PRT_ALL_AXES
  6
Continuous
 62
     7
100
AcDbLine
 10
108.0338870288731
 20
218.6078169899627
 30
0.0
 11
91.03388702887314
 21
218.6078169899627
 31
0.0
  0
LINE
  5
2DF
330
21F
100
AcDbEntity
  8
7_ALL_FEATURES
  6
Continuous
 62
     7
100
AcDbLine
 10
50.53388702887314
 20
222.1078169899627
 30
0.0
 11
148.5338870288732
 21
222.1078169899627
 31
0.0
  0
LINE
  5
2E0
330
21F
100
AcDbEntity
  8
7_ALL_FEATURES
  6
Continuous
 62
     7
100
AcDbLine
 10
49.53388702887314
 20
223.1078169899627
 30
0.0
 11
149.5338870288732
 21
223.1078169899627
 31
0.0
  0
LINE
  5
2E1
330
21F
100
AcDbEntity
  8
7_ALL_FEATURES
  6
Continuous
 62
     7
100
AcDbLine
 10
49.53388702887314
 20
225.1078169899627
 30
0.0
 11
149.5338870288732
 21
225.1078169899627
 31
0.0
  0
LINE
  5
2E2
330
21F
100
AcDbEntity
  8
02___PRT_ALL_AXES
  6
Continuous
 62
     7
100
AcDbLine
 10
91.03388702887314
 20
222.1078169899627
 30
0.0
 11
91.03388702887314
 21
218.6078169899627
 31
0.0
  0
LINE
  5
2E3
330
21F
100
AcDbEntity
  8
02___PRT_ALL_AXES
  6
Continuous
 62
     7
100
AcDbLine
 10
91.03388702887314
 20
204.1885073009626
 30
0.0
 11
91.03388702887314
 21
214.6078169899627
 31
0.0
  0
LINE
  5
2E4
330
21F
100
AcDbEntity
  8
02___PRT_ALL_AXES
  6
Continuous
 62
     7
100
AcDbLine
 10
92.03388702887314
 20
214.6078169899627
 30
0.0
 11
92.03388702887314
 21
218.6078169899627
 31
0.0
  0
LINE
  5
2E5
330
21F
100
AcDbEntity
  8
02___PRT_ALL_AXES
  6
Continuous
 62
     7
100
AcDbLine
 10
92.47420985527314
 20
206.3642733753626
 30
0.0
 11
92.47420985527314
 21
206.3909783959626
 31
0.0
  0
LINE
  5
2E6
330
21F
100
AcDbEntity
  8
7_ALL_FEATURES
  6
Continuous
 62
     7
100
AcDbLine
 10
149.5338870288732
 20
228.1078169899627
 30
0.0
 11
49.53388702887314
 21
228.1078169899627
 31
0.0
  0
LINE
  5
2E7
330
21F
100
AcDbEntity
  8
7_ALL_FEATURES
  6
Continuous
 62
     7
100
AcDbLine
 10
49.53388702887314
 20
230.6078169899627
 30
0.0
 11
149.5338870288732
 21
230.6078169899627
 31
0.0
  0
LINE
  5
2E8
330
21F
100
AcDbEntity
  8
02___PRT_ALL_AXES
  6
Continuous
 62
     7
100
AcDbLine
 10
98.09356420247313
 20
206.3642733753626
 30
0.0
 11
98.09356420247313
 21
206.3909783959626
 31
0.0
  0
LINE
  5
2E9
330
21F
100
AcDbEntity
  8
02___PRT_ALL_AXES
  6
Continuous
 62
     7
100
AcDbLine
 10
99.53388702887314
 20
222.1078169899627
 30
0.0
 11
99.53388702887314
 21
218.6078169899627
 31
0.0
  0
LINE
  5
2EA
330
21F
100
AcDbEntity
  8
02___PRT_ALL_AXES
  6
Continuous
 62
     7
100
AcDbLine
 10
99.53388702887314
 20
214.6078169899627
 30
0.0
 11
99.53388702887314
 21
207.1078169899627
 31
0.0
  0
LINE
  5
2EB
330
21F
100
AcDbEntity
  8
7_ALL_FEATURES
  6
Continuous
 62
     7
100
AcDbLine
 10
149.5338870288732
 20
233.6078169899627
 30
0.0
 11
49.53388702887314
 21
233.6078169899627
 31
0.0
  0
LINE
  5
2EC
330
21F
100
AcDbEntity
  8
7_ALL_FEATURES
  6
Continuous
 62
     7
100
AcDbLine
 10
49.53388702887314
 20
236.1078169899627
 30
0.0
 11
149.5338870288732
 21
236.1078169899627
 31
0.0
  0
LINE
  5
2ED
330
21F
100
AcDbEntity
  8
02___PRT_ALL_AXES
  6
Continuous
 62
     7
100
AcDbLine
 10
100.9742098552731
 20
206.3642733753626
 30
0.0
 11
100.9742098552731
 21
206.3909783959626
 31
0.0
  0
LINE
  5
2EE
330
21F
100
AcDbEntity
  8
7_ALL_FEATURES
  6
Continuous
 62
     7
100
AcDbLine
 10
149.5338870288732
 20
239.1078169899627
 30
0.0
 11
49.53388702887314
 21
239.1078169899627
 31
0.0
  0
LINE
  5
2EF
330
21F
100
AcDbEntity
  8
02___PRT_ALL_AXES
  6
Continuous
 62
     7
100
AcDbLine
 10
106.5935642024731
 20
206.3642733753626
 30
0.0
 11
106.5935642024731
 21
206.3909783959626
 31
0.0
  0
LINE
  5
2F0
330
21F
100
AcDbEntity
  8
02___PRT_ALL_AXES
  6
Continuous
 62
     7
100
AcDbLine
 10
107.0338870288731
 20
214.6078169899627
 30
0.0
 11
107.0338870288731
 21
218.6078169899627
 31
0.0
  0
LINE
  5
2F1
330
21F
100
AcDbEntity
  8
02___PRT_ALL_AXES
  6
Continuous
 62
     7
100
AcDbLine
 10
108.0338870288731
 20
222.1078169899627
 30
0.0
 11
108.0338870288731
 21
218.6078169899627
 31
0.0
  0
LINE
  5
2F2
330
21F
100
AcDbEntity
  8
02___PRT_ALL_AXES
  6
Continuous
 62
     7
100
AcDbLine
 10
108.0338870288731
 20
204.1885073009626
 30
0.0
 11
108.0338870288731
 21
214.6078169899627
 31
0.0
  0
LINE
  5
2F3
330
21F
100
AcDbEntity
  8
3_ALL_AXES
  6
Continuous
 62
     7
100
AcDbLine
 10
37.53388702887314
 20
247.1078169899627
 30
0.0
 11
161.5338870288732
 21
247.1078169899627
 31
0.0
  0
LINE
  5
2F4
330
21F
100
AcDbEntity
  8
7_ALL_FEATURES
  6
Continuous
 62
     7
100
AcDbLine
 10
161.5338870288732
 20
261.8078169145627
 30
0.0
 11
37.53388702887314
 21
261.8078169145627
 31
0.0
  0
LINE
  5
2F5
330
21F
100
AcDbEntity
  8
7_ALL_FEATURES
  6
Continuous
 62
     7
100
AcDbLine
 10
161.2338870288731
 20
262.1078169899627
 30
0.0
 11
37.83388702887314
 21
262.1078169899627
 31
0.0
  0
LINE
  5
2F6
330
21F
100
AcDbEntity
  8
7_ALL_FEATURES
  6
Continuous
 62
     9
100
AcDbLine
 10
161.5338870288732
 20
262.4078169899627
 30
0.0
 11
37.53388702887314
 21
262.4078169899627
 31
0.0
  0
LINE
  5
2F7
330
21F
100
AcDbEntity
  8
7_ALL_FEATURES
  6
Continuous
 62
     9
100
AcDbLine
 10
37.53388702887314
 20
268.8078169899626
 30
0.0
 11
161.5338870288732
 21
268.8078169899626
 31
0.0
  0
LINE
  5
2F8
330
21F
100
AcDbEntity
  8
7_ALL_FEATURES
  6
Continuous
 62
     7
100
AcDbLine
 10
24.83388702887314
 20
269.1078169899627
 30
0.0
 11
174.2338870288731
 21
269.1078169899627
 31
0.0
  0
LINE
  5
2F9
330
21F
100
AcDbEntity
  8
7_ALL_FEATURES
  6
Continuous
 62
     9
100
AcDbLine
 10
174.5338870288732
 20
269.4078169899627
 30
0.0
 11
24.53388702887314
 21
269.4078169899627
 31
0.0
  0
LINE
  5
2FA
330
21F
100
AcDbEntity
  8
7_ALL_FEATURES
  6
Continuous
 62
     9
100
AcDbLine
 10
174.5338870288732
 20
269.9835529211626
 30
0.0
 11
24.53388702887314
 21
269.9835529211626
 31
0.0
  0
LINE
  5
2FB
330
21F
100
AcDbEntity
  8
7_ALL_FEATURES
  6
Continuous
 62
     9
100
AcDbLine
 10
174.4460190632731
 20
270.1956849555626
 30
0.0
 11
24.62175499447314
 21
270.1956849555626
 31
0.0
  0
LINE
  5
2FC
330
21F
100
AcDbEntity
  8
7_ALL_FEATURES
  6
Continuous
 62
     9
100
AcDbLine
 10
172.6217549944731
 20
272.0199490243627
 30
0.0
 11
26.44601906327314
 21
272.0199490243627
 31
0.0
  0
LINE
  5
2FD
330
21F
100
AcDbEntity
  8
7_ALL_FEATURES
  6
Continuous
 62
     7
100
AcDbLine
 10
26.65815109767314
 20
272.1078169899627
 30
0.0
 11
172.4096229600731
 21
272.1078169899627
 31
0.0
  0
LINE
  5
2FE
330
21F
100
AcDbEntity
  8
7_ALL_FEATURES
  6
Continuous
 62
     7
100
AcDbLine
 10
139.5338870288732
 20
239.1078169899627
 30
0.0
 11
139.5338870288732
 21
236.1078169899627
 31
0.0
  0
LINE
  5
2FF
330
21F
100
AcDbEntity
  8
7_ALL_FEATURES
  6
Continuous
 62
     7
100
AcDbLine
 10
139.5338870288732
 20
233.6078169899627
 30
0.0
 11
139.5338870288732
 21
230.6078169899627
 31
0.0
  0
LINE
  5
300
330
21F
100
AcDbEntity
  8
7_ALL_FEATURES
  6
Continuous
 62
     7
100
AcDbLine
 10
139.5338870288732
 20
228.1078169899627
 30
0.0
 11
139.5338870288732
 21
225.1078169899627
 31
0.0
  0
LINE
  5
301
330
21F
100
AcDbEntity
  8
3_ALL_AXES
  6
Continuous
 62
     7
100
AcDbLine
 10
149.5338870288732
 20
223.1078169899627
 30
0.0
 11
149.5338870288732
 21
225.1078169899627
 31
0.0
  0
LINE
  5
302
330
21F
100
AcDbEntity
  8
3_ALL_AXES
  6
Continuous
 62
     7
100
AcDbLine
 10
149.5338870288732
 20
228.1078169899627
 30
0.0
 11
149.5338870288732
 21
230.6078169899627
 31
0.0
  0
LINE
  5
303
330
21F
100
AcDbEntity
  8
3_ALL_AXES
  6
Continuous
 62
     7
100
AcDbLine
 10
149.5338870288732
 20
233.6078169899627
 30
0.0
 11
149.5338870288732
 21
236.1078169899627
 31
0.0
  0
LINE
  5
304
330
21F
100
AcDbEntity
  8
3_ALL_AXES
  6
Continuous
 62
     7
100
AcDbLine
 10
149.5338870288732
 20
239.1078169899627
 30
0.0
 11
149.5338870288732
 21
247.1078169899627
 31
0.0
  0
LINE
  5
305
330
21F
100
AcDbEntity
  8
7_ALL_FEATURES
  6
Continuous
 62
     7
100
AcDbLine
 10
148.5338870288732
 20
222.1078169899627
 30
0.0
 11
149.5338870288732
 21
223.1078169899627
 31
0.0
  0
LINE
  5
306
330
21F
100
AcDbEntity
  8
7_ALL_FEATURES
  6
Continuous
 62
     7
100
AcDbLine
 10
161.2338844988731
 20
262.1078145335626
 30
0.0
 11
161.5338845608732
 21
261.8078144473627
 31
0.0
  0
LINE
  5
307
330
21F
100
AcDbEntity
  8
3_ALL_AXES
  6
Continuous
 62
     7
100
AcDbLine
 10
161.5338870288732
 20
247.1078169899627
 30
0.0
 11
161.5338870288732
 21
261.8078169153626
 31
0.0
  0
LINE
  5
308
330
21F
100
AcDbEntity
  8
3_ALL_AXES
  6
Continuous
 62
     7
100
AcDbLine
 10
161.5338870288732
 20
262.4078169899627
 30
0.0
 11
161.5338870288732
 21
268.8078169899626
 31
0.0
  0
LINE
  5
309
330
21F
100
AcDbEntity
  8
3_ALL_AXES
  6
Continuous
 62
     7
100
AcDbLine
 10
174.5338870288732
 20
269.4078169899627
 30
0.0
 11
174.5338870288732
 21
269.9835529211626
 31
0.0
  0
LINE
  5
30A
330
21F
100
AcDbEntity
  8
3_ALL_AXES
  6
Continuous
 62
     7
100
AcDbLine
 10
174.4460190632731
 20
270.1956849555626
 30
0.0
 11
172.6217549944731
 21
272.0199490243627
 31
0.0
  0
LINE
  5
30B
330
21F
100
AcDbEntity
  8
02___PRT_ALL_AXES
  6
Continuous
 62
     7
100
AcDbLine
 10
79.4766975312731
 20
68.65483870269571
 30
0.0
 11
79.56517416167311
 21
68.84457744869576
 31
0.0
  0
LINE
  5
30C
330
21F
100
AcDbEntity
  8
02___PRT_ALL_AXES
  6
Continuous
 62
     7
100
AcDbLine
 10
126.6353736464731
 20
150.3725544788958
 30
0.0
 11
126.7554504142731
 21
150.5440418752957
 31
0.0
  0
LINE
  5
30D
330
21F
100
AcDbEntity
  8
02___PRT_ALL_AXES
  6
Continuous
 62
     7
100
AcDbLine
 10
146.8126404642731
 20
115.8039753374957
 30
0.0
 11
146.6040865136731
 21
115.7857292310958
 31
0.0
  0
LINE
  5
30E
330
21F
100
AcDbEntity
  8
02___PRT_ALL_AXES
  6
Continuous
 62
     7
100
AcDbLine
 10
52.46368754407311
 20
115.7857292310958
 30
0.0
 11
52.2551335814731
 21
115.8039753384957
 31
0.0
  0
LINE
  5
30F
330
21F
100
AcDbEntity
  8
02___PRT_ALL_AXES
  6
Continuous
 62
     7
100
AcDbLine
 10
72.31232365027311
 20
150.5440418658957
 30
0.0
 11
72.43240041127311
 21
150.3725544788958
 31
0.0
  0
LINE
  5
310
330
21F
100
AcDbEntity
  8
02___PRT_ALL_AXES
  6
Continuous
 62
     7
100
AcDbLine
 10
119.5025998960731
 20
68.84457744869576
 30
0.0
 11
119.5910765366731
 21
68.65483868069572
 31
0.0
  0
LINE
  5
311
330
21F
100
AcDbEntity
  8
3_ALL_AXES
  6
Continuous
 62
     7
100
AcDbLine
 10
193.181367817691
 20
269.4078169899627
 30
0.0
 11
193.181367817691
 21
269.9835529211627
 31
0.0
  0
LINE
  5
312
330
21F
100
AcDbEntity
  8
7_ALL_FEATURES
  6
Continuous
 62
     7
100
AcDbLine
 10
195.093499852091
 20
272.0199490243627
 30
0.0
 11
193.269235783291
 21
270.1956849555627
 31
0.0
  0
LINE
  5
313
330
21F
100
AcDbEntity
  8
3_ALL_AXES
  6
Continuous
 62
     7
100
AcDbLine
 10
193.269235783291
 20
270.1956849555627
 30
0.0
 11
195.093499852091
 21
272.0199490243627
 31
0.0
  0
LINE
  5
314
330
21F
100
AcDbEntity
  8
7_ALL_FEATURES
  6
Continuous
 62
     7
100
AcDbLine
 10
206.181367817691
 20
261.8078169899628
 30
0.0
 11
206.181367817691
 21
247.1078169899627
 31
0.0
  0
LINE
  5
315
330
21F
100
AcDbEntity
  8
3_ALL_AXES
  6
Continuous
 62
     7
100
AcDbLine
 10
206.181367817691
 20
247.1078169899627
 30
0.0
 11
206.181367817691
 21
261.8078169899628
 31
0.0
  0
LINE
  5
316
330
21F
100
AcDbEntity
  8
3_ALL_AXES
  6
Continuous
 62
     7
100
AcDbLine
 10
206.181367817691
 20
262.4078169899627
 30
0.0
 11
206.181367817691
 21
268.8078169899628
 31
0.0
  0
LINE
  5
317
330
21F
100
AcDbEntity
  8
7_ALL_FEATURES
  6
Continuous
 62
     7
100
AcDbLine
 10
206.481370311091
 20
262.1078144969627
 30
0.0
 11
206.181370323291
 21
261.8078144849626
 31
0.0
  0
LINE
  5
318
330
21F
100
AcDbEntity
  8
7_ALL_FEATURES
  6
Continuous
 62
     7
100
AcDbLine
 10
218.181367817691
 20
247.1078169899627
 30
0.0
 11
218.181367817691
 21
239.1078169899627
 31
0.0
  0
LINE
  5
319
330
21F
100
AcDbEntity
  8
7_ALL_FEATURES
  6
Continuous
 62
     7
100
AcDbLine
 10
218.181367817691
 20
236.1078169899627
 30
0.0
 11
218.181367817691
 21
233.6078169899627
 31
0.0
  0
LINE
  5
31A
330
21F
100
AcDbEntity
  8
7_ALL_FEATURES
  6
Continuous
 62
     7
100
AcDbLine
 10
218.181367817691
 20
225.1078169899627
 30
0.0
 11
218.181367817691
 21
223.1078169899627
 31
0.0
  0
LINE
  5
31B
330
21F
100
AcDbEntity
  8
3_ALL_AXES
  6
Continuous
 62
     7
100
AcDbLine
 10
218.181367817691
 20
223.1078169899627
 30
0.0
 11
218.181367817691
 21
225.1078169899627
 31
0.0
  0
LINE
  5
31C
330
21F
100
AcDbEntity
  8
3_ALL_AXES
  6
Continuous
 62
     7
100
AcDbLine
 10
218.181367817691
 20
228.1078169899627
 30
0.0
 11
218.181367817691
 21
230.6078169899627
 31
0.0
  0
LINE
  5
31D
330
21F
100
AcDbEntity
  8
3_ALL_AXES
  6
Continuous
 62
     7
100
AcDbLine
 10
218.181367817691
 20
233.6078169899627
 30
0.0
 11
218.181367817691
 21
236.1078169899627
 31
0.0
  0
LINE
  5
31E
330
21F
100
AcDbEntity
  8
3_ALL_AXES
  6
Continuous
 62
     7
100
AcDbLine
 10
218.181367817691
 20
239.1078169899627
 30
0.0
 11
218.181367817691
 21
247.1078169899627
 31
0.0
  0
LINE
  5
31F
330
21F
100
AcDbEntity
  8
7_ALL_FEATURES
  6
Continuous
 62
     7
100
AcDbLine
 10
219.181367817691
 20
222.1078169899627
 30
0.0
 11
218.181367817691
 21
223.1078169899627
 31
0.0
  0
LINE
  5
320
330
21F
100
AcDbEntity
  8
7_ALL_FEATURES
  6
Continuous
 62
     7
100
AcDbLine
 10
228.181367817691
 20
225.1078169899627
 30
0.0
 11
228.181367817691
 21
228.1078169899627
 31
0.0
  0
LINE
  5
321
330
21F
100
AcDbEntity
  8
7_ALL_FEATURES
  6
Continuous
 62
     7
100
AcDbLine
 10
228.181367817691
 20
230.6078169899627
 30
0.0
 11
228.181367817691
 21
233.6078169899627
 31
0.0
  0
LINE
  5
322
330
21F
100
AcDbEntity
  8
7_ALL_FEATURES
  6
Continuous
 62
     7
100
AcDbLine
 10
228.181367817691
 20
236.1078169899627
 30
0.0
 11
228.181367817691
 21
239.1078169899627
 31
0.0
  0
LINE
  5
323
330
21F
100
AcDbEntity
  8
02___PRT_ALL_AXES
  6
Continuous
 62
     7
100
AcDbLine
 10
263.339708220891
 20
202.1078169899627
 30
0.0
 11
273.023027414491
 21
202.1078169899627
 31
0.0
  0
LINE
  5
324
330
21F
100
AcDbEntity
  8
02___PRT_ALL_AXES
  6
Continuous
 62
     9
100
AcDbLine
 10
277.279483799891
 20
206.3642733753627
 30
0.0
 11
277.164751622291
 21
206.3642733753627
 31
0.0
  0
LINE
  5
325
330
21F
100
AcDbEntity
  8
02___PRT_ALL_AXES
  6
Continuous
 62
     9
100
AcDbLine
 10
273.920415877491
 20
206.3642733753627
 30
0.0
 11
271.425703562691
 21
206.3642733753627
 31
0.0
  0
LINE
  5
326
330
21F
100
AcDbEntity
  8
02___PRT_ALL_AXES
  6
Continuous
 62
     9
100
AcDbLine
 10
264.937032072691
 20
206.3642733753627
 30
0.0
 11
262.442319757891
 21
206.3642733753627
 31
0.0
  0
LINE
  5
327
330
21F
100
AcDbEntity
  8
02___PRT_ALL_AXES
  6
Continuous
 62
     9
100
AcDbLine
 10
259.1979840130911
 20
206.3642733753627
 30
0.0
 11
259.083251835491
 21
206.3642733753627
 31
0.0
  0
LINE
  5
328
330
21F
100
AcDbEntity
  8
02___PRT_ALL_AXES
  6
Continuous
 62
     7
100
AcDbLine
 10
273.920415877491
 20
206.3909783959627
 30
0.0
 11
271.425703562691
 21
206.3909783959627
 31
0.0
  0
LINE
  5
329
330
21F
100
AcDbEntity
  8
02___PRT_ALL_AXES
  6
Continuous
 62
     7
100
AcDbLine
 10
264.937032072691
 20
206.3909783959627
 30
0.0
 11
262.442319757891
 21
206.3909783959627
 31
0.0
  0
LINE
  5
32A
330
21F
100
AcDbEntity
  8
02___PRT_ALL_AXES
  6
Continuous
 62
     7
100
AcDbLine
 10
259.083251835491
 20
206.3909783959627
 30
0.0
 11
259.1979840130911
 21
206.3909783959627
 31
0.0
  0
LINE
  5
32B
330
21F
100
AcDbEntity
  8
02___PRT_ALL_AXES
  6
Continuous
 62
     7
100
AcDbLine
 10
277.164751622291
 20
206.3909783959627
 30
0.0
 11
277.279483799891
 21
206.3909783959627
 31
0.0
  0
LINE
  5
32C
330
21F
100
AcDbEntity
  8
02___PRT_ALL_AXES
  6
Continuous
 62
     7
100
AcDbLine
 10
259.083251835491
 20
206.3909783959627
 30
0.0
 11
258.366413241491
 21
207.1078169899627
 31
0.0
  0
LINE
  5
32D
330
21F
100
AcDbEntity
  8
02___PRT_ALL_AXES
  6
Continuous
 62
     7
100
AcDbLine
 10
277.996322393891
 20
214.6078169899627
 30
0.0
 11
258.366413241491
 21
214.6078169899627
 31
0.0
  0
LINE
  5
32E
330
21F
100
AcDbEntity
  8
02___PRT_ALL_AXES
  6
Continuous
 62
     7
100
AcDbLine
 10
277.996322393891
 20
218.6078169899627
 30
0.0
 11
258.366413241491
 21
218.6078169899627
 31
0.0
  0
LINE
  5
32F
330
21F
100
AcDbEntity
  8
7_ALL_FEATURES
  6
Continuous
 62
     7
100
AcDbLine
 10
317.181367817691
 20
222.1078169899627
 30
0.0
 11
219.181367817691
 21
222.1078169899627
 31
0.0
  0
LINE
  5
330
330
21F
100
AcDbEntity
  8
7_ALL_FEATURES
  6
Continuous
 62
     7
100
AcDbLine
 10
318.181367817691
 20
223.1078169899627
 30
0.0
 11
218.181367817691
 21
223.1078169899627
 31
0.0
  0
LINE
  5
331
330
21F
100
AcDbEntity
  8
7_ALL_FEATURES
  6
Continuous
 62
     7
100
AcDbLine
 10
218.181367817691
 20
225.1078169899627
 30
0.0
 11
318.181367817691
 21
225.1078169899627
 31
0.0
  0
LINE
  5
332
330
21F
100
AcDbEntity
  8
02___PRT_ALL_AXES
  6
Continuous
 62
     7
100
AcDbLine
 10
258.366413241491
 20
222.1078169899627
 30
0.0
 11
258.366413241491
 21
218.6078169899627
 31
0.0
  0
LINE
  5
333
330
21F
100
AcDbEntity
  8
02___PRT_ALL_AXES
  6
Continuous
 62
     7
100
AcDbLine
 10
258.366413241491
 20
214.6078169899627
 30
0.0
 11
258.366413241491
 21
207.1078169899627
 31
0.0
  0
LINE
  5
334
330
21F
100
AcDbEntity
  8
02___PRT_ALL_AXES
  6
Continuous
 62
     7
100
AcDbLine
 10
259.083251835491
 20
206.3642733753627
 30
0.0
 11
259.083251835491
 21
206.3909783959627
 31
0.0
  0
LINE
  5
335
330
21F
100
AcDbEntity
  8
02___PRT_ALL_AXES
  6
Continuous
 62
     7
100
AcDbLine
 10
259.1979840130911
 20
206.3642733753627
 30
0.0
 11
259.1979840130911
 21
206.3909783959627
 31
0.0
  0
LINE
  5
336
330
21F
100
AcDbEntity
  8
02___PRT_ALL_AXES
  6
Continuous
 62
     7
100
AcDbLine
 10
260.681367817691
 20
218.6078169899627
 30
0.0
 11
260.681367817691
 21
214.6078169899627
 31
0.0
  0
LINE
  5
337
330
21F
100
AcDbEntity
  8
02___PRT_ALL_AXES
  6
Continuous
 62
     7
100
AcDbLine
 10
262.442319757891
 20
206.3642733753627
 30
0.0
 11
262.442319757891
 21
206.3909783959627
 31
0.0
  0
LINE
  5
338
330
21F
100
AcDbEntity
  8
02___PRT_ALL_AXES
  6
Continuous
 62
     7
100
AcDbLine
 10
263.273890529491
 20
222.1078169899627
 30
0.0
 11
263.273890529491
 21
218.6078169899627
 31
0.0
  0
LINE
  5
339
330
21F
100
AcDbEntity
  8
02___PRT_ALL_AXES
  6
Continuous
 62
     7
100
AcDbLine
 10
263.273890529491
 20
214.6078169899627
 30
0.0
 11
263.273890529491
 21
207.1078169899627
 31
0.0
  0
LINE
  5
33A
330
21F
100
AcDbEntity
  8
7_ALL_FEATURES
  6
Continuous
 62
     7
100
AcDbLine
 10
318.181367817691
 20
228.1078169899627
 30
0.0
 11
218.181367817691
 21
228.1078169899627
 31
0.0
  0
LINE
  5
33B
330
21F
100
AcDbEntity
  8
7_ALL_FEATURES
  6
Continuous
 62
     7
100
AcDbLine
 10
218.181367817691
 20
230.6078169899627
 30
0.0
 11
318.181367817691
 21
230.6078169899627
 31
0.0
  0
LINE
  5
33C
330
21F
100
AcDbEntity
  8
02___PRT_ALL_AXES
  6
Continuous
 62
     7
100
AcDbLine
 10
264.937032072691
 20
206.3642733753627
 30
0.0
 11
264.937032072691
 21
206.3909783959627
 31
0.0
  0
LINE
  5
33D
330
21F
100
AcDbEntity
  8
7_ALL_FEATURES
  6
Continuous
 62
     7
100
AcDbLine
 10
318.181367817691
 20
233.6078169899627
 30
0.0
 11
218.181367817691
 21
233.6078169899627
 31
0.0
  0
LINE
  5
33E
330
21F
100
AcDbEntity
  8
7_ALL_FEATURES
  6
Continuous
 62
     7
100
AcDbLine
 10
218.181367817691
 20
236.1078169899627
 30
0.0
 11
318.181367817691
 21
236.1078169899627
 31
0.0
  0
LINE
  5
33F
330
21F
100
AcDbEntity
  8
02___PRT_ALL_AXES
  6
Continuous
 62
     7
100
AcDbLine
 10
271.425703562691
 20
206.3642733753627
 30
0.0
 11
271.425703562691
 21
206.3909783959627
 31
0.0
  0
LINE
  5
340
330
21F
100
AcDbEntity
  8
02___PRT_ALL_AXES
  6
Continuous
 62
     7
100
AcDbLine
 10
273.088845105891
 20
222.1078169899627
 30
0.0
 11
273.088845105891
 21
218.6078169899627
 31
0.0
  0
LINE
  5
341
330
21F
100
AcDbEntity
  8
02___PRT_ALL_AXES
  6
Continuous
 62
     7
100
AcDbLine
 10
273.088845105891
 20
214.6078169899627
 30
0.0
 11
273.088845105891
 21
207.1078169899627
 31
0.0
  0
LINE
  5
342
330
21F
100
AcDbEntity
  8
02___PRT_ALL_AXES
  6
Continuous
 62
     7
100
AcDbLine
 10
273.920415877491
 20
206.3642733753627
 30
0.0
 11
273.920415877491
 21
206.3909783959627
 31
0.0
  0
LINE
  5
343
330
21F
100
AcDbEntity
  8
7_ALL_FEATURES
  6
Continuous
 62
     7
100
AcDbLine
 10
318.181367817691
 20
239.1078169899627
 30
0.0
 11
218.181367817691
 21
239.1078169899627
 31
0.0
  0
LINE
  5
344
330
21F
100
AcDbEntity
  8
02___PRT_ALL_AXES
  6
Continuous
 62
     7
100
AcDbLine
 10
275.681367817691
 20
218.6078169899627
 30
0.0
 11
275.681367817691
 21
214.6078169899627
 31
0.0
  0
LINE
  5
345
330
21F
100
AcDbEntity
  8
02___PRT_ALL_AXES
  6
Continuous
 62
     7
100
AcDbLine
 10
277.164751622291
 20
206.3642733753627
 30
0.0
 11
277.164751622291
 21
206.3909783959627
 31
0.0
  0
LINE
  5
346
330
21F
100
AcDbEntity
  8
02___PRT_ALL_AXES
  6
Continuous
 62
     7
100
AcDbLine
 10
277.279483799891
 20
206.3642733753627
 30
0.0
 11
277.279483799891
 21
206.3909783959627
 31
0.0
  0
LINE
  5
347
330
21F
100
AcDbEntity
  8
02___PRT_ALL_AXES
  6
Continuous
 62
     7
100
AcDbLine
 10
277.996322393891
 20
222.1078169899627
 30
0.0
 11
277.996322393891
 21
218.6078169899627
 31
0.0
  0
LINE
  5
348
330
21F
100
AcDbEntity
  8
02___PRT_ALL_AXES
  6
Continuous
 62
     7
100
AcDbLine
 10
277.996322393891
 20
214.6078169899627
 30
0.0
 11
277.996322393891
 21
207.1078169899627
 31
0.0
  0
LINE
  5
349
330
21F
100
AcDbEntity
  8
3_ALL_AXES
  6
Continuous
 62
     7
100
AcDbLine
 10
330.181367817691
 20
247.1078169899627
 30
0.0
 11
206.181367817691
 21
247.1078169899627
 31
0.0
  0
LINE
  5
34A
330
21F
100
AcDbEntity
  8
02___PRT_ALL_AXES
  6
Continuous
 62
     7
100
AcDbLine
 10
277.279483799891
 20
206.3909783959627
 30
0.0
 11
277.996322393891
 21
207.1078169899627
 31
0.0
  0
LINE
  5
34B
330
21F
100
AcDbEntity
  8
7_ALL_FEATURES
  6
Continuous
 62
     7
100
AcDbLine
 10
330.181367817691
 20
261.8078169899628
 30
0.0
 11
206.181367817691
 21
261.8078169899628
 31
0.0
  0
LINE
  5
34C
330
21F
100
AcDbEntity
  8
7_ALL_FEATURES
  6
Continuous
 62
     7
100
AcDbLine
 10
329.8813678176911
 20
262.1078169899627
 30
0.0
 11
206.481367817691
 21
262.1078169899627
 31
0.0
  0
LINE
  5
34D
330
21F
100
AcDbEntity
  8
7_ALL_FEATURES
  6
Continuous
 62
     9
100
AcDbLine
 10
330.181367817691
 20
262.4078169899627
 30
0.0
 11
206.181367817691
 21
262.4078169899627
 31
0.0
  0
LINE
  5
34E
330
21F
100
AcDbEntity
  8
7_ALL_FEATURES
  6
Continuous
 62
     9
100
AcDbLine
 10
206.181367817691
 20
268.8078169899628
 30
0.0
 11
330.181367817691
 21
268.8078169899628
 31
0.0
  0
LINE
  5
34F
330
21F
100
AcDbEntity
  8
7_ALL_FEATURES
  6
Continuous
 62
     7
100
AcDbLine
 10
342.8813678176911
 20
269.1078169899627
 30
0.0
 11
193.481367817691
 21
269.1078169899627
 31
0.0
  0
LINE
  5
350
330
21F
100
AcDbEntity
  8
7_ALL_FEATURES
  6
Continuous
 62
     9
100
AcDbLine
 10
343.181367817691
 20
269.4078169899627
 30
0.0
 11
193.181367817691
 21
269.4078169899627
 31
0.0
  0
LINE
  5
351
330
21F
100
AcDbEntity
  8
7_ALL_FEATURES
  6
Continuous
 62
     9
100
AcDbLine
 10
343.181367817691
 20
269.9835529211627
 30
0.0
 11
193.181367817691
 21
269.9835529211627
 31
0.0
  0
LINE
  5
352
330
21F
100
AcDbEntity
  8
7_ALL_FEATURES
  6
Continuous
 62
     9
100
AcDbLine
 10
343.093499852091
 20
270.1956849555627
 30
0.0
 11
193.269235783291
 21
270.1956849555627
 31
0.0
  0
LINE
  5
353
330
21F
100
AcDbEntity
  8
7_ALL_FEATURES
  6
Continuous
 62
     9
100
AcDbLine
 10
341.269235783291
 20
272.0199490243627
 30
0.0
 11
195.093499852091
 21
272.0199490243627
 31
0.0
  0
LINE
  5
354
330
21F
100
AcDbEntity
  8
7_ALL_FEATURES
  6
Continuous
 62
     7
100
AcDbLine
 10
341.057103748891
 20
272.1078169899627
 30
0.0
 11
195.305631886491
 21
272.1078169899627
 31
0.0
  0
LINE
  5
355
330
21F
100
AcDbEntity
  8
7_ALL_FEATURES
  6
Continuous
 62
     7
100
AcDbLine
 10
308.181367817691
 20
225.1078169899627
 30
0.0
 11
308.181367817691
 21
228.1078169899627
 31
0.0
  0
LINE
  5
356
330
21F
100
AcDbEntity
  8
7_ALL_FEATURES
  6
Continuous
 62
     7
100
AcDbLine
 10
308.181367817691
 20
230.6078169899627
 30
0.0
 11
308.181367817691
 21
233.6078169899627
 31
0.0
  0
LINE
  5
357
330
21F
100
AcDbEntity
  8
7_ALL_FEATURES
  6
Continuous
 62
     7
100
AcDbLine
 10
308.181367817691
 20
236.1078169899627
 30
0.0
 11
308.181367817691
 21
239.1078169899627
 31
0.0
  0
LINE
  5
358
330
21F
100
AcDbEntity
  8
7_ALL_FEATURES
  6
Continuous
 62
     7
100
AcDbLine
 10
318.181367817691
 20
247.1078169899627
 30
0.0
 11
318.181367817691
 21
239.1078169899627
 31
0.0
  0
LINE
  5
359
330
21F
100
AcDbEntity
  8
7_ALL_FEATURES
  6
Continuous
 62
     7
100
AcDbLine
 10
318.181367817691
 20
236.1078169899627
 30
0.0
 11
318.181367817691
 21
233.6078169899627
 31
0.0
  0
LINE
  5
35A
330
21F
100
AcDbEntity
  8
7_ALL_FEATURES
  6
Continuous
 62
     7
100
AcDbLine
 10
318.181367817691
 20
230.6078169899627
 30
0.0
 11
318.181367817691
 21
228.1078169899627
 31
0.0
  0
LINE
  5
35B
330
21F
100
AcDbEntity
  8
7_ALL_FEATURES
  6
Continuous
 62
     7
100
AcDbLine
 10
318.181367817691
 20
225.1078169899627
 30
0.0
 11
318.181367817691
 21
223.1078169899627
 31
0.0
  0
LINE
  5
35C
330
21F
100
AcDbEntity
  8
3_ALL_AXES
  6
Continuous
 62
     7
100
AcDbLine
 10
318.181367817691
 20
223.1078169899627
 30
0.0
 11
318.181367817691
 21
225.1078169899627
 31
0.0
  0
LINE
  5
35D
330
21F
100
AcDbEntity
  8
3_ALL_AXES
  6
Continuous
 62
     7
100
AcDbLine
 10
318.181367817691
 20
228.1078169899627
 30
0.0
 11
318.181367817691
 21
230.6078169899627
 31
0.0
  0
LINE
  5
35E
330
21F
100
AcDbEntity
  8
3_ALL_AXES
  6
Continuous
 62
     7
100
AcDbLine
 10
318.181367817691
 20
239.1078169899627
 30
0.0
 11
318.181367817691
 21
247.1078169899627
 31
0.0
  0
LINE
  5
35F
330
21F
100
AcDbEntity
  8
7_ALL_FEATURES
  6
Continuous
 62
     7
100
AcDbLine
 10
317.181367817691
 20
222.1078169899627
 30
0.0
 11
318.181367817691
 21
223.1078169899627
 31
0.0
  0
LINE
  5
360
330
21F
100
AcDbEntity
  8
7_ALL_FEATURES
  6
Continuous
 62
     7
100
AcDbLine
 10
329.881365324291
 20
262.1078144969627
 30
0.0
 11
330.181365312091
 21
261.8078144847627
 31
0.0
  0
LINE
  5
361
330
21F
100
AcDbEntity
  8
7_ALL_FEATURES
  6
Continuous
 62
     7
100
AcDbLine
 10
330.181367817691
 20
268.8078169899628
 30
0.0
 11
330.181367817691
 21
262.4078169899627
 31
0.0
  0
LINE
  5
362
330
21F
100
AcDbEntity
  8
7_ALL_FEATURES
  6
Continuous
 62
     7
100
AcDbLine
 10
330.181367817691
 20
261.8078169899628
 30
0.0
 11
330.181367817691
 21
247.1078169899627
 31
0.0
  0
LINE
  5
363
330
21F
100
AcDbEntity
  8
3_ALL_AXES
  6
Continuous
 62
     7
100
AcDbLine
 10
330.181367817691
 20
247.1078169899627
 30
0.0
 11
330.181367817691
 21
261.8078169899628
 31
0.0
  0
LINE
  5
364
330
21F
100
AcDbEntity
  8
3_ALL_AXES
  6
Continuous
 62
     7
100
AcDbLine
 10
330.181367817691
 20
262.4078169899627
 30
0.0
 11
330.181367817691
 21
268.8078169899628
 31
0.0
  0
LINE
  5
365
330
21F
100
AcDbEntity
  8
7_ALL_FEATURES
  6
Continuous
 62
     7
100
AcDbLine
 10
343.181367817691
 20
269.9835529211627
 30
0.0
 11
343.181367817691
 21
269.4078169899627
 31
0.0
  0
LINE
  5
366
330
21F
100
AcDbEntity
  8
3_ALL_AXES
  6
Continuous
 62
     7
100
AcDbLine
 10
343.181367817691
 20
269.4078169899627
 30
0.0
 11
343.181367817691
 21
269.9835529211627
 31
0.0
  0
LINE
  5
367
330
21F
100
AcDbEntity
  8
7_ALL_FEATURES
  6
Continuous
 62
     7
100
AcDbLine
 10
341.269235783291
 20
272.0199490243627
 30
0.0
 11
343.093499852091
 21
270.1956849555627
 31
0.0
  0
LINE
  5
368
330
21F
100
AcDbEntity
  8
3_ALL_AXES
  6
Continuous
 62
     7
100
AcDbLine
 10
343.093499852091
 20
270.1956849555627
 30
0.0
 11
341.269235783291
 21
272.0199490243627
 31
0.0
  0
LINE
  5
369
330
21F
100
AcDbEntity
  8
3_ALL_AXES
  6
Continuous
 62
     7
100
AcDbLine
 10
294.6237490248
 20
127.6961671355
 30
0.0
 11
294.5851718756
 21
127.9446448178
 31
0.0
  0
LINE
  5
36A
330
21F
100
AcDbEntity
  8
3_ALL_AXES
  6
Continuous
 62
     7
100
AcDbLine
 10
299.3362079524
 20
139.0597875711
 30
0.0
 11
300.0003207915
 21
139.7187612142
 31
0.0
  0
LINE
  5
36B
330
21F
100
AcDbEntity
  8
3_ALL_AXES
  6
Continuous
 62
     7
100
AcDbLine
 10
310.0780986503
 20
109.6315873929
 30
0.0
 11
309.9440887784
 21
110.4947528435
 31
0.0
  0
LINE
  5
36C
330
21F
100
AcDbEntity
  8
3_ALL_AXES
  6
Continuous
 62
     7
100
AcDbLine
 10
308.3076903236
 20
129.9974485987
 30
0.0
 11
308.2004825639
 21
130.6879800716
 31
0.0
  0
LINE
  5
36D
330
21F
100
AcDbEntity
  8
02___PRT_ALL_AXES
  6
Continuous
 62
     7
100
AcDbLine
 10
316.5683431175
 20
141.5339773957
 30
0.0
 11
316.4435025129
 21
142.3380830575
 31
0.0
  0
LINE
  5
36E
330
21F
100
AcDbEntity
  8
02___PRT_ALL_AXES
  6
Continuous
 62
     7
100
AcDbLine
 10
345.4301750866
 20
145.3287416891
 30
0.0
 11
346.2820060186
 21
146.0495471246
 31
0.0
  0
LINE
  5
36F
330
21F
100
AcDbEntity
  8
02___PRT_ALL_AXES
  6
Continuous
 62
     7
100
AcDbLine
 10
346.2986964676
 20
145.0871078926
 30
0.0
 11
346.4160158905
 21
145.186381674
 31
0.0
  0
LINE
  5
370
330
21F
100
AcDbEntity
  8
02___PRT_ALL_AXES
  6
Continuous
 62
     7
100
AcDbLine
 10
316.4435025129
 20
142.3380830575
 30
0.0
 11
317.2542216188
 21
141.8755773176
 31
0.0
  0
LINE
  5
371
330
21F
100
AcDbEntity
  8
02___PRT_ALL_AXES
  6
Continuous
 62
     7
100
AcDbLine
 10
355.0007029284
 20
137.5842251749
 30
0.0
 11
354.9472667571
 21
137.5752579031
 31
0.0
  0
LINE
  5
372
330
21F
100
AcDbEntity
  8
02___PRT_ALL_AXES
  6
Continuous
 62
     7
100
AcDbLine
 10
346.4160158905
 20
145.186381674
 30
0.0
 11
346.2820060186
 21
146.0495471246
 31
0.0
  0
LINE
  5
373
330
21F
100
AcDbEntity
  8
3_ALL_AXES
  6
Continuous
 62
     7
100
AcDbLine
 10
355.0002909026
 20
137.2337262696
 30
0.0
 11
354.8911222864
 21
137.9368877339
 31
0.0
  0
LINE
  5
374
330
21F
100
AcDbEntity
  8
7_ALL_FEATURES
  6
Continuous
 62
     9
100
AcDbLine
 10
357.674352368
 20
137.5703469564
 30
0.0
 11
357.6671846308
 21
137.6495270421
 31
0.0
  0
LINE
  5
375
330
21F
100
AcDbEntity
  8
3_ALL_AXES
  6
Continuous
 62
     7
100
AcDbLine
 10
359.4861830128
 20
117.3023891519
 30
0.0
 11
359.3521731409
 21
118.1655546026
 31
0.0
  0
LINE
  5
376
330
21F
100
AcDbEntity
  8
3_ALL_AXES
  6
Continuous
 62
     7
100
AcDbLine
 10
360.7997997646
 20
148.6022548469
 30
0.0
 11
359.9671480739
 21
149.0288498391
 31
0.0
  0
LINE
  5
377
330
21F
100
AcDbEntity
  8
3_ALL_AXES
  6
Continuous
 62
     7
100
AcDbLine
 10
368.7358755685
 20
139.2023697741
 30
0.0
 11
368.6972984193
 21
139.4508474564
 31
0.0
  0
ARC
  5
378
330
21F
100
AcDbEntity
  8
02___PRT_ALL_AXES
  6
Continuous
 62
     7
100
AcDbCircle
 10
94.69222743207312
 20
206.3642733753626
 30
0.0
 40
4.2564563854
100
AcDbArc
 50
210.7167873925004
 51
270.0
  0
ARC
  5
379
330
21F
100
AcDbEntity
  8
02___PRT_ALL_AXES
  6
Continuous
 62
     7
100
AcDbCircle
 10
104.3755466256731
 20
206.3642733753626
 30
0.0
 40
4.2564563854
100
AcDbArc
 50
270.0
 51
329.2832126074995
  0
ARC
  5
37A
330
21F
100
AcDbEntity
  8
7_ALL_FEATURES
  6
Continuous
 62
     7
100
AcDbCircle
 10
37.83388702887314
 20
262.4078169899627
 30
0.0
 40
0.3
100
AcDbArc
 50
180.0
 51
270.0
  0
ARC
  5
37B
330
21F
100
AcDbEntity
  8
7_ALL_FEATURES
  6
Continuous
 62
     7
100
AcDbCircle
 10
161.2338870288731
 20
262.4078169899627
 30
0.0
 40
0.3
100
AcDbArc
 50
270.0
 51
0.0
  0
ARC
  5
37C
330
21F
100
AcDbEntity
  8
7_ALL_FEATURES
  6
Continuous
 62
     7
100
AcDbCircle
 10
172.4096229600731
 20
271.8078169899626
 30
0.0
 40
0.3
100
AcDbArc
 50
44.99999999999232
 51
90.0
  0
ARC
  5
37D
330
21F
100
AcDbEntity
  8
7_ALL_FEATURES
  6
Continuous
 62
     7
100
AcDbCircle
 10
26.65815109767314
 20
271.8078169899626
 30
0.0
 40
0.3
100
AcDbArc
 50
90.0
 51
135.0000000000067
  0
ARC
  5
37E
330
21F
100
AcDbEntity
  8
7_ALL_FEATURES
  6
Continuous
 62
     7
100
AcDbCircle
 10
174.2338870288731
 20
269.9835529211626
 30
0.0
 40
0.3
100
AcDbArc
 50
0.0
 51
45.00000000001535
  0
ARC
  5
37F
330
21F
100
AcDbEntity
  8
7_ALL_FEATURES
  6
Continuous
 62
     7
100
AcDbCircle
 10
24.83388702887314
 20
269.9835529211626
 30
0.0
 40
0.3
100
AcDbArc
 50
134.9999999999837
 51
180.0
  0
ARC
  5
380
330
21F
100
AcDbEntity
  8
7_ALL_FEATURES
  6
Continuous
 62
     7
100
AcDbCircle
 10
174.2338870288731
 20
269.4078169899627
 30
0.0
 40
0.3
100
AcDbArc
 50
270.0
 51
0.0
  0
ARC
  5
381
330
21F
100
AcDbEntity
  8
7_ALL_FEATURES
  6
Continuous
 62
     7
100
AcDbCircle
 10
24.83388702887314
 20
269.4078169899627
 30
0.0
 40
0.3
100
AcDbArc
 50
180.0
 51
270.0
  0
ARC
  5
382
330
21F
100
AcDbEntity
  8
7_ALL_FEATURES
  6
Continuous
 62
     7
100
AcDbCircle
 10
37.23388702887314
 20
268.8078169899626
 30
0.0
 40
0.3
100
AcDbArc
 50
0.0
 51
90.0
  0
ARC
  5
383
330
21F
100
AcDbEntity
  8
7_ALL_FEATURES
  6
Continuous
 62
     7
100
AcDbCircle
 10
161.8338870288732
 20
268.8078169899626
 30
0.0
 40
0.3
100
AcDbArc
 50
90.0
 51
180.0
  0
CIRCLE
  5
384
330
21F
100
AcDbEntity
  8
7_ALL_FEATURES
  6
Continuous
 62
     9
100
AcDbCircle
 10
70.53388702887311
 20
61.43814696669574
 30
0.0
 40
5.75
  0
CIRCLE
  5
385
330
21F
100
AcDbEntity
  8
7_ALL_FEATURES
  6
Continuous
 62
     7
100
AcDbCircle
 10
70.53388702887311
 20
61.43814696669574
 30
0.0
 40
5.25
  0
CIRCLE
  5
386
330
21F
100
AcDbEntity
  8
7_ALL_FEATURES
  6
Continuous
 62
     9
100
AcDbCircle
 10
70.53388702887311
 20
61.43814696669574
 30
0.0
 40
2.8378679656
  0
CIRCLE
  5
387
330
21F
100
AcDbEntity
  8
7_ALL_FEATURES
  6
Continuous
 62
     7
100
AcDbCircle
 10
70.53388702887311
 20
61.43814696669574
 30
0.0
 40
2.75
  0
CIRCLE
  5
388
330
21F
100
AcDbEntity
  8
7_ALL_FEATURES
  6
Continuous
 62
     7
100
AcDbCircle
 10
99.53388702887311
 20
111.6676203862957
 30
0.0
 40
75.0
  0
CIRCLE
  5
389
330
21F
100
AcDbEntity
  8
7_ALL_FEATURES
  6
Continuous
 62
     9
100
AcDbCircle
 10
99.53388702887311
 20
111.6676203862957
 30
0.0
 40
74.9121320344
  0
CIRCLE
  5
38A
330
21F
100
AcDbEntity
  8
7_ALL_FEATURES
  6
Continuous
 62
     9
100
AcDbCircle
 10
99.53388702887311
 20
111.6676203862957
 30
0.0
 40
73.0878679656
  0
CIRCLE
  5
38B
330
21F
100
AcDbEntity
  8
7_ALL_FEATURES
  6
Continuous
 62
     9
100
AcDbCircle
 10
99.53388702887311
 20
111.6676203862957
 30
0.0
 40
72.8757359312
  0
CIRCLE
  5
38C
330
21F
100
AcDbEntity
  8
7_ALL_FEATURES
  6
Continuous
 62
     9
100
AcDbCircle
 10
99.53388702887311
 20
111.6676203862957
 30
0.0
 40
48.0
  0
CIRCLE
  5
38D
330
21F
100
AcDbEntity
  8
7_ALL_FEATURES
  6
Continuous
 62
     7
100
AcDbCircle
 10
99.53388702887311
 20
111.6676203862957
 30
0.0
 40
47.5
  0
CIRCLE
  5
38E
330
21F
100
AcDbEntity
  8
7_ALL_FEATURES
  6
Continuous
 62
     7
100
AcDbCircle
 10
99.53388702887311
 20
111.6676203862957
 30
0.0
 40
47.25
  0
CIRCLE
  5
38F
330
21F
100
AcDbEntity
  8
7_ALL_FEATURES
  6
Continuous
 62
     7
100
AcDbCircle
 10
99.53388702887311
 20
111.6676203862957
 30
0.0
 40
46.7499955882
  0
CIRCLE
  5
390
330
21F
100
AcDbEntity
  8
7_ALL_FEATURES
  6
Continuous
 62
     9
100
AcDbCircle
 10
70.53388702887311
 20
161.8970938056958
 30
0.0
 40
5.75
  0
CIRCLE
  5
391
330
21F
100
AcDbEntity
  8
7_ALL_FEATURES
  6
Continuous
 62
     7
100
AcDbCircle
 10
70.53388702887311
 20
161.8970938056958
 30
0.0
 40
5.25
  0
CIRCLE
  5
392
330
21F
100
AcDbEntity
  8
7_ALL_FEATURES
  6
Continuous
 62
     9
100
AcDbCircle
 10
70.53388702887311
 20
161.8970938056958
 30
0.0
 40
2.8378679656
  0
CIRCLE
  5
393
330
21F
100
AcDbEntity
  8
7_ALL_FEATURES
  6
Continuous
 62
     7
100
AcDbCircle
 10
70.53388702887311
 20
161.8970938056958
 30
0.0
 40
2.75
  0
CIRCLE
  5
394
330
21F
100
AcDbEntity
  8
7_ALL_FEATURES
  6
Continuous
 62
     9
100
AcDbCircle
 10
157.5338870288731
 20
111.6676203862957
 30
0.0
 40
5.75
  0
CIRCLE
  5
395
330
21F
100
AcDbEntity
  8
7_ALL_FEATURES
  6
Continuous
 62
     7
100
AcDbCircle
 10
157.5338870288731
 20
111.6676203862957
 30
0.0
 40
5.25
  0
CIRCLE
  5
396
330
21F
100
AcDbEntity
  8
7_ALL_FEATURES
  6
Continuous
 62
     9
100
AcDbCircle
 10
157.5338870288731
 20
111.6676203862957
 30
0.0
 40
2.8378679656
  0
CIRCLE
  5
397
330
21F
100
AcDbEntity
  8
7_ALL_FEATURES
  6
Continuous
 62
     7
100
AcDbCircle
 10
157.5338870288731
 20
111.6676203862957
 30
0.0
 40
2.75
  0
ARC
  5
398
330
21F
100
AcDbEntity
  8
02___PRT_ALL_AXES
  6
Continuous
 62
     7
100
AcDbCircle
 10
262.068397836291
 20
210.4152430139627
 30
0.0
 40
4.943074067
100
AcDbArc
 50
233.6422316280006
 51
234.5006250001003
  0
ARC
  5
399
330
21F
100
AcDbEntity
  8
02___PRT_ALL_AXES
  6
Continuous
 62
     7
100
AcDbCircle
 10
263.339708220891
 20
206.3642733753627
 30
0.0
 40
4.2564563854
100
AcDbArc
 50
180.0
 51
270.0
  0
ARC
  5
39A
330
21F
100
AcDbEntity
  8
7_ALL_FEATURES
  6
Continuous
 62
     7
100
AcDbCircle
 10
206.481367817691
 20
262.4078169899627
 30
0.0
 40
0.3
100
AcDbArc
 50
180.0
 51
270.0
  0
ARC
  5
39B
330
21F
100
AcDbEntity
  8
7_ALL_FEATURES
  6
Continuous
 62
     7
100
AcDbCircle
 10
195.305631886491
 20
271.8078169899628
 30
0.0
 40
0.3
100
AcDbArc
 50
90.0
 51
134.9999999993015
  0
ARC
  5
39C
330
21F
100
AcDbEntity
  8
7_ALL_FEATURES
  6
Continuous
 62
     7
100
AcDbCircle
 10
205.881367817691
 20
268.8078169899628
 30
0.0
 40
0.3
100
AcDbArc
 50
0.0
 51
90.0
  0
ARC
  5
39D
330
21F
100
AcDbEntity
  8
7_ALL_FEATURES
  6
Continuous
 62
     7
100
AcDbCircle
 10
193.481367817691
 20
269.4078169899627
 30
0.0
 40
0.3
100
AcDbArc
 50
180.0
 51
270.0
  0
ARC
  5
39E
330
21F
100
AcDbEntity
  8
7_ALL_FEATURES
  6
Continuous
 62
     7
100
AcDbCircle
 10
193.481367817691
 20
269.9835529211627
 30
0.0
 40
0.3
100
AcDbArc
 50
134.9999999993936
 51
180.0
  0
ARC
  5
39F
330
21F
100
AcDbEntity
  8
02___PRT_ALL_AXES
  6
Continuous
 62
     7
100
AcDbCircle
 10
274.294343627691
 20
210.4152349709627
 30
0.0
 40
4.9430641346
100
AcDbArc
 50
305.4993741338007
 51
306.3576671244998
  0
ARC
  5
3A0
330
21F
100
AcDbEntity
  8
02___PRT_ALL_AXES
  6
Continuous
 62
     7
100
AcDbCircle
 10
273.023027414491
 20
206.3642733753627
 30
0.0
 40
4.2564563854
100
AcDbArc
 50
270.0
 51
0.0
  0
ARC
  5
3A1
330
21F
100
AcDbEntity
  8
7_ALL_FEATURES
  6
Continuous
 62
     7
100
AcDbCircle
 10
329.8813678176911
 20
262.4078169899627
 30
0.0
 40
0.3
100
AcDbArc
 50
270.0
 51
0.0
  0
ARC
  5
3A2
330
21F
100
AcDbEntity
  8
7_ALL_FEATURES
  6
Continuous
 62
     7
100
AcDbCircle
 10
330.481367817691
 20
268.8078169899628
 30
0.0
 40
0.3
100
AcDbArc
 50
90.0
 51
180.0
  0
ARC
  5
3A3
330
21F
100
AcDbEntity
  8
7_ALL_FEATURES
  6
Continuous
 62
     7
100
AcDbCircle
 10
342.8813678176911
 20
269.4078169899627
 30
0.0
 40
0.3
100
AcDbArc
 50
270.0
 51
0.0
  0
ARC
  5
3A4
330
21F
100
AcDbEntity
  8
7_ALL_FEATURES
  6
Continuous
 62
     7
100
AcDbCircle
 10
342.8813678176911
 20
269.9835529211627
 30
0.0
 40
0.3
100
AcDbArc
 50
0.0
 51
45.00000000060645
  0
ARC
  5
3A5
330
21F
100
AcDbEntity
  8
7_ALL_FEATURES
  6
Continuous
 62
     7
100
AcDbCircle
 10
341.057103748891
 20
271.8078169899628
 30
0.0
 40
0.3
100
AcDbArc
 50
45.00000000048362
 51
90.0
  0
ARC
  5
3A6
330
21F
100
AcDbEntity
  8
7_ALL_FEATURES
  6
Continuous
 62
     9
100
AcDbCircle
 10
330.6885533627
 20
103.6250978053
 30
0.0
 40
47.5715290369
100
AcDbArc
 50
117.9188935835
 51
118.3218641732
  0
ARC
  5
3A7
330
21F
100
AcDbEntity
  8
7_ALL_FEATURES
  6
Continuous
 62
     9
100
AcDbCircle
 10
325.8314183695
 20
111.7607074759
 30
0.0
 40
38.0926860292
100
AcDbArc
 50
123.3850868765
 51
123.9081576633
  0
ARC
  5
3A8
330
21F
100
AcDbEntity
  8
7_ALL_FEATURES
  6
Continuous
 62
     9
100
AcDbCircle
 10
320.5447216992
 20
118.8367727677
 30
0.0
 40
29.2551644479
100
AcDbArc
 50
129.8503269629
 51
130.3973810442
  0
ARC
  5
3A9
330
21F
100
AcDbEntity
  8
7_ALL_FEATURES
  6
Continuous
 62
     9
100
AcDbCircle
 10
316.4083420411
 20
123.1680327883
 30
0.0
 40
23.3055533015
100
AcDbArc
 50
134.7518816577
 51
137.0629083683
  0
ARC
  5
3AA
330
21F
100
AcDbEntity
  8
7_ALL_FEATURES
  6
Continuous
 62
     9
100
AcDbCircle
 10
316.2884076118
 20
123.3900411479
 30
0.0
 40
23.0194897343
100
AcDbArc
 50
135.0309364977
 51
137.2913935805
  0
ARC
  5
3AB
330
21F
100
AcDbEntity
  8
7_ALL_FEATURES
  6
Continuous
 62
     9
100
AcDbCircle
 10
315.5458653617
 20
123.9739011138
 30
0.0
 40
22.125179043
100
AcDbArc
 50
137.069286871
 51
137.891283655
  0
ARC
  5
3AC
330
21F
100
AcDbEntity
  8
7_ALL_FEATURES
  6
Continuous
 62
     9
100
AcDbCircle
 10
315.5157161312
 20
124.1069216209
 30
0.0
 40
21.9654678118
100
AcDbArc
 50
137.2983826514
 51
137.8946892519
  0
ARC
  5
3AD
330
21F
100
AcDbEntity
  8
7_ALL_FEATURES
  6
Continuous
 62
     7
100
AcDbCircle
 10
323.2358115852
 20
119.0583590969
 30
0.0
 40
17.3891303869
100
AcDbArc
 50
242.8871804023
 51
244.5074374702
  0
ARC
  5
3AE
330
21F
100
AcDbEntity
  8
7_ALL_FEATURES
  6
Continuous
 62
     9
100
AcDbCircle
 10
322.4737833043
 20
126.2337331914
 30
0.0
 40
16.2092258095
100
AcDbArc
 50
133.8471158067
 51
134.7115230127
  0
ARC
  5
3AF
330
21F
100
AcDbEntity
  8
7_ALL_FEATURES
  6
Continuous
 62
     9
100
AcDbCircle
 10
310.173265863
 20
126.8928519186
 30
0.0
 40
16.2088973892
100
AcDbArc
 50
145.3377713259
 51
149.2602160889
  0
ARC
  5
3B0
330
21F
100
AcDbEntity
  8
7_ALL_FEATURES
  6
Continuous
 62
     9
100
AcDbCircle
 10
322.1980254458
 20
126.5130564192
 30
0.0
 40
15.8167165003
100
AcDbArc
 50
134.7134968214
 51
135.0968020704
  0
ARC
  5
3B1
330
21F
100
AcDbEntity
  8
7_ALL_FEATURES
  6
Continuous
 62
     7
100
AcDbCircle
 10
322.2014812115
 20
126.8906338701
 30
0.0
 40
15.3920164711
100
AcDbArc
 50
134.7751364519
 51
135.7399471047
  0
ARC
  5
3B2
330
21F
100
AcDbEntity
  8
7_ALL_FEATURES
  6
Continuous
 62
     9
100
AcDbCircle
 10
306.5498628364
 20
128.7539027597
 30
0.0
 40
12.1297252205
100
AcDbArc
 50
156.7257194996
 51
160.6739735459
  0
ARC
  5
3B3
330
21F
100
AcDbEntity
  8
7_ALL_FEATURES
  6
Continuous
 62
     9
100
AcDbCircle
 10
304.1541268149
 20
129.3840155187
 30
0.0
 40
9.6466476733
100
AcDbArc
 50
172.6238458336
 51
173.9634922333
  0
ARC
  5
3B4
330
21F
100
AcDbEntity
  8
7_ALL_FEATURES
  6
Continuous
 62
     9
100
AcDbCircle
 10
303.3582747913
 20
129.3065763267
 30
0.0
 40
8.8781852987
100
AcDbArc
 50
188.8241294682
 51
190.4142277679
  0
ARC
  5
3B5
330
21F
100
AcDbEntity
  8
7_ALL_FEATURES
  6
Continuous
 62
     9
100
AcDbCircle
 10
303.3827676305
 20
129.4042631236
 30
0.0
 40
8.8734421758
100
AcDbArc
 50
189.5509909262
 51
190.9714351268
  0
ARC
  5
3B6
330
21F
100
AcDbEntity
  8
7_ALL_FEATURES
  6
Continuous
 62
     7
100
AcDbCircle
 10
315.7837621788
 20
112.7480575495
 30
0.0
 40
6.1173958157
100
AcDbArc
 50
195.1187699166
 51
200.8965622263
  0
ARC
  5
3B7
330
21F
100
AcDbEntity
  8
7_ALL_FEATURES
  6
Continuous
 62
     7
100
AcDbCircle
 10
315.951119457
 20
111.4433489398
 30
0.0
 40
6.0823331756
100
AcDbArc
 50
197.1784278271
 51
198.2546764478
  0
ARC
  5
3B8
330
21F
100
AcDbEntity
  8
7_ALL_FEATURES
  6
Continuous
 62
     7
100
AcDbCircle
 10
315.8549504919
 20
111.4147194976
 30
0.0
 40
5.9819987772
100
AcDbArc
 50
188.8447308243
 51
197.1884950485
  0
ARC
  5
3B9
330
21F
100
AcDbEntity
  8
7_ALL_FEATURES
  6
Continuous
 62
     7
100
AcDbCircle
 10
315.8320282298
 20
111.4080050281
 30
0.0
 40
5.9583175049
100
AcDbArc
 50
182.3834015146
 51
188.8148232099
  0
ARC
  5
3BA
330
21F
100
AcDbEntity
  8
7_ALL_FEATURES
  6
Continuous
 62
     9
100
AcDbCircle
 10
313.5416136502
 20
131.8386443067
 30
0.0
 40
5.8298299829
100
AcDbArc
 50
191.4945689005
 51
200.7558126437
  0
ARC
  5
3BB
330
21F
100
AcDbEntity
  8
7_ALL_FEATURES
  6
Continuous
 62
     7
100
AcDbCircle
 10
313.4910087483
 20
131.6003857788
 30
0.0
 40
5.4929091192
100
AcDbArc
 50
189.9409252763
 51
198.8967782867
  0
ARC
  5
3BC
330
21F
100
AcDbEntity
  8
7_ALL_FEATURES
  6
Continuous
 62
     7
100
AcDbCircle
 10
313.4181706892
 20
131.5864612133
 30
0.0
 40
5.4187609159
100
AcDbArc
 50
188.8251226154
 51
189.9288578984
  0
ARC
  5
3BD
330
21F
100
AcDbEntity
  8
7_ALL_FEATURES
  6
Continuous
 62
     9
100
AcDbCircle
 10
316.7027638211
 20
123.0941617539
 30
0.0
 40
4.0105845634
100
AcDbArc
 50
260.9306148482
 51
261.8841651613
  0
ARC
  5
3BE
330
21F
100
AcDbEntity
  8
7_ALL_FEATURES
  6
Continuous
 62
     7
100
AcDbCircle
 10
316.7132915484
 20
122.7343848477
 30
0.0
 40
3.6147775839
100
AcDbArc
 50
259.8610336084
 51
260.9306975114
  0
ARC
  5
3BF
330
21F
100
AcDbEntity
  8
3_ALL_AXES
  6
Continuous
 62
     7
100
AcDbCircle
 10
319.458917539
 20
120.3886340587
 30
0.0
 40
0.674495824
100
AcDbArc
 50
22.431184582
 51
26.5687074293
  0
ARC
  5
3C0
330
21F
100
AcDbEntity
  8
3_ALL_AXES
  6
Continuous
 62
     7
100
AcDbCircle
 10
315.6022291968
 20
119.7901655542
 30
0.0
 40
0.6744465166
100
AcDbArc
 50
170.7524306641
 51
176.0277534316
  0
ARC
  5
3C1
330
21F
100
AcDbEntity
  8
7_ALL_FEATURES
  6
Continuous
 62
     9
100
AcDbCircle
 10
322.7241005259
 20
191.0622987023
 30
0.0
 40
76.5602802862
100
AcDbArc
 50
277.0903911331
 51
277.3951747819
  0
ARC
  5
3C2
330
21F
100
AcDbEntity
  8
7_ALL_FEATURES
  6
Continuous
 62
     7
100
AcDbCircle
 10
322.7598381928
 20
190.8325463473
 30
0.0
 40
76.4047440938
100
AcDbArc
 50
277.090389613
 51
277.3923948344
  0
ARC
  5
3C3
330
21F
100
AcDbEntity
  8
7_ALL_FEATURES
  6
Continuous
 62
     9
100
AcDbCircle
 10
325.3042735357
 20
181.6806827189
 30
0.0
 40
65.1269280243
100
AcDbArc
 50
288.38266224
 51
289.1808638109999
  0
ARC
  5
3C4
330
21F
100
AcDbEntity
  8
7_ALL_FEATURES
  6
Continuous
 62
     9
100
AcDbCircle
 10
325.5075007925
 20
181.1479587673
 30
0.0
 40
64.6490217839
100
AcDbArc
 50
288.3585939309
 51
289.7646845784
  0
ARC
  5
3C5
330
21F
100
AcDbEntity
  8
7_ALL_FEATURES
  6
Continuous
 62
     9
100
AcDbCircle
 10
325.6866950624
 20
180.5791831973
 30
0.0
 40
63.9609319217
100
AcDbArc
 50
289.1814972895
 51
289.7843320793
  0
ARC
  5
3C6
330
21F
100
AcDbEntity
  8
7_ALL_FEATURES
  6
Continuous
 62
     7
100
AcDbCircle
 10
324.7932427041
 20
177.7354909698
 30
0.0
 40
63.2288382832
100
AcDbArc
 50
276.7237269369
 51
277.0903431332
  0
ARC
  5
3C7
330
21F
100
AcDbEntity
  8
7_ALL_FEATURES
  6
Continuous
 62
     7
100
AcDbCircle
 10
324.9382813242
 20
177.0033091346
 30
0.0
 40
62.4843758409
100
AcDbArc
 50
277.0412369138
 51
285.4466622146
  0
ARC
  5
3C8
330
21F
100
AcDbEntity
  8
7_ALL_FEATURES
  6
Continuous
 62
     7
100
AcDbCircle
 10
324.8985245286
 20
176.7756677412
 30
0.0
 40
62.2632903625
100
AcDbArc
 50
272.4486061023
 51
276.7309233266
  0
ARC
  5
3C9
330
21F
100
AcDbEntity
  8
7_ALL_FEATURES
  6
Continuous
 62
     9
100
AcDbCircle
 10
316.4896501934
 20
148.3639149498
 30
0.0
 40
4.6315939936
100
AcDbArc
 50
291.7923311330999
 51
292.4321410222
  0
ARC
  5
3CA
330
21F
100
AcDbEntity
  8
7_ALL_FEATURES
  6
Continuous
 62
     7
100
AcDbCircle
 10
316.5589824267
 20
148.0612752224
 30
0.0
 40
4.2876450178
100
AcDbArc
 50
292.4323554395
 51
293.1129403148
  0
ARC
  5
3CB
330
21F
100
AcDbEntity
  8
3_ALL_AXES
  6
Continuous
 62
     7
100
AcDbCircle
 10
314.940162663
 20
144.3849765006
 30
0.0
 40
0.6747094001
100
AcDbArc
 50
170.2484925585
 51
177.9673568948
  0
ARC
  5
3CC
330
21F
100
AcDbEntity
  8
3_ALL_AXES
  6
Continuous
 62
     7
100
AcDbCircle
 10
318.7996894614
 20
144.9848576304
 30
0.0
 40
0.6709744118
100
AcDbArc
 50
19.3535402407
 51
26.8380239716
  0
ARC
  5
3CD
330
21F
100
AcDbEntity
  8
7_ALL_FEATURES
  6
Continuous
 62
     9
100
AcDbCircle
 10
334.7234369243
 20
95.24299851
 30
0.0
 40
56.876969004
100
AcDbArc
 50
113.1475876964
 51
113.3509723354
  0
ARC
  5
3CE
330
21F
100
AcDbEntity
  8
7_ALL_FEATURES
  6
Continuous
 62
     9
100
AcDbCircle
 10
349.1919361681
 20
127.9888424578
 30
0.0
 40
23.638662545
100
AcDbArc
 50
60.61355049339999
 51
62.8816950006
  0
ARC
  5
3CF
330
21F
100
AcDbEntity
  8
7_ALL_FEATURES
  6
Continuous
 62
     9
100
AcDbCircle
 10
349.212084007
 20
128.1890640872
 30
0.0
 40
23.407323784
100
AcDbArc
 50
60.5506907201
 51
62.61517497679999
  0
ARC
  5
3D0
330
21F
100
AcDbEntity
  8
7_ALL_FEATURES
  6
Continuous
 62
     7
100
AcDbCircle
 10
344.0754952784
 20
122.3100851236
 30
0.0
 40
17.4090805778
100
AcDbArc
 50
313.1218079424
 51
314.7630966095
  0
ARC
  5
3D1
330
21F
100
AcDbEntity
  8
7_ALL_FEATURES
  6
Continuous
 62
     9
100
AcDbCircle
 10
342.4968904998
 20
129.076015729
 30
0.0
 40
16.5315019097
100
AcDbArc
 50
63.7783338947
 51
64.0282343181
  0
ARC
  5
3D2
330
21F
100
AcDbEntity
  8
7_ALL_FEATURES
  6
Continuous
 62
     9
100
AcDbCircle
 10
342.6579829209
 20
129.4014381365
 30
0.0
 40
16.1683903992
100
AcDbArc
 50
62.8325368906
 51
63.7809148246
  0
ARC
  5
3D3
330
21F
100
AcDbEntity
  8
7_ALL_FEATURES
  6
Continuous
 62
     7
100
AcDbCircle
 10
342.7029138306
 20
130.0776198657
 30
0.0
 40
15.3870022051
100
AcDbArc
 50
61.9151630772
 51
62.87497616649999
  0
ARC
  5
3D4
330
21F
100
AcDbEntity
  8
7_ALL_FEATURES
  6
Continuous
 62
     9
100
AcDbCircle
 10
359.9191721789
 20
138.0882029747
 30
0.0
 40
8.8832585384
100
AcDbArc
 50
7.2290562392
 51
8.8237030212
  0
ARC
  5
3D5
330
21F
100
AcDbEntity
  8
7_ALL_FEATURES
  6
Continuous
 62
     9
100
AcDbCircle
 10
359.8660904233
 20
138.1738356722
 30
0.0
 40
8.8786414272
100
AcDbArc
 50
6.6825317266
 51
8.282201081000002
  0
ARC
  5
3D6
330
21F
100
AcDbEntity
  8
7_ALL_FEATURES
  6
Continuous
 62
     7
100
AcDbCircle
 10
353.446721167
 20
117.2505590438
 30
0.0
 40
5.9758904175
100
AcDbArc
 50
0.5982580204
 51
8.8056106316
  0
ARC
  5
3D7
330
21F
100
AcDbEntity
  8
7_ALL_FEATURES
  6
Continuous
 62
     7
100
AcDbCircle
 10
353.4698439453
 20
117.2515619883
 30
0.0
 40
5.9528871903
100
AcDbArc
 50
8.8301403122
 51
14.3242519739
  0
ARC
  5
3D8
330
21F
100
AcDbEntity
  8
7_ALL_FEATURES
  6
Continuous
 62
     9
100
AcDbCircle
 10
349.4200374619
 20
136.1844692375
 30
0.0
 40
5.8012933392
100
AcDbArc
 50
17.6675767023
 51
18.3167889825
  0
ARC
  5
3D9
330
21F
100
AcDbEntity
  8
7_ALL_FEATURES
  6
Continuous
 62
     9
100
AcDbCircle
 10
349.4517959265
 20
136.1945328725
 30
0.0
 40
5.7679785623
100
AcDbArc
 50
16.4411493067
 51
17.668068736
  0
ARC
  5
3DA
330
21F
100
AcDbEntity
  8
7_ALL_FEATURES
  6
Continuous
 62
     9
100
AcDbCircle
 10
349.5035499298
 20
136.2096660762
 30
0.0
 40
5.7140575765
100
AcDbArc
 50
14.0794198341
 51
16.4424882591
  0
ARC
  5
3DB
330
21F
100
AcDbEntity
  8
7_ALL_FEATURES
  6
Continuous
 62
     7
100
AcDbCircle
 10
349.5347955845
 20
137.200069021
 30
0.0
 40
5.5310583299
100
AcDbArc
 50
358.7802126289001
 51
7.680653780999999
  0
ARC
  5
3DC
330
21F
100
AcDbEntity
  8
7_ALL_FEATURES
  6
Continuous
 62
     7
100
AcDbCircle
 10
349.646085159
 20
137.2109888979
 30
0.0
 40
5.419309259
100
AcDbArc
 50
7.723494902100001
 51
8.8247659417
  0
ARC
  5
3DD
330
21F
100
AcDbEntity
  8
7_ALL_FEATURES
  6
Continuous
 62
     7
100
AcDbCircle
 10
349.9375560364
 20
136.2564426107
 30
0.0
 40
5.2794903003
100
AcDbArc
 50
18.5906046664
 51
19.3054962403
  0
ARC
  5
3DE
330
21F
100
AcDbEntity
  8
7_ALL_FEATURES
  6
Continuous
 62
     7
100
AcDbCircle
 10
349.9775065543
 20
136.2698065881
 30
0.0
 40
5.237363885
100
AcDbArc
 50
17.2381919608
 51
18.5913674568
  0
ARC
  5
3DF
330
21F
100
AcDbEntity
  8
7_ALL_FEATURES
  6
Continuous
 62
     7
100
AcDbCircle
 10
350.0430276157
 20
136.2899360272
 30
0.0
 40
5.1688207115
100
AcDbArc
 50
14.634162964
 51
17.2403155696
  0
ARC
  5
3E0
330
21F
100
AcDbEntity
  8
7_ALL_FEATURES
  6
Continuous
 62
     7
100
AcDbCircle
 10
362.4313378315
 20
138.3090524514
 30
0.0
 40
0.4359999802
100
AcDbArc
 50
1.5286660412
 51
8.8035728798
  0
SPLINE
  5
3E1
330
21F
100
AcDbEntity
  8
02___PRT_ALL_AXES
  6
Continuous
 62
     7
100
AcDbSpline
210
0.0
220
0.0
230
1.0
 70
     8
 71
     3
 72
     9
 73
     5
 74
     0
 42
0.000000001
 43
0.0000001
 40
0.0
 40
0.0
 40
0.0
 40
0.0
 40
0.2513562251
 40
1.0
 40
1.0
 40
1.0
 40
1.0
 10
91.03388702887314
 20
207.1078169899627
 30
0.0
 10
91.15067040827314
 20
207.0403920743626
 30
0.0
 10
91.61880558327313
 20
206.7784067561626
 30
0.0
 10
92.10282230867314
 20
206.5439007687626
 30
0.0
 10
92.47420985527314
 20
206.3909783959626
 30
0.0
  0
SPLINE
  5
3E2
330
21F
100
AcDbEntity
  8
02___PRT_ALL_AXES
  6
Continuous
 62
     7
100
AcDbSpline
210
0.0
220
0.0
230
1.0
 70
     8
 71
     3
 72
     9
 73
     5
 74
     0
 42
0.000000001
 43
0.0000001
 40
0.0
 40
0.0
 40
0.0
 40
0.0
 40
0.2487419215
 40
1.0
 40
1.0
 40
1.0
 40
1.0
 10
98.09356420247313
 20
206.3909783959626
 30
0.0
 10
98.21696707407314
 20
206.4417907079626
 30
0.0
 10
98.70893267307314
 20
206.6561222327626
 30
0.0
 10
99.18482331127315
 20
206.9062849585627
 30
0.0
 10
99.53388702887314
 20
207.1078169899627
 30
0.0
  0
SPLINE
  5
3E3
330
21F
100
AcDbEntity
  8
02___PRT_ALL_AXES
  6
Continuous
 62
     7
100
AcDbSpline
210
0.0
220
0.0
230
1.0
 70
     8
 71
     3
 72
    19
 73
    15
 74
     0
 42
0.000000001
 43
0.0000001
 40
0.0
 40
0.0
 40
0.0
 40
0.0
 40
0.0679785409
 40
0.1342854818
 40
0.1983938441
 40
0.2606331787
 40
0.3812346686
 40
0.4998615428
 40
0.6185201017
 40
0.7391776997
 40
0.801460969
 40
0.8656242454
 40
0.9319792387
 40
1.0
 40
1.0
 40
1.0
 40
1.0
 10
100.9742098552731
 20
206.3642733753626
 30
0.0
 10
100.9742098552731
 20
206.1861980027626
 30
0.0
 10
101.0290817024731
 20
205.8321759483626
 30
0.0
 10
101.2562011052731
 20
205.3577859837627
 30
0.0
 10
101.5846629668731
 20
204.9684429851627
 30
0.0
 10
102.1002167676731
 20
204.5714395673626
 30
0.0
 10
102.8432367820731
 20
204.2648756565627
 30
0.0
 10
103.7828627148731
 20
204.1507625131626
 30
0.0
 10
104.7227130866731
 20
204.2643432003626
 30
0.0
 10
105.4662061830731
 20
204.5706745681626
 30
0.0
 10
105.9823088074731
 20
204.9676379589627
 30
0.0
 10
106.3111765754731
 20
205.3571543047626
 30
0.0
 10
106.5386163428731
 20
205.8318234987626
 30
0.0
 10
106.5935642024731
 20
206.1860874029626
 30
0.0
 10
106.5935642024731
 20
206.3642733753626
 30
0.0
  0
SPLINE
  5
3E4
330
21F
100
AcDbEntity
  8
02___PRT_ALL_AXES
  6
Continuous
 62
     7
100
AcDbSpline
210
0.0
220
0.0
230
1.0
 70
     8
 71
     3
 72
     9
 73
     5
 74
     0
 42
0.000000001
 43
0.0000001
 40
0.0
 40
0.0
 40
0.0
 40
0.0
 40
0.2487419215
 40
1.0
 40
1.0
 40
1.0
 40
1.0
 10
106.5935642024731
 20
206.3909783959626
 30
0.0
 10
106.7169670740731
 20
206.4417907079626
 30
0.0
 10
107.2089326730731
 20
206.6561222327626
 30
0.0
 10
107.6848233112731
 20
206.9062849585627
 30
0.0
 10
108.0338870288731
 20
207.1078169899627
 30
0.0
  0
SPLINE
  5
3E5
330
21F
100
AcDbEntity
  8
02___PRT_ALL_AXES
  6
Continuous
 62
     7
100
AcDbSpline
210
0.0
220
0.0
230
1.0
 70
     8
 71
     3
 72
    19
 73
    15
 74
     0
 42
0.000000001
 43
0.0000001
 40
0.0
 40
0.0
 40
0.0
 40
0.0
 40
0.0679950228
 40
0.1343185368
 40
0.1984442238
 40
0.2607004275
 40
0.3813349733
 40
0.4999906576
 40
0.6186424657
 40
0.7392776354
 40
0.8015360431
 40
0.8656654115
 40
0.9319956439
 40
1.0
 40
1.0
 40
1.0
 40
1.0
 10
92.47420985527314
 20
206.3642733753626
 30
0.0
 10
92.47420985527314
 20
206.1861548681626
 30
0.0
 10
92.52910706447314
 20
205.8320441513627
 30
0.0
 10
92.75633901467315
 20
205.3575572443626
 30
0.0
 10
93.08494612107314
 20
204.9681593041626
 30
0.0
 10
93.60071844547313
 20
204.5711472939626
 30
0.0
 10
94.34399786627314
 20
204.2646601803626
 30
0.0
 10
95.28380270887313
 20
204.1507519677626
 30
0.0
 10
96.22361260787314
 20
204.2646189903626
 30
0.0
 10
96.96690716027312
 20
204.5710615775627
 30
0.0
 10
97.48271563347315
 20
204.9680537611627
 30
0.0
 10
97.81137407707313
 20
205.3574524221626
 30
0.0
 10
98.03864961827314
 20
205.8319776357627
 30
0.0
 10
98.09356420247313
 20
206.1861304187626
 30
0.0
 10
98.09356420247313
 20
206.3642733753626
 30
0.0
  0
SPLINE
  5
3E6
330
21F
100
AcDbEntity
  8
02___PRT_ALL_AXES
  6
Continuous
 62
     7
100
AcDbSpline
210
0.0
220
0.0
230
1.0
 70
     8
 71
     3
 72
     9
 73
     5
 74
     0
 42
0.000000001
 43
0.0000001
 40
0.0
 40
0.0
 40
0.0
 40
0.0
 40
0.2513562251
 40
1.0
 40
1.0
 40
1.0
 40
1.0
 10
99.53388702887314
 20
207.1078169899627
 30
0.0
 10
99.65067040827314
 20
207.0403920743626
 30
0.0
 10
100.1188055832731
 20
206.7784067561626
 30
0.0
 10
100.6028223086731
 20
206.5439007687626
 30
0.0
 10
100.9742098552731
 20
206.3909783959626
 30
0.0
  0
SPLINE
  5
3E7
330
21F
100
AcDbEntity
  8
02___PRT_ALL_AXES
  6
Continuous
 62
     7
100
AcDbSpline
210
0.0
220
0.0
230
1.0
 70
     8
 71
     3
 72
    15
 73
    11
 74
     0
 42
0.000000001
 43
0.0000001
 40
0.0
 40
0.0
 40
0.0
 40
0.0
 40
0.1698233794
 40
0.3037062744
 40
0.4084943142
 40
0.4999929868
 40
0.591487662
 40
0.6962729263
 40
0.8301577331
 40
1.0
 40
1.0
 40
1.0
 40
1.0
 10
273.920415877491
 20
206.3642733753627
 30
0.0
 10
273.920415877491
 20
206.0260299597627
 30
0.0
 10
274.019838260491
 20
205.4143636487627
 30
0.0
 10
274.429125293891
 20
204.6897808997627
 30
0.0
 10
274.965527210691
 20
204.2770055717627
 30
0.0
 10
275.542531757091
 20
204.1472610315627
 30
0.0
 10
276.119540165291
 20
204.2769579463627
 30
0.0
 10
276.655966888091
 20
204.6896867073627
 30
0.0
 10
277.065312522291
 20
205.4142815905627
 30
0.0
 10
277.164751622291
 20
206.0259923407627
 30
0.0
 10
277.164751622291
 20
206.3642733753627
 30
0.0
  0
SPLINE
  5
3E8
330
21F
100
AcDbEntity
  8
02___PRT_ALL_AXES
  6
Continuous
 62
     7
100
AcDbSpline
210
0.0
220
0.0
230
1.0
 70
     8
 71
     3
 72
     8
 73
     4
 74
     0
 42
0.000000001
 43
0.0000001
 40
0.0
 40
0.0
 40
0.0
 40
0.0
 40
1.0
 40
1.0
 40
1.0
 40
1.0
 10
271.425703562691
 20
206.3909783959627
 30
0.0
 10
271.994315788891
 20
206.5937422399627
 30
0.0
 10
272.548894707891
 20
206.8378417909627
 30
0.0
 10
273.088845105891
 20
207.1078169899627
 30
0.0
  0
SPLINE
  5
3E9
330
21F
100
AcDbEntity
  8
02___PRT_ALL_AXES
  6
Continuous
 62
     7
100
AcDbSpline
210
0.0
220
0.0
230
1.0
 70
     8
 71
     3
 72
    19
 73
    15
 74
     0
 42
0.000000001
 43
0.0000001
 40
0.0
 40
0.0
 40
0.0
 40
0.0
 40
0.062436642
 40
0.124920765
 40
0.1874589243
 40
0.2500365367
 40
0.3749524978
 40
0.5000064554
 40
0.625060361
 40
0.7499765953
 40
0.8125520516
 40
0.8750875024
 40
0.9375682879
 40
1.0
 40
1.0
 40
1.0
 40
1.0
 10
264.937032072691
 20
206.3642733753627
 30
0.0
 10
264.937032072691
 20
206.1854419483627
 30
0.0
 10
265.002614378491
 20
205.8248585469627
 30
0.0
 10
265.268769301891
 20
205.3497799821627
 30
0.0
 10
265.648867310491
 20
204.9628566549627
 30
0.0
 10
266.249038607491
 20
204.5651711853627
 30
0.0
 10
267.105605272691
 20
204.2633159881627
 30
0.0
 10
268.181423825491
 20
204.1510719105627
 30
0.0
 10
269.257239378891
 20
204.2633438181627
 30
0.0
 10
270.113795524891
 20
204.5652157333627
 30
0.0
 10
270.713940530291
 20
204.9629175357627
 30
0.0
 10
271.0940072236911
 20
205.3498380249627
 30
0.0
 10
271.360131718091
 20
205.8248967353627
 30
0.0
 10
271.425703562691
 20
206.1854560685627
 30
0.0
 10
271.425703562691
 20
206.3642733753627
 30
0.0
  0
SPLINE
  5
3EA
330
21F
100
AcDbEntity
  8
02___PRT_ALL_AXES
  6
Continuous
 62
     7
100
AcDbSpline
210
0.0
220
0.0
230
1.0
 70
     8
 71
     3
 72
     8
 73
     4
 74
     0
 42
0.000000001
 43
0.0000001
 40
0.0
 40
0.0
 40
0.0
 40
0.0
 40
1.0
 40
1.0
 40
1.0
 40
1.0
 10
263.273890529491
 20
207.1078169899627
 30
0.0
 10
263.813840927491
 20
206.8378417909627
 30
0.0
 10
264.368419846491
 20
206.5937422399627
 30
0.0
 10
264.937032072691
 20
206.3909783959627
 30
0.0
  0
SPLINE
  5
3EB
330
21F
100
AcDbEntity
  8
02___PRT_ALL_AXES
  6
Continuous
 62
     7
100
AcDbSpline
210
0.0
220
0.0
230
1.0
 70
     8
 71
     3
 72
     9
 73
     5
 74
     0
 42
0.000000001
 43
0.0000001
 40
0.0
 40
0.0
 40
0.0
 40
0.0
 40
0.2576422386
 40
1.0
 40
1.0
 40
1.0
 40
1.0
 10
258.366413241491
 20
207.1078169899627
 30
0.0
 10
258.428634985291
 20
207.0455952461627
 30
0.0
 10
258.673542958691
 20
206.8076101481627
 30
0.0
 10
258.933822111691
 20
206.5847278105627
 30
0.0
 10
259.138017710491
 20
206.4344323489627
 30
0.0
  0
SPLINE
  5
3EC
330
21F
100
AcDbEntity
  8
02___PRT_ALL_AXES
  6
Continuous
 62
     7
100
AcDbSpline
210
0.0
220
0.0
230
1.0
 70
     8
 71
     3
 72
     9
 73
     5
 74
     0
 42
0.000000001
 43
0.0000001
 40
0.0
 40
0.0
 40
0.0
 40
0.0
 40
0.2583236894
 40
1.0
 40
1.0
 40
1.0
 40
1.0
 10
273.088845105891
 20
207.1078169899627
 30
0.0
 10
273.155731900491
 20
207.0409301953627
 30
0.0
 10
273.418571922291
 20
206.7860758471627
 30
0.0
 10
273.6993034958911
 20
206.5486731987627
 30
0.0
 10
273.920415877491
 20
206.3909783959627
 30
0.0
  0
LINE
  5
3ED
330
21F
100
AcDbEntity
  8
02___PRT_ALL_AXES
  6
Continuous
 62
     7
100
AcDbLine
 10
277.224710830691
 20
206.4344271267627
 30
0.0
 11
277.237647964891
 21
206.4439809241627
 31
0.0
  0
SPLINE
  5
3EE
330
21F
100
AcDbEntity
  8
02___PRT_ALL_AXES
  6
Continuous
 62
     7
100
AcDbSpline
210
0.0
220
0.0
230
1.0
 70
     8
 71
     3
 72
     9
 73
     5
 74
     0
 42
0.000000001
 43
0.0000001
 40
0.0
 40
0.0
 40
0.0
 40
0.0
 40
0.2423815515
 40
1.0
 40
1.0
 40
1.0
 40
1.0
 10
277.237647964891
 20
206.4439809241627
 30
0.0
 10
277.303126401491
 20
206.4924952573627
 30
0.0
 10
277.568476660291
 20
206.6991299231627
 30
0.0
 10
277.8162053182911
 20
206.9276999143627
 30
0.0
 10
277.996322393891
 20
207.1078169899627
 30
0.0
  0
SPLINE
  5
3EF
330
21F
100
AcDbEntity
  8
02___PRT_ALL_AXES
  6
Continuous
 62
     7
100
AcDbSpline
210
0.0
220
0.0
230
1.0
 70
     8
 71
     3
 72
     9
 73
     5
 74
     0
 42
0.000000001
 43
0.0000001
 40
0.0
 40
0.0
 40
0.0
 40
0.0
 40
0.2415458876
 40
1.0
 40
1.0
 40
1.0
 40
1.0
 10
262.442319757891
 20
206.3909783959627
 30
0.0
 10
262.514338566691
 20
206.4423413805627
 30
0.0
 10
262.806641703291
 20
206.6632051341627
 30
0.0
 10
263.077485280091
 20
206.9114117403627
 30
0.0
 10
263.273890529491
 20
207.1078169899627
 30
0.0
  0
SPLINE
  5
3F0
330
21F
100
AcDbEntity
  8
02___PRT_ALL_AXES
  6
Continuous
 62
     7
100
AcDbSpline
210
0.0
220
0.0
230
1.0
 70
     8
 71
     3
 72
    15
 73
    11
 74
     0
 42
0.000000001
 43
0.0000001
 40
0.0
 40
0.0
 40
0.0
 40
0.0
 40
0.169784681
 40
0.303643026
 40
0.4084145982
 40
0.4998965225
 40
0.5913899755
 40
0.6961795107
 40
0.8301103001
 40
1.0
 40
1.0
 40
1.0
 40
1.0
 10
259.1979840130911
 20
206.3642733753627
 30
0.0
 10
259.1979840130911
 20
206.0261067331627
 30
0.0
 10
259.297364270091
 20
205.4145712189627
 30
0.0
 10
259.706467369091
 20
204.6900850815627
 30
0.0
 10
260.242652584291
 20
204.2772413705627
 30
0.0
 10
260.8195183286911
 20
204.1472715093627
 30
0.0
 10
261.396575049291
 20
204.2766586281627
 30
0.0
 10
261.933226500891
 20
204.6892889473627
 30
0.0
 10
262.342812051091
 20
205.4139939377627
 30
0.0
 10
262.442319757891
 20
206.0258975629627
 30
0.0
 10
262.442319757891
 20
206.3642733753627
 30
0.0
  0
SPLINE
  5
3F1
330
21F
100
AcDbEntity
  8
02___PRT_ALL_AXES
  6
Continuous
 62
     7
100
AcDbSpline
 70
     0
 71
     3
 72
    15
 73
    11
 74
     0
 42
0.000000001
 43
0.0000001
 40
0.0
 40
0.0
 40
0.0
 40
0.0
 40
0.114229985
 40
0.2357562983
 40
0.3626706953
 40
0.4928181507
 40
0.6239120889
 40
0.7536278661
 40
0.8796937343
 40
1.0
 40
1.0
 40
1.0
 40
1.0
 10
346.2820060186
 20
146.0495471246
 30
0.0
 10
345.1459217581
 20
146.2990025722
 30
0.0
 10
342.7721659178
 20
146.6865908133
 30
0.0
 10
339.0844917023
 20
146.9496764411
 30
0.0
 10
335.2256414629
 20
146.909261917
 30
0.0
 10
331.2844854724
 20
146.5659677583
 30
0.0
 10
327.3514072494
 20
145.9276739764
 30
0.0
 10
323.5167427047
 20
145.0089625399
 30
0.0
 10
319.8688616848
 20
143.8312395958
 30
0.0
 10
317.5501153225
 20
142.8635200322
 30
0.0
 10
316.4435025129
 20
142.3380830575
 30
0.0
  0
SPLINE
  5
3F2
330
21F
100
AcDbEntity
  8
7_ALL_FEATURES
  6
Continuous
 62
     7
100
AcDbSpline
 70
     0
 71
     3
 72
    11
 73
     7
 74
     0
 42
0.000000001
 43
0.0000001
 40
0.0
 40
0.0
 40
0.0
 40
0.0
 40
0.2686483116
 40
0.5286317965
 40
0.7740831333
 40
1.0
 40
1.0
 40
1.0
 40
1.0
 10
331.204055011
 20
145.9737266886
 30
0.0
 10
332.5652681133
 20
146.1430412639
 30
0.0
 10
335.2596014882
 20
146.3616901972
 30
0.0
 10
339.217518188
 20
146.3279319441
 30
0.0
 10
342.9368075438
 20
145.9315106834
 30
0.0
 10
345.2937717659
 20
145.4086876732
 30
0.0
 10
346.3992318314
 20
145.0791987383
 30
0.0
  0
SPLINE
  5
3F3
330
21F
100
AcDbEntity
  8
7_ALL_FEATURES
  6
Continuous
 62
     7
100
AcDbSpline
 70
     0
 71
     3
 72
     9
 73
     5
 74
     0
 42
0.000000001
 43
0.0000001
 40
0.0
 40
0.0
 40
0.0
 40
0.0
 40
0.263241213
 40
1.0
 40
1.0
 40
1.0
 40
1.0
 10
346.3992318314
 20
145.0791987383
 30
0.0
 10
346.699427565
 20
144.9897236178
 30
0.0
 10
347.8327986432
 20
144.6274563121
 30
0.0
 10
348.9380999509
 20
144.17202658
 30
0.0
 10
349.7183661038
 20
143.7722635727
 30
0.0
  0
SPLINE
  5
3F4
330
21F
100
AcDbEntity
  8
7_ALL_FEATURES
  6
Continuous
 62
     7
100
AcDbSpline
 70
     0
 71
     3
 72
    11
 73
     7
 74
     0
 42
0.000000001
 43
0.0000001
 40
0.0
 40
0.0
 40
0.0
 40
0.0
 40
0.218709615
 40
0.4517882531
 40
0.710141025
 40
1.0
 40
1.0
 40
1.0
 40
1.0
 10
308.2004840579
 20
130.6879749511
 30
0.0
 10
308.1128946284
 20
131.2522065337
 30
0.0
 10
308.1153117326
 20
132.4528250255
 30
0.0
 10
308.6551307375
 20
134.2480949229
 30
0.0
 10
309.6940739598
 20
136.020869659
 30
0.0
 10
310.641595363
 20
137.1037600983
 30
0.0
 10
311.1787754801
 20
137.6367648566
 30
0.0
  0
SPLINE
  5
3F5
330
21F
100
AcDbEntity
  8
7_ALL_FEATURES
  6
Continuous
 62
     7
100
AcDbSpline
 70
     0
 71
     3
 72
     9
 73
     5
 74
     0
 42
0.000000001
 43
0.0000001
 40
0.0
 40
0.0
 40
0.0
 40
0.0
 40
0.4722997461
 40
1.0
 40
1.0
 40
1.0
 40
1.0
 10
311.3604803575
 20
137.8170638237
 30
0.0
 10
312.0743074704
 20
138.5253828383
 30
0.0
 10
313.7285667045
 20
139.8827212604
 30
0.0
 10
315.550970254
 20
140.9946873316
 30
0.0
 10
316.5405664836
 20
141.5267776609
 30
0.0
  0
SPLINE
  5
3F6
330
21F
100
AcDbEntity
  8
7_ALL_FEATURES
  6
Continuous
 62
     7
100
AcDbSpline
 70
     0
 71
     3
 72
    11
 73
     7
 74
     0
 42
0.000000001
 43
0.0000001
 40
0.0
 40
0.0
 40
0.0
 40
0.0
 40
0.2333373131
 40
0.4813305689
 40
0.7387776592
 40
1.0
 40
1.0
 40
1.0
 40
1.0
 10
316.5405664836
 20
141.5267776609
 30
0.0
 10
317.5956253247
 20
142.0940662069
 30
0.0
 10
319.841619786
 20
143.1373824456
 30
0.0
 10
323.4247973915
 20
144.3956688064
 30
0.0
 10
327.2433569347
 20
145.3686639735
 30
0.0
 10
329.8732545372
 20
145.8081949922
 30
0.0
 10
331.204055011
 20
145.9737266886
 30
0.0
  0
SPLINE
  5
3F7
330
21F
100
AcDbEntity
  8
7_ALL_FEATURES
  6
Continuous
 62
     7
100
AcDbSpline
 70
     0
 71
     3
 72
    11
 73
     7
 74
     0
 42
0.000000001
 43
0.0000001
 40
0.0
 40
0.0
 40
0.0
 40
0.0
 40
0.2898598137
 40
0.5482130173
 40
0.781291263
 40
1.0
 40
1.0
 40
1.0
 40
1.0
 10
349.9460173301
 20
143.6556301912
 30
0.0
 10
350.6195381402
 20
143.3105916009
 30
0.0
 10
351.8508202747
 20
142.5659565928
 30
0.0
 10
353.3784113281
 20
141.191627736
 30
0.0
 10
354.43716308
 20
139.6445163633
 30
0.0
 10
354.8035300285
 20
138.5011330322
 30
0.0
 10
354.8911207924
 20
137.9368928542
 30
0.0
  0
SPLINE
  5
3F8
330
21F
100
AcDbEntity
  8
7_ALL_FEATURES
  6
Continuous
 62
     7
100
AcDbSpline
 70
     0
 71
     3
 72
    10
 73
     6
 74
     0
 42
0.000000001
 43
0.0000001
 40
0.0
 40
0.0
 40
0.0
 40
0.0
 40
0.236436325
 40
0.478778402
 40
1.0
 40
1.0
 40
1.0
 40
1.0
 10
354.8911207924
 20
137.9368928542
 30
0.0
 10
354.9437345681
 20
137.5979666378
 30
0.0
 10
354.9865904871
 20
136.900005153
 30
0.0
 10
354.8140805869
 20
135.4536443294
 30
0.0
 10
354.3989428029
 20
134.4023313885
 30
0.0
 10
354.0367790024
 20
133.7386012515
 30
0.0
  0
LINE
  5
3F9
330
21F
100
AcDbEntity
  8
7_ALL_FEATURES
  6
Continuous
 62
     7
100
AcDbLine
 10
331.8205449025
 20
123.0827238476
 30
0.0
 11
331.8011171563
 21
123.080311379
 31
0.0
  0
SPLINE
  5
3FA
330
21F
100
AcDbEntity
  8
7_ALL_FEATURES
  6
Continuous
 62
     7
100
AcDbSpline
 70
     0
 71
     3
 72
    22
 73
    18
 74
     0
 42
0.000000001
 43
0.0000001
 40
0.0
 40
0.0
 40
0.0
 40
0.0
 40
0.1753574357
 40
0.2594670791
 40
0.3398097733
 40
0.4155149209
 40
0.4858891671
 40
0.5504737049
 40
0.6091235887
 40
0.6621117025
 40
0.7102528583
 40
0.7550003937
 40
0.7983973602
 40
0.8427646428
 40
0.8902207211
 40
0.9423269167
 40
1.0
 40
1.0
 40
1.0
 40
1.0
 10
331.8011171563
 20
123.080311379
 30
0.0
 10
329.8221548199
 20
122.8349836554
 30
0.0
 10
326.8659731221
 20
122.6522524446
 30
0.0
 10
323.0026512065
 20
122.8113599877
 30
0.0
 10
320.2868088696
 20
123.1248387469
 30
0.0
 10
317.7585090308
 20
123.6286246989
 30
0.0
 10
315.4590163339
 20
124.3146043148
 30
0.0
 10
313.4256054331
 20
125.172150813
 30
0.0
 10
311.6907791514
 20
126.1890291118
 30
0.0
 10
310.2827929102
 20
127.352464158
 30
0.0
 10
309.2278370934
 20
128.6495139928
 30
0.0
 10
308.5533895787
 20
130.0635271499
 30
0.0
 10
308.2847943268
 20
131.5653528553
 30
0.0
 10
308.4304667404
 20
133.1135312441
 30
0.0
 10
308.9775804523
 20
134.6706908956
 30
0.0
 10
309.9048966487
 20
136.2108676648
 30
0.0
 10
310.7203372007
 20
137.1632471438
 30
0.0
 10
311.1780345391
 20
137.6329704179
 30
0.0
  0
SPLINE
  5
3FB
330
21F
100
AcDbEntity
  8
7_ALL_FEATURES
  6
Continuous
 62
     7
100
AcDbSpline
 70
     0
 71
     3
 72
    10
 73
     6
 74
     0
 42
0.000000001
 43
0.0000001
 40
0.0
 40
0.0
 40
0.0
 40
0.0
 40
0.5216325678
 40
0.7638302029
 40
1.0
 40
1.0
 40
1.0
 40
1.0
 10
310.3267630677
 20
126.9090465668
 30
0.0
 10
309.7701173027
 20
127.4353491765
 30
0.0
 10
309.0416501061
 20
128.3187762368
 30
0.0
 10
308.4272103597
 20
129.6594371088
 30
0.0
 10
308.2536883023
 20
130.3452450676
 30
0.0
 10
308.2004840579
 20
130.6879749511
 30
0.0
  0
SPLINE
  5
3FC
330
21F
100
AcDbEntity
  8
7_ALL_FEATURES
  6
Continuous
 62
     7
100
AcDbSpline
 70
     0
 71
     3
 72
    22
 73
    18
 74
     0
 42
0.000000001
 43
0.0000001
 40
0.0
 40
0.0
 40
0.0
 40
0.0
 40
0.0561488256
 40
0.1065770066
 40
0.1523526987
 40
0.1952922839
 40
0.237803753
 40
0.2823955825
 40
0.3311163518
 40
0.3852819566
 40
0.4455034608
 40
0.5118315282
 40
0.5838993621
 40
0.661033239
 40
0.7423337204
 40
0.8267383846
 40
1.0
 40
1.0
 40
1.0
 40
1.0
 10
349.9467823206
 20
143.6528254317
 30
0.0
 10
350.5582883008
 20
143.3264790561
 30
0.0
 10
351.6797963256
 20
142.6263319352
 30
0.0
 10
353.0823012928
 20
141.35538936
 30
0.0
 10
354.0805164557
 20
139.9365235147
 30
0.0
 10
354.6389650141
 20
138.3930362797
 30
0.0
 10
354.731272385
 20
136.7680565463
 30
0.0
 10
354.3599511127
 20
135.1137728095
 30
0.0
 10
353.5491883454
 20
133.4683352474
 30
0.0
 10
352.3254347951
 20
131.8570780407
 30
0.0
 10
350.7147390968
 20
130.3033649696
 30
0.0
 10
348.7468622938
 20
128.8319398698
 30
0.0
 10
346.4574634169
 20
127.4681863576
 30
0.0
 10
343.8885227632
 20
126.2367938684
 30
0.0
 10
341.0873212397
 20
125.1604329213
 30
0.0
 10
337.0794182705
 20
123.9492873399
 30
0.0
 10
333.943046612
 20
123.3467313495
 30
0.0
 10
331.8205449025
 20
123.0827238476
 30
0.0
  0
SPLINE
  5
3FD
330
21F
100
AcDbEntity
  8
3_ALL_AXES
  6
Continuous
 62
     7
100
AcDbSpline
 70
     0
 71
     3
 72
    17
 73
    13
 74
     0
 42
0.000000001
 43
0.0000001
 40
0.0
 40
0.0
 40
0.0
 40
0.0
 40
0.1623520529
 40
0.319145494
 40
0.4665887236
 40
0.6015162351
 40
0.7217498946
 40
0.8266050091
 40
0.8737450741
 40
0.9178683455
 40
0.9596579184
 40
1.0
 40
1.0
 40
1.0
 40
1.0
 10
333.5828178046
 20
108.6459129727
 30
0.0
 10
331.713947928
 20
108.4134534799
 30
0.0
 10
328.0176097444
 20
108.1190216138
 30
0.0
 10
322.5975906209
 20
108.1913914102
 30
0.0
 10
317.5271990755
 20
108.7782879523
 30
0.0
 10
312.9704262871
 20
109.8612435276
 30
0.0
 10
309.0729424165
 20
111.4060138961
 30
0.0
 10
306.378703149
 20
113.1077072338
 30
0.0
 10
304.7205116041
 20
114.6749191021
 30
0.0
 10
303.7603848295
 20
115.8913959182
 30
0.0
 10
303.050310597
 20
117.1802325662
 30
0.0
 10
302.746728974
 20
118.0901793676
 30
0.0
 10
302.6416964557
 20
118.5462051599
 30
0.0
  0
SPLINE
  5
3FE
330
21F
100
AcDbEntity
  8
3_ALL_AXES
  6
Continuous
 62
     7
100
AcDbSpline
 70
     0
 71
     3
 72
    18
 73
    14
 74
     0
 42
0.000000001
 43
0.0000001
 40
0.0
 40
0.0
 40
0.0
 40
0.0
 40
0.1598007048
 40
0.3162802993
 40
0.4648427023
 40
0.6014846563
 40
0.7232277289
 40
0.7780756302
 40
0.8288790781
 40
0.8758745096
 40
0.9195302802
 40
0.9605763891
 40
1.0
 40
1.0
 40
1.0
 40
1.0
 10
333.5828178046
 20
108.6459129727
 30
0.0
 10
335.6254313238
 20
108.8999835791
 30
0.0
 10
339.6466203351
 20
109.5989201932
 30
0.0
 10
345.4271992899
 20
111.1951939982
 30
0.0
 10
350.7347481423
 20
113.2774099352
 30
0.0
 10
355.3640452669
 20
115.7643959486
 30
0.0
 10
358.623667027
 20
118.1783893285
 30
0.0
 10
360.7012153109
 20
120.250004666
 30
0.0
 10
361.9338852881
 20
121.7879226193
 30
0.0
 10
362.8830062765
 20
123.3501606336
 30
0.0
 10
363.53727312
 20
124.9235788562
 30
0.0
 10
363.8867120204
 20
126.4926803534
 30
0.0
 10
363.9111627967
 20
127.537223586
 30
0.0
 10
363.8703246665
 20
128.0433847863
 30
0.0
  0
SPLINE
  5
3FF
330
21F
100
AcDbEntity
  8
7_ALL_FEATURES
  6
Continuous
 62
     7
100
AcDbSpline
 70
     0
 71
     3
 72
    16
 73
    12
 74
     0
 42
0.000000001
 43
0.0000001
 40
0.0
 40
0.0
 40
0.0
 40
0.0
 40
0.1596977078
 40
0.3143481129
 40
0.4605471039
 40
0.5953737898
 40
0.7167094843
 40
0.8236117648
 40
0.9168742508
 40
0.9594143348
 40
1.0
 40
1.0
 40
1.0
 40
1.0
 10
334.7767898905
 20
103.3837239092
 30
0.0
 10
333.3386255893
 20
103.2048377554
 30
0.0
 10
330.4912169642
 20
102.9722886422
 30
0.0
 10
326.306285882
 20
103.0010142891
 30
0.0
 10
322.3666146051
 20
103.4086905321
 30
0.0
 10
318.7894754804
 20
104.1829476896
 30
0.0
 10
315.6778976913
 20
105.3030223678
 30
0.0
 10
313.12024835
 20
106.7394638851
 30
0.0
 10
311.4607082745
 20
108.2288810761
 30
0.0
 10
310.5324227309
 20
109.5399908496
 30
0.0
 10
310.2000409484
 20
110.2219821668
 30
0.0
 10
310.0687327073
 20
110.5660929057
 30
0.0
  0
SPLINE
  5
400
330
21F
100
AcDbEntity
  8
7_ALL_FEATURES
  6
Continuous
 62
     7
100
AcDbSpline
 70
     0
 71
     3
 72
    10
 73
     6
 74
     0
 42
0.000000001
 43
0.0000001
 40
0.0
 40
0.0
 40
0.0
 40
0.0
 40
0.520351394
 40
0.7672157612
 40
1.0
 40
1.0
 40
1.0
 40
1.0
 10
334.039735595
 20
108.1311338877
 30
0.0
 10
331.6341087257
 20
107.8319098438
 30
0.0
 10
328.0469700302
 20
107.6377369206
 30
0.0
 10
323.394604293
 20
107.9422143125
 30
0.0
 10
321.1819880458
 20
108.2828236644
 30
0.0
 10
320.1201221905
 20
108.5031054508
 30
0.0
  0
SPLINE
  5
401
330
21F
100
AcDbEntity
  8
7_ALL_FEATURES
  6
Continuous
 62
     7
100
AcDbSpline
 70
     0
 71
     3
 72
    14
 73
    10
 74
     0
 42
0.000000001
 43
0.0000001
 40
0.0
 40
0.0
 40
0.0
 40
0.0
 40
0.2981671685
 40
0.4396212981
 40
0.5730053395
 40
0.6965690428
 40
0.8090846201
 40
0.9100557059
 40
1.0
 40
1.0
 40
1.0
 40
1.0
 10
334.4082627428
 20
105.7574288985
 30
0.0
 10
332.0023043257
 20
105.4581636149
 30
0.0
 10
328.4148374394
 20
105.263980208
 30
0.0
 10
323.7614843508
 20
105.5686738612
 30
0.0
 10
320.5548331677
 20
106.0625023815
 30
0.0
 10
317.6403708021
 20
106.8144092757
 30
0.0
 10
315.0783238946
 20
107.8099534988
 30
0.0
 10
312.9225619431
 20
109.0294728791
 30
0.0
 10
311.7220145226
 20
110.0345653282
 30
0.0
 10
311.2220631039
 20
110.5683699592
 30
0.0
  0
SPLINE
  5
402
330
21F
100
AcDbEntity
  8
7_ALL_FEATURES
  6
Continuous
 62
     7
100
AcDbSpline
 70
     0
 71
     3
 72
    11
 73
     7
 74
     0
 42
0.000000001
 43
0.0000001
 40
0.0
 40
0.0
 40
0.0
 40
0.0
 40
0.2898585943
 40
0.5482112488
 40
0.7812900194
 40
1.0
 40
1.0
 40
1.0
 40
1.0
 10
315.3108184286
 20
103.5801053492
 30
0.0
 10
314.5981221531
 20
103.9452162159
 30
0.0
 10
313.2952377275
 20
104.7332010663
 30
0.0
 10
311.6788150282
 20
106.1874971044
 30
0.0
 10
310.5584768891
 20
107.8246226968
 30
0.0
 10
310.1708512833
 20
109.0345313939
 30
0.0
 10
310.0781346872
 20
109.631592988
 30
0.0
  0
SPLINE
  5
403
330
21F
100
AcDbEntity
  8
7_ALL_FEATURES
  6
Continuous
 62
     7
100
AcDbSpline
 70
     0
 71
     3
 72
    11
 73
     7
 74
     0
 42
0.000000001
 43
0.0000001
 40
0.0
 40
0.0
 40
0.0
 40
0.0
 40
0.2898584906
 40
0.5482111474
 40
0.7812900033
 40
1.0
 40
1.0
 40
1.0
 40
1.0
 10
356.3345701
 20
109.9492125378
 30
0.0
 10
356.9030108442
 20
110.5132311565
 30
0.0
 10
357.9056553944
 20
111.6591476978
 30
0.0
 10
359.0050556434
 20
113.5350872338
 30
0.0
 10
359.576260159
 20
115.4348284456
 30
0.0
 10
359.5788636088
 20
116.7053217255
 30
0.0
 10
359.4861469759
 20
117.3023835568
 30
0.0
  0
SPLINE
  5
404
330
21F
100
AcDbEntity
  8
7_ALL_FEATURES
  6
Continuous
 62
     7
100
AcDbSpline
 70
     0
 71
     3
 72
    13
 73
     9
 74
     0
 42
0.000000001
 43
0.0000001
 40
0.0
 40
0.0
 40
0.0
 40
0.0
 40
0.2781579917
 40
0.5455008013
 40
0.6710834107
 40
0.7893489884
 40
0.8992216153
 40
1.0
 40
1.0
 40
1.0
 40
1.0
 10
335.1722260315
 20
101.0390511171
 30
0.0
 10
337.2733732936
 20
101.3004024466
 30
0.0
 10
341.3658567708
 20
102.0721362434
 30
0.0
 10
346.2408267323
 20
103.6549735911
 30
0.0
 10
349.7874848807
 20
105.2644268994
 30
0.0
 10
352.1426545363
 20
106.5767837235
 30
0.0
 10
354.2092021034
 20
107.9970766991
 30
0.0
 10
355.4264716365
 20
109.0481188086
 30
0.0
 10
355.9710030014
 20
109.58845819
 30
0.0
  0
LINE
  5
405
330
21F
100
AcDbEntity
  8
7_ALL_FEATURES
  6
Continuous
 62
     7
100
AcDbLine
 10
335.1722260315
 20
101.0390511171
 30
0.0
 11
335.1281261472
 21
101.0335856891
 31
0.0
  0
SPLINE
  5
406
330
21F
100
AcDbEntity
  8
7_ALL_FEATURES
  6
Continuous
 62
     7
100
AcDbSpline
 70
     0
 71
     3
 72
    11
 73
     7
 74
     0
 42
0.000000001
 43
0.0000001
 40
0.0
 40
0.0
 40
0.0
 40
0.0
 40
0.2800509174
 40
0.5459937532
 40
0.7882833311
 40
1.0
 40
1.0
 40
1.0
 40
1.0
 10
335.1281261472
 20
101.0335856891
 30
0.0
 10
333.2988939133
 20
100.8077105306
 30
0.0
 10
329.7050463324
 20
100.5620106764
 30
0.0
 10
324.5096639403
 20
100.8149039598
 30
0.0
 10
319.8357570347
 20
101.6780324985
 30
0.0
 10
317.0064543271
 20
102.711327012
 30
0.0
 10
315.7663651195
 20
103.3467135402
 30
0.0
  0
SPLINE
  5
407
330
21F
100
AcDbEntity
  8
7_ALL_FEATURES
  6
Continuous
 62
     7
100
AcDbSpline
 70
     0
 71
     3
 72
    17
 73
    13
 74
     0
 42
0.000000001
 43
0.0000001
 40
0.0
 40
0.0
 40
0.0
 40
0.0
 40
0.0394585719
 40
0.0806807786
 40
0.1245955474
 40
0.1718800895
 40
0.2778844948
 40
0.3999055473
 40
0.5365263755
 40
0.6847956273
 40
0.8407794892
 40
1.0
 40
1.0
 40
1.0
 40
1.0
 10
359.2148953393
 20
118.8282516359
 30
0.0
 10
359.2341273114
 20
118.4214903488
 30
0.0
 10
359.1876947482
 20
117.5837112628
 30
0.0
 10
358.8725159688
 20
116.3302926152
 30
0.0
 10
358.3176662654
 20
115.07498713
 30
0.0
 10
357.2268317447
 20
113.3497084617
 30
0.0
 10
355.2565149176
 20
111.2673195145
 30
0.0
 10
352.2051142152
 20
109.0410948109
 30
0.0
 10
348.4864680906
 20
107.0645834539
 30
0.0
 10
344.2379590803
 20
105.4113868834
 30
0.0
 10
339.6183380673
 20
104.1430346686
 30
0.0
 10
336.4073929252
 20
103.5865465665
 30
0.0
 10
334.7767898905
 20
103.3837239092
 30
0.0
  0
SPLINE
  5
408
330
21F
100
AcDbEntity
  8
7_ALL_FEATURES
  6
Continuous
 62
     7
100
AcDbSpline
 70
     0
 71
     3
 72
    15
 73
    11
 74
     0
 42
0.000000001
 43
0.0000001
 40
0.0
 40
0.0
 40
0.0
 40
0.0
 40
0.0885380211
 40
0.1891304017
 40
0.3022078063
 40
0.4269328239
 40
0.5615863791
 40
0.7038444684
 40
0.8509675432
 40
1.0
 40
1.0
 40
1.0
 40
1.0
 10
358.1272174435
 20
117.8802319951
 30
0.0
 10
357.7806009694
 20
117.1452179663
 30
0.0
 10
356.8257445859
 20
115.6740180448
 30
0.0
 10
354.8811233027
 20
113.6792173519
 30
0.0
 10
352.392564985
 20
111.8040510784
 30
0.0
 10
349.42370641
 20
110.0950249477
 30
0.0
 10
346.0502673103
 20
108.5943370057
 30
0.0
 10
342.3601977918
 20
107.3415459556
 30
0.0
 10
338.4509794719
 20
106.3697521683
 30
0.0
 10
335.7656911526
 20
105.9262727135
 30
0.0
 10
334.4082627428
 20
105.7574288985
 30
0.0
  0
SPLINE
  5
409
330
21F
100
AcDbEntity
  8
7_ALL_FEATURES
  6
Continuous
 62
     7
100
AcDbSpline
 70
     0
 71
     3
 72
    11
 73
     7
 74
     0
 42
0.000000001
 43
0.0000001
 40
0.0
 40
0.0
 40
0.0
 40
0.0
 40
0.2317323973
 40
0.4794729093
 40
0.7376212536
 40
1.0
 40
1.0
 40
1.0
 40
1.0
 10
350.2820721893
 20
113.1952682456
 30
0.0
 10
349.1308511518
 20
112.546120821
 30
0.0
 10
346.6628411035
 20
111.3526434444
 30
0.0
 10
342.7017793031
 20
109.9177983451
 30
0.0
 10
338.4562713852
 20
108.811162357
 30
0.0
 10
335.5247047704
 20
108.3158418686
 30
0.0
 10
334.039735595
 20
108.1311338877
 30
0.0
  0
SPLINE
  5
40A
330
21F
100
AcDbEntity
  8
7_ALL_FEATURES
  6
Continuous
 62
     7
100
AcDbSpline
 70
     0
 71
     3
 72
    13
 73
     9
 74
     0
 42
0.000000001
 43
0.0000001
 40
0.0
 40
0.0
 40
0.0
 40
0.0
 40
0.2764949802
 40
0.5429027256
 40
0.6685100951
 40
0.7872113937
 40
0.8979513163
 40
1.0
 40
1.0
 40
1.0
 40
1.0
 10
335.1118145703
 20
101.2258102826
 30
0.0
 10
337.1974674797
 20
101.4852343461
 30
0.0
 10
341.26539993
 20
102.2453139849
 30
0.0
 10
346.1220090346
 20
103.7939557812
 30
0.0
 10
349.6751454616
 20
105.366055287
 30
0.0
 10
352.0524010866
 20
106.6506282765
 30
0.0
 10
354.1567317652
 20
108.0429269313
 30
0.0
 10
355.4093525987
 20
109.0728833026
 30
0.0
 10
355.975500838
 20
109.6031596793
 30
0.0
  0
SPLINE
  5
40B
330
21F
100
AcDbEntity
  8
7_ALL_FEATURES
  6
Continuous
 62
     7
100
AcDbSpline
 70
     0
 71
     3
 72
    17
 73
    13
 74
     0
 42
0.000000001
 43
0.0000001
 40
0.0
 40
0.0
 40
0.0
 40
0.0
 40
0.1585390289
 40
0.313943874
 40
0.4618508121
 40
0.5984096195
 40
0.7207005648
 40
0.8272498243
 40
0.8748471371
 40
0.9190502092
 40
0.9604795143
 40
1.0
 40
1.0
 40
1.0
 40
1.0
 10
334.9778046984
 20
102.0889757332
 30
0.0
 10
336.5899281404
 20
102.2894998053
 30
0.0
 10
339.7655454481
 20
102.8381153441
 30
0.0
 10
344.3382705755
 20
104.0854900178
 30
0.0
 10
348.551773816
 20
105.7104429162
 30
0.0
 10
352.2519360575
 20
107.6537468097
 30
0.0
 10
355.3047957271
 20
109.8444940963
 30
0.0
 10
357.2944113112
 20
111.8943102827
 30
0.0
 10
358.4162220559
 20
113.595916483
 30
0.0
 10
359.0002789033
 20
114.8359265057
 30
0.0
 10
359.3513308842
 20
116.0758021618
 30
0.0
 10
359.4265856791
 20
116.9080127
 30
0.0
 10
359.4222858224
 20
117.3129556014
 30
0.0
  0
SPLINE
  5
40C
330
21F
100
AcDbEntity
  8
7_ALL_FEATURES
  6
Continuous
 62
     7
100
AcDbSpline
 70
     0
 71
     3
 72
    11
 73
     7
 74
     0
 42
0.000000001
 43
0.0000001
 40
0.0
 40
0.0
 40
0.0
 40
0.0
 40
0.2783155583
 40
0.5433951658
 40
0.7862052835
 40
1.0
 40
1.0
 40
1.0
 40
1.0
 10
335.1118145703
 20
101.2258102826
 30
0.0
 10
333.2980239038
 20
101.0002018206
 30
0.0
 10
329.730056538
 20
100.7476600702
 30
0.0
 10
324.5590462432
 20
100.9678260746
 30
0.0
 10
319.8755840755
 20
101.7782362163
 30
0.0
 10
317.0189378971
 20
102.7578282737
 30
0.0
 10
315.7516354173
 20
103.3622142614
 30
0.0
  0
SPLINE
  5
40D
330
21F
100
AcDbEntity
  8
7_ALL_FEATURES
  6
Continuous
 62
     7
100
AcDbSpline
 70
     0
 71
     3
 72
     9
 73
     5
 74
     0
 42
0.000000001
 43
0.0000001
 40
0.0
 40
0.0
 40
0.0
 40
0.0
 40
0.5057427709
 40
1.0
 40
1.0
 40
1.0
 40
1.0
 10
334.6092775506
 20
104.4626807225
 30
0.0
 10
336.3160401723
 20
104.6749764946
 30
0.0
 10
339.6717880991
 20
105.2641278534
 30
0.0
 10
342.9518824907
 20
106.1887495063
 30
0.0
 10
344.541630585
 20
106.7346213607
 30
0.0
  0
SPLINE
  5
40E
330
21F
100
AcDbEntity
  8
7_ALL_FEATURES
  6
Continuous
 62
     7
100
AcDbSpline
 70
     0
 71
     3
 72
    14
 73
    10
 74
     0
 42
0.000000001
 43
0.0000001
 40
0.0
 40
0.0
 40
0.0
 40
0.0
 40
0.3103105646
 40
0.4523696467
 40
0.5838172211
 40
0.7039007621
 40
0.8125464223
 40
0.9105847247
 40
1.0
 40
1.0
 40
1.0
 40
1.0
 10
344.541630585
 20
106.7346213607
 30
0.0
 10
346.4389068638
 20
107.3860891777
 30
0.0
 10
349.1509388986
 20
108.5217444909
 30
0.0
 10
352.4166371267
 20
110.4221440598
 30
0.0
 10
354.4832792623
 20
111.9148421618
 30
0.0
 10
356.2045690665
 20
113.4919260734
 30
0.0
 10
357.5517067059
 20
115.1303683519
 30
0.0
 10
358.4997752218
 20
116.8057472668
 30
0.0
 10
358.8626266153
 20
117.9757797882
 30
0.0
 10
358.9606573438
 20
118.5454329052
 30
0.0
  0
SPLINE
  5
40F
330
21F
100
AcDbEntity
  8
7_ALL_FEATURES
  6
Continuous
 62
     7
100
AcDbSpline
 70
     0
 71
     3
 72
    14
 73
    10
 74
     0
 42
0.000000001
 43
0.0000001
 40
0.0
 40
0.0
 40
0.0
 40
0.0
 40
0.2835283743
 40
0.4214359822
 40
0.5540050079
 40
0.6794319737
 40
0.7962096675
 40
0.9032425215
 40
1.0
 40
1.0
 40
1.0
 40
1.0
 10
334.2407504029
 20
106.8363857118
 30
0.0
 10
336.5646504185
 20
107.1254441561
 30
0.0
 10
339.9965795949
 20
107.7901741717
 30
0.0
 10
344.3738843005
 20
109.133090228
 30
0.0
 10
347.4221178307
 20
110.3267007537
 30
0.0
 10
350.2046616413
 20
111.6916848066
 30
0.0
 10
352.6681503251
 20
113.2020615915
 30
0.0
 10
354.7646706934
 20
114.82847229
 30
0.0
 10
355.951661821
 20
116.0324788701
 30
0.0
 10
356.4614389948
 20
116.6479465408
 30
0.0
  0
SPLINE
  5
410
330
21F
100
AcDbEntity
  8
7_ALL_FEATURES
  6
Continuous
 62
     7
100
AcDbSpline
 70
     0
 71
     3
 72
    21
 73
    17
 74
     0
 42
0.000000001
 43
0.0000001
 40
0.0
 40
0.0
 40
0.0
 40
0.0
 40
0.0404415752
 40
0.0826843722
 40
0.1274711614
 40
0.175353313
 40
0.28155003
 40
0.4025036922
 40
0.4350016896
 40
0.4683442015
 40
0.537423068
 40
0.6094485703
 40
0.6840673175
 40
0.7608758259
 40
0.8394465208
 40
1.0
 40
1.0
 40
1.0
 40
1.0
 10
310.17488844
 20
109.5381108713
 30
0.0
 10
310.2910774917
 20
109.1858421568
 30
0.0
 10
310.595343307
 20
108.4861216167
 30
0.0
 10
311.2378851714
 20
107.5036867044
 30
0.0
 10
312.0665549318
 20
106.5789473506
 30
0.0
 10
313.4570772825
 20
105.3915595069
 30
0.0
 10
315.6517229702
 20
104.1088955893
 30
0.0
 10
317.892467408
 20
103.2758272227
 30
0.0
 10
319.5417875695
 20
102.811779196
 30
0.0
 10
320.7436770824
 20
102.5160606792
 30
0.0
 10
322.3147630222
 20
102.2075965424
 30
0.0
 10
324.2758676056
 20
101.9375785992
 30
0.0
 10
326.3190683862
 20
101.7656352308
 30
0.0
 10
328.428262132
 20
101.6929736547
 30
0.0
 10
331.3265345801
 20
101.7297684465
 30
0.0
 10
333.5164482738
 20
101.9072048258
 30
0.0
 10
334.9778046984
 20
102.0889757332
 30
0.0
  0
SPLINE
  5
411
330
21F
100
AcDbEntity
  8
7_ALL_FEATURES
  6
Continuous
 62
     7
100
AcDbSpline
 70
     0
 71
     3
 72
    15
 73
    11
 74
     0
 42
0.000000001
 43
0.0000001
 40
0.0
 40
0.0
 40
0.0
 40
0.0
 40
0.0842633262
 40
0.1795130621
 40
0.2880341141
 40
0.4101364258
 40
0.5447336861
 40
0.68978273
 40
0.8425745836
 40
1.0
 40
1.0
 40
1.0
 40
1.0
 10
310.1927708961
 20
110.9933217458
 30
0.0
 10
310.533612844
 20
110.3313420435
 30
0.0
 10
311.5019631267
 20
109.0410940222
 30
0.0
 10
313.5160700332
 20
107.4535662835
 30
0.0
 10
316.0934351838
 20
106.1374203731
 30
0.0
 10
319.1663968258
 20
105.1202407747
 30
0.0
 10
322.6550921136
 20
104.4244794762
 30
0.0
 10
326.4656998171
 20
104.0688287019
 30
0.0
 10
330.4934733557
 20
104.0629522498
 30
0.0
 10
333.2288609073
 20
104.2909775146
 30
0.0
 10
334.6092775506
 20
104.4626807225
 30
0.0
  0
SPLINE
  5
412
330
21F
100
AcDbEntity
  8
7_ALL_FEATURES
  6
Continuous
 62
     7
100
AcDbSpline
 70
     0
 71
     3
 72
    13
 73
     9
 74
     0
 42
0.000000001
 43
0.0000001
 40
0.0
 40
0.0
 40
0.0
 40
0.0
 40
0.0978603316
 40
0.2050609562
 40
0.3212632808
 40
0.4456923925
 40
0.7144024032
 40
1.0
 40
1.0
 40
1.0
 40
1.0
 10
313.1461719831
 20
109.9332289187
 30
0.0
 10
313.7409846957
 20
109.550175199
 30
0.0
 10
315.0502000185
 20
108.8432313373
 30
0.0
 10
317.2164185706
 20
107.9936873201
 30
0.0
 10
319.6425895366
 20
107.3177292194
 30
0.0
 10
323.2668748555
 20
106.6452391293
 30
0.0
 10
328.1812966106
 20
106.3249874972
 30
0.0
 10
332.1918066974
 20
106.5815277248
 30
0.0
 10
334.2407504029
 20
106.8363857118
 30
0.0
  0
SPLINE
  5
413
330
21F
100
AcDbEntity
  8
7_ALL_FEATURES
  6
Continuous
 62
     7
100
AcDbSpline
 70
     0
 71
     3
 72
    11
 73
     7
 74
     0
 42
0.000000001
 43
0.0000001
 40
0.0
 40
0.0
 40
0.0
 40
0.0
 40
0.3178381607
 40
0.5953698738
 40
0.8239662572
 40
1.0
 40
1.0
 40
1.0
 40
1.0
 10
318.242075394
 20
144.1177871899
 30
0.0
 10
318.3922492735
 20
144.1818852938
 30
0.0
 10
318.6672539165
 20
144.3179491529
 30
0.0
 10
319.0174778402
 20
144.5590031209
 30
0.0
 10
319.2669616627
 20
144.8082745152
 30
0.0
 10
319.3740072052
 20
144.9911768502
 30
0.0
 10
319.4030937208
 20
145.0768043726
 30
0.0
  0
SPLINE
  5
414
330
21F
100
AcDbEntity
  8
7_ALL_FEATURES
  6
Continuous
 62
     7
100
AcDbSpline
 70
     0
 71
     3
 72
     9
 73
     5
 74
     0
 42
0.000000001
 43
0.0000001
 40
0.0
 40
0.0
 40
0.0
 40
0.0
 40
0.2760300989
 40
1.0
 40
1.0
 40
1.0
 40
1.0
 10
319.4030937208
 20
145.0768043726
 30
0.0
 10
319.410119702
 20
145.0974880934
 30
0.0
 10
319.431833162
 20
145.1735889731
 30
0.0
 10
319.4359911657
 20
145.2550539707
 30
0.0
 10
319.4272014209
 20
145.311669233
 30
0.0
  0
SPLINE
  5
415
330
21F
100
AcDbEntity
  8
7_ALL_FEATURES
  6
Continuous
 62
     7
100
AcDbSpline
 70
     0
 71
     3
 72
     9
 73
     5
 74
     0
 42
0.000000001
 43
0.0000001
 40
0.0
 40
0.0
 40
0.0
 40
0.0
 40
0.2265374838
 40
1.0
 40
1.0
 40
1.0
 40
1.0
 10
314.2393525628
 20
144.5062350483
 30
0.0
 10
314.2425713074
 20
144.4855029252
 30
0.0
 10
314.2632916734
 20
144.3949464521
 30
0.0
 10
314.3127502154
 20
144.3124745347
 30
0.0
 10
314.3587572571
 20
144.2575684152
 30
0.0
  0
SPLINE
  5
416
330
21F
100
AcDbEntity
  8
7_ALL_FEATURES
  6
Continuous
 62
     7
100
AcDbSpline
 70
     0
 71
     3
 72
    13
 73
     9
 74
     0
 42
0.000000001
 43
0.0000001
 40
0.0
 40
0.0
 40
0.0
 40
0.0
 40
0.0749360675
 40
0.1719766264
 40
0.288856657
 40
0.4213460879
 40
0.7121140617
 40
1.0
 40
1.0
 40
1.0
 40
1.0
 10
314.3587572571
 20
144.2575684152
 30
0.0
 10
314.4230970724
 20
144.1807834393
 30
0.0
 10
314.6061010576
 20
144.0346030126
 30
0.0
 10
314.9598424663
 20
143.8742252977
 30
0.0
 10
315.4106075474
 20
143.759560579
 30
0.0
 10
316.1302083189
 20
143.6811150716
 30
0.0
 10
317.0861342441
 20
143.7464542135
 30
0.0
 10
317.8393824071
 20
143.951207784
 30
0.0
 10
318.1951152436
 20
144.0980733345
 30
0.0
  0
SPLINE
  5
417
330
21F
100
AcDbEntity
  8
7_ALL_FEATURES
  6
Continuous
 62
     7
100
AcDbSpline
 70
     0
 71
     3
 72
     9
 73
     5
 74
     0
 42
0.000000001
 43
0.0000001
 40
0.0
 40
0.0
 40
0.0
 40
0.0
 40
0.228194106
 40
1.0
 40
1.0
 40
1.0
 40
1.0
 10
320.0895749528
 20
120.7169522544
 30
0.0
 10
320.0926117147
 20
120.697392293
 30
0.0
 10
320.1001720413
 20
120.6107508816
 30
0.0
 10
320.0814787814
 20
120.5229639188
 30
0.0
 10
320.0576992362
 20
120.4603804334
 30
0.0
  0
SPLINE
  5
418
330
21F
100
AcDbEntity
  8
7_ALL_FEATURES
  6
Continuous
 62
     7
100
AcDbSpline
 70
     0
 71
     3
 72
    13
 73
     9
 74
     0
 42
0.000000001
 43
0.0000001
 40
0.0
 40
0.0
 40
0.0
 40
0.0
 40
0.0742752212
 40
0.1724275518
 40
0.2916138251
 40
0.426806221
 40
0.7200559057
 40
1.0
 40
1.0
 40
1.0
 40
1.0
 10
320.0576992362
 20
120.4603804334
 30
0.0
 10
320.0196318408
 20
120.3601938958
 30
0.0
 10
319.8790607516
 20
120.148176568
 30
0.0
 10
319.560742802
 20
119.868996083
 30
0.0
 10
319.1212208389
 20
119.608106705
 30
0.0
 10
318.3882814607
 20
119.3071626757
 30
0.0
 10
317.3793939999
 20
119.0962037236
 30
0.0
 10
316.5423875707
 20
119.1011013091
 30
0.0
 10
316.1434977175
 20
119.1647977608
 30
0.0
  0
SPLINE
  5
419
330
21F
100
AcDbEntity
  8
7_ALL_FEATURES
  6
Continuous
 62
     7
100
AcDbSpline
 70
     0
 71
     3
 72
     9
 73
     5
 74
     0
 42
0.000000001
 43
0.0000001
 40
0.0
 40
0.0
 40
0.0
 40
0.0
 40
0.5853658973
 40
1.0
 40
1.0
 40
1.0
 40
1.0
 10
316.0769597011
 20
119.1760567626
 30
0.0
 10
315.8481601136
 20
119.2169865878
 30
0.0
 10
315.4627806656
 20
119.3214328136
 30
0.0
 10
315.1159065432
 20
119.5449743836
 30
0.0
 10
315.0126584264
 20
119.6732157969
 30
0.0
  0
SPLINE
  5
41A
330
21F
100
AcDbEntity
  8
7_ALL_FEATURES
  6
Continuous
 62
     7
100
AcDbSpline
 70
     0
 71
     3
 72
     9
 73
     5
 74
     0
 42
0.000000001
 43
0.0000001
 40
0.0
 40
0.0
 40
0.0
 40
0.0
 40
0.2798529962
 40
1.0
 40
1.0
 40
1.0
 40
1.0
 10
315.0126584264
 20
119.6732157969
 30
0.0
 10
314.9971797678
 20
119.6924413782
 30
0.0
 10
314.9455292942
 20
119.7639103346
 30
0.0
 10
314.9114702932
 20
119.8487551153
 30
0.0
 10
314.9017260948
 20
119.9115180697
 30
0.0
  0
SPLINE
  5
41B
330
21F
100
AcDbEntity
  8
7_ALL_FEATURES
  6
Continuous
 62
     7
100
AcDbSpline
 70
     0
 71
     3
 72
     9
 73
     5
 74
     0
 42
0.000000001
 43
0.0000001
 40
0.0
 40
0.0
 40
0.0
 40
0.0
 40
0.2218629881
 40
1.0
 40
1.0
 40
1.0
 40
1.0
 10
362.8671826407
 20
138.3206836631
 30
0.0
 10
362.8677590195
 20
138.2992820394
 30
0.0
 10
362.8634518022
 20
138.2025938593
 30
0.0
 10
362.8303022806
 20
138.1086609755
 30
0.0
 10
362.7958594507
 20
138.0419374793
 30
0.0
  0
SPLINE
  5
41C
330
21F
100
AcDbEntity
  8
7_ALL_FEATURES
  6
Continuous
 62
     7
100
AcDbSpline
 70
     0
 71
     3
 72
     9
 73
     5
 74
     0
 42
0.000000001
 43
0.0000001
 40
0.0
 40
0.0
 40
0.0
 40
0.0
 40
0.2190561256
 40
1.0
 40
1.0
 40
1.0
 40
1.0
 10
362.7958594507
 20
138.0419374793
 30
0.0
 10
362.7819437308
 20
138.0149796051
 30
0.0
 10
362.7115855948
 20
137.8954526198
 30
0.0
 10
362.6184956337
 20
137.7903661126
 30
0.0
 10
362.5398694571
 20
137.7161001655
 30
0.0
  0
SPLINE
  5
41D
330
21F
100
AcDbEntity
  8
7_ALL_FEATURES
  6
Continuous
 62
     7
100
AcDbSpline
 70
     0
 71
     3
 72
    15
 73
    11
 74
     0
 42
0.000000001
 43
0.0000001
 40
0.0
 40
0.0
 40
0.0
 40
0.0
 40
0.1110263557
 40
0.2435749233
 40
0.3894413298
 40
0.5393711015
 40
0.683810865
 40
0.8136093497
 40
0.9208075335
 40
1.0
 40
1.0
 40
1.0
 40
1.0
 10
362.5398694571
 20
137.7161001655
 30
0.0
 10
362.4033280687
 20
137.5871307055
 30
0.0
 10
362.0613971518
 20
137.3494017878
 30
0.0
 10
361.4590323622
 20
137.0770884532
 30
0.0
 10
360.7596502139
 20
136.878154269
 30
0.0
 10
360.0205184183
 20
136.7709076305
 30
0.0
 10
359.300719472
 20
136.7634520355
 30
0.0
 10
358.6585754305
 20
136.8551466116
 30
0.0
 10
358.1497161708
 20
137.0299780915
 30
0.0
 10
357.8840789197
 20
137.2155166143
 30
0.0
 10
357.7972427063
 20
137.3175310238
 30
0.0
  0
SPLINE
  5
41E
330
21F
100
AcDbEntity
  8
7_ALL_FEATURES
  6
Continuous
 62
     7
100
AcDbSpline
 70
     0
 71
     3
 72
     9
 73
     5
 74
     0
 42
0.000000001
 43
0.0000001
 40
0.0
 40
0.0
 40
0.0
 40
0.0
 40
0.2824049319
 40
1.0
 40
1.0
 40
1.0
 40
1.0
 10
357.7972427063
 20
137.3175310238
 30
0.0
 10
357.7799655977
 20
137.337828017
 30
0.0
 10
357.7227420437
 20
137.4128407717
 30
0.0
 10
357.6847431851
 20
137.5034190937
 30
0.0
 10
357.674352368
 20
137.5703469564
 30
0.0
  0
SPLINE
  5
41F
330
21F
100
AcDbEntity
  8
7_ALL_FEATURES
  6
Continuous
 62
     7
100
AcDbSpline
 70
     0
 71
     3
 72
    17
 73
    13
 74
     0
 42
0.000000001
 43
0.0000001
 40
0.0
 40
0.0
 40
0.0
 40
0.0
 40
0.1587991823
 40
0.3145143362
 40
0.4628169993
 40
0.5998392149
 40
0.7225611357
 40
0.8292791476
 40
0.8767400288
 40
0.9205822277
 40
0.9613779272
 40
1.0
 40
1.0
 40
1.0
 40
1.0
 10
331.818029761
 20
122.8953077805
 30
0.0
 10
333.3398306205
 20
123.0845970726
 30
0.0
 10
336.3382150642
 20
123.6009032717
 30
0.0
 10
340.6584979081
 20
124.7716151055
 30
0.0
 10
344.644432713
 20
126.2947885506
 30
0.0
 10
348.1513826174
 20
128.1144349872
 30
0.0
 10
351.0523115656
 20
130.1623337108
 30
0.0
 10
352.9536095667
 20
132.0730144165
 30
0.0
 10
354.0368322795
 20
133.6549693205
 30
0.0
 10
354.6078085391
 20
134.8011195305
 30
0.0
 10
354.9638683814
 20
135.9426505259
 30
0.0
 10
355.0567814015
 20
136.7094330789
 30
0.0
 10
355.0646005284
 20
137.0823255235
 30
0.0
  0
SPLINE
  5
420
330
21F
100
AcDbEntity
  8
7_ALL_FEATURES
  6
Continuous
 62
     7
100
AcDbSpline
 70
     0
 71
     3
 72
    17
 73
    13
 74
     0
 42
0.000000001
 43
0.0000001
 40
0.0
 40
0.0
 40
0.0
 40
0.0
 40
0.0394937566
 40
0.0809611433
 40
0.1251822295
 40
0.1727107535
 40
0.2787054106
 40
0.3999215217
 40
0.5352975737
 40
0.6825691089
 40
0.8386577676
 40
1.0
 40
1.0
 40
1.0
 40
1.0
 10
308.2941478152
 20
129.8214290526
 30
0.0
 10
308.4047610549
 20
129.4973826563
 30
0.0
 10
308.692893759
 20
128.8526786875
 30
0.0
 10
309.2979124154
 20
127.946436991
 30
0.0
 10
310.0784537424
 20
127.0898298615
 30
0.0
 10
311.3928357642
 20
125.9827097582
 30
0.0
 10
313.4713971248
 20
124.7826581995
 30
0.0
 10
316.4316028092
 20
123.6935746376
 30
0.0
 10
319.8591753613
 20
122.9353464242
 30
0.0
 10
323.648424139
 20
122.5330005131
 30
0.0
 10
327.682749332
 20
122.4994894245
 30
0.0
 10
330.4299125719
 20
122.7226467398
 30
0.0
 10
331.818029761
 20
122.8953077805
 30
0.0
  0
SPLINE
  5
421
330
21F
100
AcDbEntity
  8
7_ALL_FEATURES
  6
Continuous
 62
     7
100
AcDbSpline
 70
     0
 71
     3
 72
    13
 73
     9
 74
     0
 42
0.000000001
 43
0.0000001
 40
0.0
 40
0.0
 40
0.0
 40
0.0
 40
0.1020257707
 40
0.2121622647
 40
0.3299212658
 40
0.4545614206
 40
0.7202908932
 40
1.0
 40
1.0
 40
1.0
 40
1.0
 10
359.9671480739
 20
149.0288498391
 30
0.0
 10
359.0732969915
 20
149.4867993032
 30
0.0
 10
357.1555935549
 20
150.3263351374
 30
0.0
 10
354.0621874603
 20
151.3290943991
 30
0.0
 10
350.6775875983
 20
152.1132456944
 30
0.0
 10
345.7291825027
 20
152.8698572508
 30
0.0
 10
339.1215458938
 20
153.1864100709
 30
0.0
 10
333.7523612775
 20
152.8154842901
 30
0.0
 10
331.0199810442
 20
152.4756170092
 30
0.0
  0
SPLINE
  5
422
330
21F
100
AcDbEntity
  8
7_ALL_FEATURES
  6
Continuous
 62
     7
100
AcDbSpline
 70
     0
 71
     3
 72
    14
 73
    10
 74
     0
 42
0.000000001
 43
0.0000001
 40
0.0
 40
0.0
 40
0.0
 40
0.0
 40
0.2779334085
 40
0.4137967413
 40
0.5452717171
 40
0.6708155783
 40
0.7890913148
 40
0.8990446469
 40
1.0
 40
1.0
 40
1.0
 40
1.0
 10
331.0199810442
 20
152.4756170092
 30
0.0
 10
327.8880776169
 20
152.0860550115
 30
0.0
 10
323.2538735622
 20
151.2127362218
 30
0.0
 10
317.3065456015
 20
149.4787686624
 30
0.0
 10
313.1152834715
 20
147.9384363898
 30
0.0
 10
309.231082254
 20
146.17495521
 30
0.0
 10
305.717337357
 20
144.2168084228
 30
0.0
 10
302.6321537826
 20
142.0960875096
 30
0.0
 10
300.8140805819
 20
140.5262237749
 30
0.0
 10
300.0003207915
 20
139.7187612142
 30
0.0
  0
SPLINE
  5
423
330
21F
100
AcDbEntity
  8
7_ALL_FEATURES
  6
Continuous
 62
     7
100
AcDbSpline
 70
     0
 71
     3
 72
    12
 73
     8
 74
     0
 42
0.000000001
 43
0.0000001
 40
0.0
 40
0.0
 40
0.0
 40
0.0
 40
0.1091753043
 40
0.2201615941
 40
0.4535418189
 40
0.7113993632
 40
1.0
 40
1.0
 40
1.0
 40
1.0
 10
368.6972984193
 20
139.4508474564
 30
0.0
 10
368.6273370794
 20
139.9014725529
 30
0.0
 10
368.4162367902
 20
140.8008724623
 30
0.0
 10
367.7109258721
 20
142.5655764123
 30
0.0
 10
366.274770411
 20
144.6707966143
 30
0.0
 10
363.8362168621
 20
146.864283245
 30
0.0
 10
361.8726697485
 20
148.0525880805
 30
0.0
 10
360.7997997646
 20
148.6022548469
 30
0.0
  0
SPLINE
  5
424
330
21F
100
AcDbEntity
  8
7_ALL_FEATURES
  6
Continuous
 62
     7
100
AcDbSpline
 70
     0
 71
     3
 72
    12
 73
     8
 74
     0
 42
0.000000001
 43
0.0000001
 40
0.0
 40
0.0
 40
0.0
 40
0.0
 40
0.2886006353
 40
0.5464581729
 40
0.7798383946
 40
0.8908246916
 40
1.0
 40
1.0
 40
1.0
 40
1.0
 10
299.3362079524
 20
139.0597875711
 30
0.0
 10
298.4804999349
 20
138.210701397
 30
0.0
 10
296.969676478
 20
136.4829867262
 30
0.0
 10
295.3109773729
 20
133.6533853535
 30
0.0
 10
294.5807280639
 20
131.2118222222
 30
0.0
 10
294.4436759533
 20
129.3163380174
 30
0.0
 10
294.515210533
 20
128.3952699314
 30
0.0
 10
294.5851718756
 20
127.9446448178
 30
0.0
  0
SPLINE
  5
425
330
21F
100
AcDbEntity
  8
7_ALL_FEATURES
  6
Continuous
 62
     7
100
AcDbSpline
 70
     0
 71
     3
 72
    19
 73
    15
 74
     0
 42
0.000000001
 43
0.0000001
 40
0.0
 40
0.0
 40
0.0
 40
0.0
 40
0.1609788048
 40
0.3182160967
 40
0.4670016865
 40
0.6032829862
 40
0.6658212152
 40
0.7242842713
 40
0.7786067334
 40
0.8288975195
 40
0.8754791792
 40
0.9189239346
 40
0.9600738357
 40
1.0
 40
1.0
 40
1.0
 40
1.0
 10
332.5903755733
 20
115.0628594345
 30
0.0
 10
335.0940579124
 20
115.3876901041
 30
0.0
 10
340.0151227122
 20
116.2731838313
 30
0.0
 10
347.0715730783
 20
118.2812884145
 30
0.0
 10
353.5152743662
 20
120.8872779612
 30
0.0
 10
358.2976427096
 20
123.5447649878
 30
0.0
 10
361.5739741892
 20
125.9071677516
 30
0.0
 10
363.6580966991
 20
127.7069930607
 30
0.0
 10
365.419101811
 20
129.5686063234
 30
0.0
 10
366.8388108927
 20
131.4758477736
 30
0.0
 10
367.901024374
 20
133.412409756
 30
0.0
 10
368.5908265364
 20
135.3616903168
 30
0.0
 10
368.8943423059
 20
137.3027862847
 30
0.0
 10
368.8319402259
 20
138.5836116772
 30
0.0
 10
368.7358755685
 20
139.2023697741
 30
0.0
  0
SPLINE
  5
426
330
21F
100
AcDbEntity
  8
7_ALL_FEATURES
  6
Continuous
 62
     7
100
AcDbSpline
 70
     0
 71
     3
 72
    17
 73
    13
 74
     0
 42
0.000000001
 43
0.0000001
 40
0.0
 40
0.0
 40
0.0
 40
0.0
 40
0.040806232
 40
0.0827003757
 40
0.1266465377
 40
0.173431212
 40
0.2773811261
 40
0.39690871
 40
0.5315845218
 40
0.6792786448
 40
0.8367325046
 40
1.0
 40
1.0
 40
1.0
 40
1.0
 10
294.6237490248
 20
127.6961671355
 30
0.0
 10
294.7130560304
 20
127.1209354703
 30
0.0
 10
295.0092239956
 20
125.9699773072
 30
0.0
 10
295.785981207
 20
124.3281901605
 30
0.0
 10
296.8852008263
 20
122.7775158995
 30
0.0
 10
298.828695085
 20
120.7806379041
 30
0.0
 10
302.0610967776
 20
118.6069994313
 30
0.0
 10
306.7973673686
 20
116.632748528
 30
0.0
 10
312.3779238332
 20
115.2418659876
 30
0.0
 10
318.6188012428
 20
114.478197404
 30
0.0
 10
325.3106253273
 20
114.3655642066
 30
0.0
 10
329.8795717061
 20
114.7246058906
 30
0.0
 10
332.1908599418
 20
115.0120956179
 30
0.0
  0
LINE
  5
427
330
21F
100
AcDbEntity
  8
7_ALL_FEATURES
  6
Continuous
 62
     7
100
AcDbLine
 10
355.0459794265
 20
137.5888492698
 30
0.0
 11
355.0441650668
 21
137.595819538
 31
0.0
  0
SPLINE
  5
428
330
21F
100
AcDbEntity
  8
7_ALL_FEATURES
  6
Continuous
 62
     9
100
AcDbSpline
 70
     0
 71
     3
 72
     9
 73
     5
 74
     0
 42
0.000000001
 43
0.0000001
 40
0.0
 40
0.0
 40
0.0
 40
0.0
 40
0.2350661747
 40
1.0
 40
1.0
 40
1.0
 40
1.0
 10
318.1500711043
 20
144.0845296908
 30
0.0
 10
318.1345760155
 20
144.0934148347
 30
0.0
 10
318.0674451276
 20
144.1290928174
 30
0.0
 10
317.9962200352
 20
144.1567566717
 30
0.0
 10
317.9408090521
 20
144.1743086652
 30
0.0
  0
SPLINE
  5
429
330
21F
100
AcDbEntity
  8
7_ALL_FEATURES
  6
Continuous
 62
     9
100
AcDbSpline
 70
     0
 71
     3
 72
    10
 73
     6
 74
     0
 42
0.000000001
 43
0.0000001
 40
0.0
 40
0.0
 40
0.0
 40
0.0
 40
0.2263019687
 40
0.4808511839
 40
1.0
 40
1.0
 40
1.0
 40
1.0
 10
317.9408090521
 20
144.1743086652
 30
0.0
 10
317.8240676018
 20
144.2112877091
 30
0.0
 10
317.5654792627
 20
144.2574317265
 30
0.0
 10
317.0234311374
 20
144.2580171313
 30
0.0
 10
316.6053430568
 20
144.1661063682
 30
0.0
 10
316.3456768604
 20
144.0589022676
 30
0.0
  0
SPLINE
  5
42A
330
21F
100
AcDbEntity
  8
7_ALL_FEATURES
  6
Continuous
 62
     9
100
AcDbSpline
 70
     0
 71
     3
 72
     9
 73
     5
 74
     0
 42
0.000000001
 43
0.0000001
 40
0.0
 40
0.0
 40
0.0
 40
0.0
 40
0.2371161817
 40
1.0
 40
1.0
 40
1.0
 40
1.0
 10
318.263796036
 20
144.1305328203
 30
0.0
 10
318.2534391623
 20
144.1387549508
 30
0.0
 10
318.2086956397
 20
144.1720853459
 30
0.0
 10
318.160168649
 20
144.2001810148
 30
0.0
 10
318.1220479752
 20
144.2190735027
 30
0.0
  0
SPLINE
  5
42B
330
21F
100
AcDbEntity
  8
7_ALL_FEATURES
  6
Continuous
 62
     9
100
AcDbSpline
 70
     0
 71
     3
 72
    11
 73
     7
 74
     0
 42
0.000000001
 43
0.0000001
 40
0.0
 40
0.0
 40
0.0
 40
0.0
 40
0.2131345838
 40
0.4658699936
 40
0.7367180988
 40
1.0
 40
1.0
 40
1.0
 40
1.0
 10
318.1220479752
 20
144.2190735027
 30
0.0
 10
318.0038876645
 20
144.2776333866
 30
0.0
 10
317.7216762021
 20
144.3562182849
 30
0.0
 10
317.2644613469
 20
144.381209523
 30
0.0
 10
316.7787643655
 20
144.3229711008
 30
0.0
 10
316.4597699702
 20
144.2285430657
 30
0.0
 10
316.3091943091
 20
144.1663773761
 30
0.0
  0
SPLINE
  5
42C
330
21F
100
AcDbEntity
  8
7_ALL_FEATURES
  6
Continuous
 62
     9
100
AcDbSpline
 70
     0
 71
     3
 72
    11
 73
     7
 74
     0
 42
0.000000001
 43
0.0000001
 40
0.0
 40
0.0
 40
0.0
 40
0.0
 40
0.2666625454
 40
0.5255722131
 40
0.7715307592
 40
1.0
 40
1.0
 40
1.0
 40
1.0
 10
332.120952507
 20
115.449043822
 30
0.0
 10
330.0673494455
 20
115.1936062807
 30
0.0
 10
325.9974828789
 20
114.8531660603
 30
0.0
 10
320.0026036078
 20
114.8564852957
 30
0.0
 10
314.3272930956
 20
115.3764842298
 30
0.0
 10
310.7054794239
 20
116.0884814706
 30
0.0
 10
308.9910317467
 20
116.5404826719
 30
0.0
  0
SPLINE
  5
42D
330
21F
100
AcDbEntity
  8
7_ALL_FEATURES
  6
Continuous
 62
     9
100
AcDbSpline
 70
     0
 71
     3
 72
     9
 73
     5
 74
     0
 42
0.000000001
 43
0.0000001
 40
0.0
 40
0.0
 40
0.0
 40
0.0
 40
0.520714507
 40
1.0
 40
1.0
 40
1.0
 40
1.0
 10
308.9910317467
 20
116.5404826719
 30
0.0
 10
307.8186895747
 20
116.8495618447
 30
0.0
 10
305.5916358632
 20
117.5421040452
 30
0.0
 10
303.448237467
 20
118.4671715885
 30
0.0
 10
302.4550305831
 20
118.9759567835
 30
0.0
  0
SPLINE
  5
42E
330
21F
100
AcDbEntity
  8
7_ALL_FEATURES
  6
Continuous
 62
     9
100
AcDbSpline
 70
     0
 71
     3
 72
    11
 73
     7
 74
     0
 42
0.000000001
 43
0.0000001
 40
0.0
 40
0.0
 40
0.0
 40
0.0
 40
0.2891058226
 40
0.5476809983
 40
0.7813534033
 40
1.0
 40
1.0
 40
1.0
 40
1.0
 10
302.4550305831
 20
118.9759567835
 30
0.0
 10
301.4181812922
 20
119.5070984592
 30
0.0
 10
299.5179843859
 20
120.6511001344
 30
0.0
 10
297.142401702
 20
122.7499008995
 30
0.0
 10
295.4618560637
 20
125.1054898127
 30
0.0
 10
294.8391909629
 20
126.8505220969
 30
0.0
 10
294.6715125494
 20
127.7154733322
 30
0.0
  0
LINE
  5
42F
330
21F
100
AcDbEntity
  8
7_ALL_FEATURES
  6
Continuous
 62
     9
100
AcDbLine
 10
294.6323262238
 20
127.9319346158
 30
0.0
 11
294.630037543
 21
127.9456025578
 31
0.0
  0
SPLINE
  5
430
330
21F
100
AcDbEntity
  8
7_ALL_FEATURES
  6
Continuous
 62
     9
100
AcDbSpline
 70
     0
 71
     3
 72
     9
 73
     5
 74
     0
 42
0.000000001
 43
0.0000001
 40
0.0
 40
0.0
 40
0.0
 40
0.0
 40
0.2482858352
 40
1.0
 40
1.0
 40
1.0
 40
1.0
 10
294.630037543
 20
127.9456025578
 30
0.0
 10
294.5965966778
 20
128.1462734371
 30
0.0
 10
294.489624887
 20
128.9589505112
 30
0.0
 10
294.4962145993
 20
129.7859582079
 30
0.0
 10
294.5609689352
 20
130.3984775566
 30
0.0
  0
SPLINE
  5
431
330
21F
100
AcDbEntity
  8
7_ALL_FEATURES
  6
Continuous
 62
     9
100
AcDbSpline
 70
     0
 71
     3
 72
     9
 73
     5
 74
     0
 42
0.000000001
 43
0.0000001
 40
0.0
 40
0.0
 40
0.0
 40
0.0
 40
0.2445251556
 40
1.0
 40
1.0
 40
1.0
 40
1.0
 10
294.5873082408
 20
130.6224797701
 30
0.0
 10
294.6104207786
 20
130.8010593428
 30
0.0
 10
294.7251878791
 20
131.5286822363
 30
0.0
 10
294.9196490608
 20
132.243122718
 30
0.0
 10
295.1036389116
 20
132.7681513552
 30
0.0
  0
SPLINE
  5
432
330
21F
100
AcDbEntity
  8
7_ALL_FEATURES
  6
Continuous
 62
     9
100
AcDbSpline
 70
     0
 71
     3
 72
     9
 73
     5
 74
     0
 42
0.000000001
 43
0.0000001
 40
0.0
 40
0.0
 40
0.0
 40
0.0
 40
0.2441273241
 40
1.0
 40
1.0
 40
1.0
 40
1.0
 10
295.4072080132
 20
133.5467596753
 30
0.0
 10
295.4660444438
 20
133.6838229078
 30
0.0
 10
295.7168827598
 20
134.2410184361
 30
0.0
 10
296.0058301366
 20
134.780849829
 30
0.0
 10
296.2417580477
 20
135.1778651694
 30
0.0
  0
SPLINE
  5
433
330
21F
100
AcDbEntity
  8
7_ALL_FEATURES
  6
Continuous
 62
     9
100
AcDbSpline
 70
     0
 71
     3
 72
     9
 73
     5
 74
     0
 42
0.000000001
 43
0.0000001
 40
0.0
 40
0.0
 40
0.0
 40
0.0
 40
0.2442375641
 40
1.0
 40
1.0
 40
1.0
 40
1.0
 10
296.8411373475
 20
136.1114583111
 30
0.0
 10
296.9275821792
 20
136.2367408709
 30
0.0
 10
297.2882578971
 20
136.7450278788
 30
0.0
 10
297.6749517235
 20
137.2347249767
 30
0.0
 10
297.9791307819
 20
137.594330776
 30
0.0
  0
SPLINE
  5
434
330
21F
100
AcDbEntity
  8
7_ALL_FEATURES
  6
Continuous
 62
     9
100
AcDbSpline
 70
     0
 71
     3
 72
     9
 73
     5
 74
     0
 42
0.000000001
 43
0.0000001
 40
0.0
 40
0.0
 40
0.0
 40
0.0
 40
0.2443278139
 40
1.0
 40
1.0
 40
1.0
 40
1.0
 10
297.9791307819
 20
137.594330776
 30
0.0
 10
298.084202439
 20
137.7185483256
 30
0.0
 10
298.5201698237
 20
138.2219272944
 30
0.0
 10
298.9790356589
 20
138.7053587616
 30
0.0
 10
299.336233562
 20
139.0597832934
 30
0.0
  0
SPLINE
  5
435
330
21F
100
AcDbEntity
  8
7_ALL_FEATURES
  6
Continuous
 62
     9
100
AcDbSpline
 70
     0
 71
     3
 72
    22
 73
    18
 74
     0
 42
0.000000001
 43
0.0000001
 40
0.0
 40
0.0
 40
0.0
 40
0.0
 40
0.1752892852
 40
0.2594751266
 40
0.3400099686
 40
0.4160425228
 40
0.4868872016
 40
0.5520751223
 40
0.6114273333
 40
0.6651490585
 40
0.7139447157
 40
0.7591177639
 40
0.802557317
 40
0.8464914576
 40
0.8930471025
 40
0.9438720897
 40
1.0
 40
1.0
 40
1.0
 40
1.0
 10
331.9866895708
 20
116.6829875038
 30
0.0
 10
328.9416383542
 20
116.3042286237
 30
0.0
 10
324.3917653237
 20
116.0168158692
 30
0.0
 10
318.4404939988
 20
116.242429678
 30
0.0
 10
314.2473004641
 20
116.7059939081
 30
0.0
 10
310.3333031263
 20
117.4583071633
 30
0.0
 10
306.760445991
 20
118.4875856647
 30
0.0
 10
303.5849401997
 20
119.7782783327
 30
0.0
 10
300.8560372228
 20
121.3122504063
 30
0.0
 10
298.6165369777
 20
123.0703082011
 30
0.0
 10
296.9054414012
 20
125.0330297285
 30
0.0
 10
295.7627573202
 20
127.1770284775
 30
0.0
 10
295.2274227202
 20
129.4631757741
 30
0.0
 10
295.3180927574
 20
131.8325155506
 30
0.0
 10
296.0215107897
 20
134.2268972662
 30
0.0
 10
297.3076044825
 20
136.6042620891
 30
0.0
 10
298.4729661312
 20
138.0807593434
 30
0.0
 10
299.1317737998
 20
138.8097073231
 30
0.0
  0
SPLINE
  5
436
330
21F
100
AcDbEntity
  8
7_ALL_FEATURES
  6
Continuous
 62
     9
100
AcDbSpline
 70
     0
 71
     3
 72
    17
 73
    13
 74
     0
 42
0.000000001
 43
0.0000001
 40
0.0
 40
0.0
 40
0.0
 40
0.0
 40
0.1636972142
 40
0.3215479867
 40
0.4695754958
 40
0.6044791354
 40
0.7240681155
 40
0.8278324818
 40
0.8744075138
 40
0.9180626757
 40
0.9595934458
 40
1.0
 40
1.0
 40
1.0
 40
1.0
 10
332.1743229048
 20
115.0875014701
 30
0.0
 10
329.8601914887
 20
114.7996580936
 30
0.0
 10
325.285899642
 20
114.4400265206
 30
0.0
 10
318.58688677
 20
114.5519999524
 30
0.0
 10
312.3410255781
 20
115.3149568264
 30
0.0
 10
306.759207109
 20
116.704202465
 30
0.0
 10
302.0272863325
 20
118.6739168946
 30
0.0
 10
298.8018618713
 20
120.8395143194
 30
0.0
 10
296.86662824
 20
122.8253229409
 30
0.0
 10
295.7752364438
 20
124.363137679
 30
0.0
 10
295.0052306164
 20
125.988631773
 30
0.0
 10
294.712048903
 20
127.1273646364
 30
0.0
 10
294.6237500268
 20
127.6961672911
 30
0.0
  0
SPLINE
  5
437
330
21F
100
AcDbEntity
  8
7_ALL_FEATURES
  6
Continuous
 62
     9
100
AcDbSpline
 70
     0
 71
     3
 72
    11
 73
     7
 74
     0
 42
0.000000001
 43
0.0000001
 40
0.0
 40
0.0
 40
0.0
 40
0.0
 40
0.266680446
 40
0.5255997702
 40
0.7715537778
 40
1.0
 40
1.0
 40
1.0
 40
1.0
 10
332.1357457556
 20
115.3359791523
 30
0.0
 10
330.0785509031
 20
115.0800948459
 30
0.0
 10
326.0016119075
 20
114.7391571577
 30
0.0
 10
319.9964619014
 20
114.7429248584
 30
0.0
 10
314.3118051788
 20
115.2645598597
 30
0.0
 10
310.6842508567
 20
115.978514549
 30
0.0
 10
308.9672232164
 20
116.4317243697
 30
0.0
  0
SPLINE
  5
438
330
21F
100
AcDbEntity
  8
7_ALL_FEATURES
  6
Continuous
 62
     9
100
AcDbSpline
 70
     0
 71
     3
 72
     9
 73
     5
 74
     0
 42
0.000000001
 43
0.0000001
 40
0.0
 40
0.0
 40
0.0
 40
0.0
 40
0.5207888581
 40
1.0
 40
1.0
 40
1.0
 40
1.0
 10
308.9672232164
 20
116.4317243697
 30
0.0
 10
307.7907012736
 20
116.7422675935
 30
0.0
 10
305.5561251317
 20
117.4381820594
 30
0.0
 10
303.4059435311
 20
118.3682707557
 30
0.0
 10
302.4099893759
 20
118.8798727417
 30
0.0
  0
SPLINE
  5
439
330
21F
100
AcDbEntity
  8
7_ALL_FEATURES
  6
Continuous
 62
     9
100
AcDbSpline
 70
     0
 71
     3
 72
    11
 73
     7
 74
     0
 42
0.000000001
 43
0.0000001
 40
0.0
 40
0.0
 40
0.0
 40
0.0
 40
0.289214646
 40
0.547709696
 40
0.7812660112
 40
1.0
 40
1.0
 40
1.0
 40
1.0
 10
302.4099893759
 20
118.8798727417
 30
0.0
 10
301.3671844964
 20
119.4155410198
 30
0.0
 10
299.4573037211
 20
120.5696083483
 30
0.0
 10
297.0746130894
 20
122.6889169675
 30
0.0
 10
295.397752965
 20
125.0684771971
 30
0.0
 10
294.7866148119
 20
126.8296862493
 30
0.0
 10
294.6263432685
 20
127.7017255303
 30
0.0
  0
SPLINE
  5
43A
330
21F
100
AcDbEntity
  8
7_ALL_FEATURES
  6
Continuous
 62
     9
100
AcDbSpline
 70
     0
 71
     3
 72
    13
 73
     9
 74
     0
 42
0.000000001
 43
0.0000001
 40
0.0
 40
0.0
 40
0.0
 40
0.0
 40
0.3251806706
 40
0.4650765573
 40
0.5894049801
 40
0.7993894956
 40
0.8975962013
 40
1.0
 40
1.0
 40
1.0
 40
1.0
 10
318.8537224998
 20
121.9263362301
 30
0.0
 10
319.0876650744
 20
121.8889792708
 30
0.0
 10
319.4205177405
 20
121.8068209853
 30
0.0
 10
319.8080214219
 20
121.6172172444
 30
0.0
 10
320.0889865146
 20
121.4155933532
 30
0.0
 10
320.2843254259
 20
121.1445621727
 30
0.0
 10
320.3224156604
 20
120.8426122967
 30
0.0
 10
320.2946718224
 20
120.6966686698
 30
0.0
 10
320.2714432202
 20
120.6257719415
 30
0.0
  0
SPLINE
  5
43B
330
21F
100
AcDbEntity
  8
7_ALL_FEATURES
  6
Continuous
 62
     9
100
AcDbSpline
 70
     0
 71
     3
 72
    13
 73
     9
 74
     0
 42
0.000000001
 43
0.0000001
 40
0.0
 40
0.0
 40
0.0
 40
0.0
 40
0.0839792315
 40
0.1847266574
 40
0.30262714
 40
0.4348553162
 40
0.7218935242
 40
1.0
 40
1.0
 40
1.0
 40
1.0
 10
320.2714432202
 20
120.6257719415
 30
0.0
 10
320.2309744222
 20
120.5022558835
 30
0.0
 10
320.0817453833
 20
120.2503576745
 30
0.0
 10
319.7377714746
 20
119.9274284361
 30
0.0
 10
319.2752823514
 20
119.6375570155
 30
0.0
 10
318.5101113557
 20
119.3063839823
 30
0.0
 10
317.4475852768
 20
119.0685182429
 30
0.0
 10
316.5626879677
 20
119.0629542114
 30
0.0
 10
316.1365701892
 20
119.1237444823
 30
0.0
  0
SPLINE
  5
43C
330
21F
100
AcDbEntity
  8
7_ALL_FEATURES
  6
Continuous
 62
     9
100
AcDbSpline
 70
     0
 71
     3
 72
    12
 73
     8
 74
     0
 42
0.000000001
 43
0.0000001
 40
0.0
 40
0.0
 40
0.0
 40
0.0
 40
0.2880079901
 40
0.5752057551
 40
0.7053056409
 40
0.8206243413
 40
1.0
 40
1.0
 40
1.0
 40
1.0
 10
318.2090996231
 20
144.0633153892
 30
0.0
 10
317.8191541269
 20
143.9073985274
 30
0.0
 10
316.9990910551
 20
143.6958857859
 30
0.0
 10
315.9638840283
 20
143.6452252968
 30
0.0
 10
315.1907196886
 20
143.7559282757
 30
0.0
 10
314.6010877368
 20
143.9336964458
 30
0.0
 10
314.2100663651
 20
144.1813627634
 30
0.0
 10
314.0684426265
 20
144.4012613839
 30
0.0
  0
SPLINE
  5
43D
330
21F
100
AcDbEntity
  8
7_ALL_FEATURES
  6
Continuous
 62
     9
100
AcDbSpline
 70
     0
 71
     3
 72
    13
 73
     9
 74
     0
 42
0.000000001
 43
0.0000001
 40
0.0
 40
0.0
 40
0.0
 40
0.0
 40
0.0964236294
 40
0.1905105138
 40
0.3998370775
 40
0.5266914267
 40
0.6698147695
 40
1.0
 40
1.0
 40
1.0
 40
1.0
 10
314.0684426265
 20
144.4012613839
 30
0.0
 10
314.0256156698
 20
144.4677586307
 30
0.0
 10
313.9593816945
 20
144.6128739692
 30
0.0
 10
313.9328648735
 20
144.9464614472
 30
0.0
 10
314.0921019372
 20
145.2852269148
 30
0.0
 10
314.3567294163
 20
145.5756067103
 30
0.0
 10
314.7431110174
 20
145.8842697202
 30
0.0
 10
315.0921837442
 20
146.0633452798
 30
0.0
 10
315.3425337383
 20
146.1667031536
 30
0.0
  0
SPLINE
  5
43E
330
21F
100
AcDbEntity
  8
7_ALL_FEATURES
  6
Continuous
 62
     9
100
AcDbSpline
 70
     0
 71
     3
 72
    17
 73
    13
 74
     0
 42
0.000000001
 43
0.0000001
 40
0.0
 40
0.0
 40
0.0
 40
0.0
 40
0.1535251025
 40
0.3131098454
 40
0.4692235773
 40
0.612775736
 40
0.7366604971
 40
0.7901664826
 40
0.8381186676
 40
0.9206343183
 40
0.9596091934
 40
1.0
 40
1.0
 40
1.0
 40
1.0
 10
315.3425337383
 20
146.1667031536
 30
0.0
 10
315.5818412237
 20
146.2655020889
 30
0.0
 10
316.0870267082
 20
146.4268884757
 30
0.0
 10
316.8687215102
 20
146.5628363464
 30
0.0
 10
317.6453687845
 20
146.5919486383
 30
0.0
 10
318.3578453989
 20
146.5119790503
 30
0.0
 10
318.8806064511
 20
146.3527373731
 30
0.0
 10
319.2143405567
 20
146.1673268375
 30
0.0
 10
319.4574440548
 20
145.9737440955
 30
0.0
 10
319.6232920907
 20
145.7227980153
 30
0.0
 10
319.6584590941
 20
145.4481593766
 30
0.0
 10
319.6367586569
 20
145.3141525682
 30
0.0
 10
319.6177768803
 20
145.2487370516
 30
0.0
  0
SPLINE
  5
43F
330
21F
100
AcDbEntity
  8
7_ALL_FEATURES
  6
Continuous
 62
     9
100
AcDbSpline
 70
     0
 71
     3
 72
    10
 73
     6
 74
     0
 42
0.000000001
 43
0.0000001
 40
0.0
 40
0.0
 40
0.0
 40
0.0
 40
0.4235902088
 40
0.694729224
 40
1.0
 40
1.0
 40
1.0
 40
1.0
 10
319.6177768803
 20
145.2487370516
 30
0.0
 10
319.5456023748
 20
145.0000073006
 30
0.0
 10
319.2504848504
 20
144.6524304553
 30
0.0
 10
318.7488177599
 20
144.3091270354
 30
0.0
 10
318.429537789
 20
144.1540103642
 30
0.0
 10
318.2570153094
 20
144.082783853
 30
0.0
  0
SPLINE
  5
440
330
21F
100
AcDbEntity
  8
7_ALL_FEATURES
  6
Continuous
 62
     9
100
AcDbSpline
 70
     0
 71
     3
 72
     9
 73
     5
 74
     0
 42
0.000000001
 43
0.0000001
 40
0.0
 40
0.0
 40
0.0
 40
0.0
 40
0.2247635758
 40
1.0
 40
1.0
 40
1.0
 40
1.0
 10
318.8067987717
 20
119.4930437978
 30
0.0
 10
318.7767907243
 20
119.5099577482
 30
0.0
 10
318.6386602175
 20
119.5770144172
 30
0.0
 10
318.4878510893
 20
119.6149222765
 30
0.0
 10
318.3705272413
 20
119.6336570545
 30
0.0
  0
SPLINE
  5
441
330
21F
100
AcDbEntity
  8
7_ALL_FEATURES
  6
Continuous
 62
     9
100
AcDbSpline
 70
     0
 71
     3
 72
    15
 73
    11
 74
     0
 42
0.000000001
 43
0.0000001
 40
0.0
 40
0.0
 40
0.0
 40
0.0
 40
0.0764828395
 40
0.1674945197
 40
0.2791181473
 40
0.4102475134
 40
0.5556598353
 40
0.7079424294
 40
0.8587639482
 40
1.0
 40
1.0
 40
1.0
 40
1.0
 10
314.9017405338
 20
119.9115203124
 30
0.0
 10
314.8836439525
 20
120.0278783233
 30
0.0
 10
314.9234832786
 20
120.2967605636
 30
0.0
 10
315.1751119247
 20
120.6562165507
 30
0.0
 10
315.5779980409
 20
120.9819801976
 30
0.0
 10
316.1103067739
 20
121.2602600821
 30
0.0
 10
316.7371649512
 20
121.4742018629
 30
0.0
 10
317.416477995
 20
121.608964389
 30
0.0
 10
318.1008222192
 20
121.6552024873
 30
0.0
 10
318.5514848651
 20
121.623416224
 30
0.0
 10
318.7662184944
 20
121.5891266322
 30
0.0
  0
SPLINE
  5
442
330
21F
100
AcDbEntity
  8
7_ALL_FEATURES
  6
Continuous
 62
     9
100
AcDbSpline
 70
     0
 71
     3
 72
    18
 73
    14
 74
     0
 42
0.000000001
 43
0.0000001
 40
0.0
 40
0.0
 40
0.0
 40
0.0
 40
0.1967011676
 40
0.2663111359
 40
0.3418755958
 40
0.4215202125
 40
0.503083958
 40
0.6626411391
 40
0.8035588869
 40
0.8632562072
 40
0.914952602
 40
0.9596208832
 40
1.0
 40
1.0
 40
1.0
 40
1.0
 10
357.6671846308
 20
137.6495270421
 30
0.0
 10
357.6562856021
 20
138.0542208844
 30
0.0
 10
358.1534848488
 20
138.5303698006
 30
0.0
 10
358.7582961003
 20
138.853987782
 30
0.0
 10
359.1913840149
 20
139.0289398845
 30
0.0
 10
359.6596889148
 20
139.1630766684
 30
0.0
 10
360.3096968779
 20
139.2850220061
 30
0.0
 10
361.0990685106
 20
139.3239837311
 30
0.0
 10
361.8406963245
 20
139.2118226251
 30
0.0
 10
362.3249577714
 20
139.0176869782
 30
0.0
 10
362.5961634092
 20
138.8404712124
 30
0.0
 10
362.785775194
 20
138.6265221757
 30
0.0
 10
362.8493645976
 20
138.4578901115
 30
0.0
 10
362.8621664326
 20
138.3757757454
 30
0.0
  0
SPLINE
  5
443
330
21F
100
AcDbEntity
  8
7_ALL_FEATURES
  6
Continuous
 62
     9
100
AcDbSpline
 70
     0
 71
     3
 72
    13
 73
     9
 74
     0
 42
0.000000001
 43
0.0000001
 40
0.0
 40
0.0
 40
0.0
 40
0.0
 40
0.0987271869
 40
0.2184378529
 40
0.4992906925
 40
0.7805744733
 40
0.9007568188
 40
1.0
 40
1.0
 40
1.0
 40
1.0
 10
361.7012852208
 20
137.1926787471
 30
0.0
 10
361.6301679707
 20
137.2497376272
 30
0.0
 10
361.4470009032
 20
137.3432314133
 30
0.0
 10
360.9961016586
 20
137.4499603805
 30
0.0
 10
360.3569390779
 20
137.4316823476
 30
0.0
 10
359.7414521681
 20
137.257136047
 30
0.0
 10
359.3419057808
 20
137.0199374188
 30
0.0
 10
359.1941091886
 20
136.8757319452
 30
0.0
 10
359.1426586821
 20
136.7998811
 30
0.0
  0
SPLINE
  5
444
330
21F
100
AcDbEntity
  8
3_ALL_AXES
  6
Continuous
 62
     7
100
AcDbSpline
 70
     0
 71
     3
 72
     9
 73
     5
 74
     0
 42
0.000000001
 43
0.0000001
 40
0.0
 40
0.0
 40
0.0
 40
0.0
 40
0.2377709351
 40
1.0
 40
1.0
 40
1.0
 40
1.0
 10
357.70146389
 20
137.4864670804
 30
0.0
 10
357.7029568049
 20
137.5131876327
 30
0.0
 10
357.7161396099
 20
137.6251842372
 30
0.0
 10
357.7562545213
 20
137.7330843431
 30
0.0
 10
357.7962972262
 20
137.8089587307
 30
0.0
  0
SPLINE
  5
445
330
21F
100
AcDbEntity
  8
3_ALL_AXES
  6
Continuous
 62
     7
100
AcDbSpline
 70
     0
 71
     3
 72
    15
 73
    11
 74
     0
 42
0.000000001
 43
0.0000001
 40
0.0
 40
0.0
 40
0.0
 40
0.0
 40
0.0980606611
 40
0.2205890504
 40
0.3623615234
 40
0.5135138803
 40
0.6623751054
 40
0.7976954049
 40
0.9109996279
 40
1.0
 40
1.0
 40
1.0
 40
1.0
 10
357.7962972262
 20
137.8089587307
 30
0.0
 10
357.8807449656
 20
137.9689734085
 30
0.0
 10
358.1638675427
 20
138.2774161545
 30
0.0
 10
358.7369184392
 20
138.6290347731
 30
0.0
 10
359.4584294612
 20
138.9003117295
 30
0.0
 10
360.2603258078
 20
139.062859213
 30
0.0
 10
361.0658288531
 20
139.1022535538
 30
0.0
 10
361.7985761253
 20
139.0133008396
 30
0.0
 10
362.3919580035
 20
138.8081642399
 30
0.0
 10
362.6963465884
 20
138.5662420423
 30
0.0
 10
362.7877565405
 20
138.4298217001
 30
0.0
  0
SPLINE
  5
446
330
21F
100
AcDbEntity
  8
3_ALL_AXES
  6
Continuous
 62
     7
100
AcDbSpline
 70
     0
 71
     3
 72
     9
 73
     5
 74
     0
 42
0.000000001
 43
0.0000001
 40
0.0
 40
0.0
 40
0.0
 40
0.0
 40
0.2563945769
 40
1.0
 40
1.0
 40
1.0
 40
1.0
 10
362.7877565405
 20
138.4298217001
 30
0.0
 10
362.7963209768
 20
138.4170401232
 30
0.0
 10
362.8282247289
 20
138.366208368
 30
0.0
 10
362.8538201465
 20
138.3113550567
 30
0.0
 10
362.8684062595
 20
138.269184291
 30
0.0
  0
SPLINE
  5
447
330
21F
100
AcDbEntity
  8
7_ALL_FEATURES
  6
Continuous
 62
     9
100
AcDbSpline
 70
     0
 71
     3
 72
    15
 73
    11
 74
     0
 42
0.000000001
 43
0.0000001
 40
0.0
 40
0.0
 40
0.0
 40
0.0
 40
0.1472349955
 40
0.3005531161
 40
0.4524823474
 40
0.5957348772
 40
0.7240518403
 40
0.833325956
 40
0.9232731107
 40
1.0
 40
1.0
 40
1.0
 40
1.0
 10
315.5027527963
 20
145.8603066039
 30
0.0
 10
315.6990502917
 20
145.9413487141
 30
0.0
 10
316.1124082162
 20
146.077084905
 30
0.0
 10
316.7544923025
 20
146.2020966977
 30
0.0
 10
317.401473354
 20
146.2480689137
 30
0.0
 10
318.013180714
 20
146.212221669
 30
0.0
 10
318.5530680765
 20
146.0969618858
 30
0.0
 10
318.9902666661
 20
145.9077024178
 30
0.0
 10
319.3038423371
 20
145.6496299931
 30
0.0
 10
319.4101713366
 20
145.4210204243
 30
0.0
 10
319.4271832164
 20
145.3116664053
 30
0.0
  0
SPLINE
  5
448
330
21F
100
AcDbEntity
  8
7_ALL_FEATURES
  6
Continuous
 62
     9
100
AcDbSpline
 70
     0
 71
     3
 72
     9
 73
     5
 74
     0
 42
0.000000001
 43
0.0000001
 40
0.0
 40
0.0
 40
0.0
 40
0.0
 40
0.5531840873
 40
1.0
 40
1.0
 40
1.0
 40
1.0
 10
316.3091943091
 20
144.1663773761
 30
0.0
 10
316.1822063818
 20
144.113949965
 30
0.0
 10
315.960294453
 20
143.9993816161
 30
0.0
 10
315.7713095564
 20
143.8290143539
 30
0.0
 10
315.7087698769
 20
143.7373482853
 30
0.0
  0
SPLINE
  5
449
330
21F
100
AcDbEntity
  8
7_ALL_FEATURES
  6
Continuous
 62
     9
100
AcDbSpline
 70
     0
 71
     3
 72
     9
 73
     5
 74
     0
 42
0.000000001
 43
0.0000001
 40
0.0
 40
0.0
 40
0.0
 40
0.0
 40
0.5397976731
 40
1.0
 40
1.0
 40
1.0
 40
1.0
 10
316.3456768604
 20
144.0589022676
 30
0.0
 10
316.2441306815
 20
144.0169785717
 30
0.0
 10
316.0613070233
 20
143.9255270672
 30
0.0
 10
315.8986632978
 20
143.7991546818
 30
0.0
 10
315.8346311371
 20
143.7308011062
 30
0.0
  0
SPLINE
  5
44A
330
21F
100
AcDbEntity
  8
7_ALL_FEATURES
  6
Continuous
 62
     9
100
AcDbSpline
 70
     0
 71
     3
 72
    11
 73
     7
 74
     0
 42
0.000000001
 43
0.0000001
 40
0.0
 40
0.0
 40
0.0
 40
0.0
 40
0.316101925
 40
0.5855341328
 40
0.8084294527
 40
1.0
 40
1.0
 40
1.0
 40
1.0
 10
318.7662184944
 20
121.5891266322
 30
0.0
 10
318.9408050017
 20
121.561247906
 30
0.0
 10
319.2615804147
 20
121.4863665754
 30
0.0
 10
319.6764194024
 20
121.2972466234
 30
0.0
 10
319.9729186532
 20
121.0436927133
 30
0.0
 10
320.0730944205
 20
120.822824222
 30
0.0
 10
320.0895605092
 20
120.7169500414
 30
0.0
  0
SPLINE
  5
44B
330
21F
100
AcDbEntity
  8
3_ALL_AXES
  6
Continuous
 62
     7
100
AcDbSpline
 70
     0
 71
     3
 72
    10
 73
     6
 74
     0
 42
0.000000001
 43
0.0000001
 40
0.0
 40
0.0
 40
0.0
 40
0.0
 40
0.3067124153
 40
0.576579351
 40
1.0
 40
1.0
 40
1.0
 40
1.0
 10
318.7997209624
 20
121.3733352695
 30
0.0
 10
318.9485938392
 20
121.3495626065
 30
0.0
 10
319.2271344475
 20
121.2867677837
 30
0.0
 10
319.6819073728
 20
121.1070139307
 30
0.0
 10
319.9691497937
 20
120.8764889367
 30
0.0
 10
320.062185694
 20
120.6903162587
 30
0.0
  0
SPLINE
  5
44C
330
21F
100
AcDbEntity
  8
7_ALL_FEATURES
  6
Continuous
 62
     9
100
AcDbSpline
 70
     0
 71
     3
 72
    11
 73
     7
 74
     0
 42
0.000000001
 43
0.0000001
 40
0.0
 40
0.0
 40
0.0
 40
0.0
 40
0.265423976
 40
0.5447242895
 40
0.7994480177
 40
1.0
 40
1.0
 40
1.0
 40
1.0
 10
318.3775785332
 20
119.7465471227
 30
0.0
 10
318.1878777749
 20
119.7768393585
 30
0.0
 10
317.7895477457
 20
119.7844539629
 30
0.0
 10
317.2165571126
 20
119.67864288
 30
0.0
 10
316.7223292356
 20
119.4759856037
 30
0.0
 10
316.4548915059
 20
119.2643715538
 30
0.0
 10
316.3725992167
 20
119.1448009484
 30
0.0
  0
SPLINE
  5
44D
330
21F
100
AcDbEntity
  8
3_ALL_AXES
  6
Continuous
 62
     7
100
AcDbSpline
 70
     0
 71
     3
 72
    14
 73
    10
 74
     0
 42
0.000000001
 43
0.0000001
 40
0.0
 40
0.0
 40
0.0
 40
0.0
 40
0.1367731648
 40
0.2827470258
 40
0.4310895609
 40
0.5748669719
 40
0.7075627229
 40
0.8240682158
 40
1.0
 40
1.0
 40
1.0
 40
1.0
 10
318.7997209624
 20
121.3733352695
 30
0.0
 10
318.6012910255
 20
121.4050214176
 30
0.0
 10
318.1854057005
 20
121.4369935763
 30
0.0
 10
317.5515188355
 20
121.4036659492
 30
0.0
 10
316.9157533469
 20
121.2926362915
 30
0.0
 10
316.3173541931
 20
121.11178621
 30
0.0
 10
315.7888520906
 20
120.8685257289
 30
0.0
 10
315.274819245
 20
120.5239008019
 30
0.0
 10
314.9779905045
 20
120.1536804843
 30
0.0
 10
314.9365483368
 20
119.8985495775
 30
0.0
  0
SPLINE
  5
44E
330
21F
100
AcDbEntity
  8
7_ALL_FEATURES
  6
Continuous
 62
     9
100
AcDbSpline
 70
     0
 71
     3
 72
    11
 73
     7
 74
     0
 42
0.000000001
 43
0.0000001
 40
0.0
 40
0.0
 40
0.0
 40
0.0
 40
0.258717101
 40
0.5325235582
 40
0.7887859039
 40
1.0
 40
1.0
 40
1.0
 40
1.0
 10
318.3705272413
 20
119.6336570545
 30
0.0
 10
318.2003776379
 20
119.6608272776
 30
0.0
 10
317.8425469398
 20
119.6710586254
 30
0.0
 10
317.32104639
 20
119.5861496328
 30
0.0
 10
316.8553328345
 20
119.4151481477
 30
0.0
 10
316.591331431
 20
119.2373724893
 30
0.0
 10
316.4954649519
 20
119.1344297956
 30
0.0
  0
SPLINE
  5
44F
330
21F
100
AcDbEntity
  8
7_ALL_FEATURES
  6
Continuous
 62
     9
100
AcDbSpline
 70
     0
 71
     3
 72
    11
 73
     7
 74
     0
 42
0.000000001
 43
0.0000001
 40
0.0
 40
0.0
 40
0.0
 40
0.0
 40
0.2680852309
 40
0.52776034
 40
0.7733566613
 40
1.0
 40
1.0
 40
1.0
 40
1.0
 10
331.2192113857
 20
146.0278695408
 30
0.0
 10
332.5796310048
 20
146.1970854176
 30
0.0
 10
335.2733171498
 20
146.4175821003
 30
0.0
 10
339.2333680979
 20
146.3926258175
 30
0.0
 10
342.9625491346
 20
146.0108926108
 30
0.0
 10
345.3305790043
 20
145.5025761401
 30
0.0
 10
346.4442497181
 20
145.1816745283
 30
0.0
  0
SPLINE
  5
450
330
21F
100
AcDbEntity
  8
7_ALL_FEATURES
  6
Continuous
 62
     9
100
AcDbSpline
 70
     0
 71
     3
 72
     9
 73
     5
 74
     0
 42
0.000000001
 43
0.0000001
 40
0.0
 40
0.0
 40
0.0
 40
0.0
 40
0.2625037015
 40
1.0
 40
1.0
 40
1.0
 40
1.0
 10
346.4442497181
 20
145.1816745283
 30
0.0
 10
346.7403541372
 20
145.0963527324
 30
0.0
 10
347.8620160716
 20
144.7503290641
 30
0.0
 10
348.9581901511
 20
144.3171367895
 30
0.0
 10
349.7365011136
 20
143.9380005746
 30
0.0
  0
SPLINE
  5
451
330
21F
100
AcDbEntity
  8
7_ALL_FEATURES
  6
Continuous
 62
     9
100
AcDbSpline
 70
     0
 71
     3
 72
    11
 73
     7
 74
     0
 42
0.000000001
 43
0.0000001
 40
0.0
 40
0.0
 40
0.0
 40
0.0
 40
0.2897978216
 40
0.5481326092
 40
0.7812365963
 40
1.0
 40
1.0
 40
1.0
 40
1.0
 10
350.0403531652
 20
143.7860638764
 30
0.0
 10
350.7160253247
 20
143.4392588691
 30
0.0
 10
351.95128842
 20
142.6910369936
 30
0.0
 10
353.4836496029
 20
141.3105350782
 30
0.0
 10
354.5457018045
 20
139.756880427
 30
0.0
 10
354.9133035708
 20
138.6089137716
 30
0.0
 10
355.0012385527
 20
138.042380827
 30
0.0
  0
LINE
  5
452
330
21F
100
AcDbEntity
  8
7_ALL_FEATURES
  6
Continuous
 62
     9
100
AcDbLine
 10
355.0459541151
 20
137.5997055844
 30
0.0
 11
355.0477080477
 21
137.5926921335
 31
0.0
  0
SPLINE
  5
453
330
21F
100
AcDbEntity
  8
7_ALL_FEATURES
  6
Continuous
 62
     9
100
AcDbSpline
 70
     0
 71
     3
 72
    22
 73
    18
 74
     0
 42
0.000000001
 43
0.0000001
 40
0.0
 40
0.0
 40
0.0
 40
0.0
 40
0.175289227
 40
0.2594751626
 40
0.3400101854
 40
0.4160430504
 40
0.4868881962
 40
0.5520767328
 40
0.6114296743
 40
0.6651521763
 40
0.7139485423
 40
0.7591220726
 40
0.8025617118
 40
0.8464954304
 40
0.8930501399
 40
0.9438737618
 40
1.0
 40
1.0
 40
1.0
 40
1.0
 10
331.9794032962
 20
116.7728447197
 30
0.0
 10
328.9432438521
 20
116.3951918432
 30
0.0
 10
324.4066555778
 20
116.1086135348
 30
0.0
 10
318.4727561161
 20
116.3335505422
 30
0.0
 10
314.2917934691
 20
116.7957425951
 30
0.0
 10
310.389202686
 20
117.5458357568
 30
0.0
 10
306.8267444433
 20
118.5720813285
 30
0.0
 10
303.6604641242
 20
119.8589745749
 30
0.0
 10
300.9394684553
 20
121.38843447
 30
0.0
 10
298.7064316002
 20
123.1413239242
 30
0.0
 10
297.0002402492
 20
125.0982781772
 30
0.0
 10
295.8607819818
 20
127.2359811322
 30
0.0
 10
295.3268804722
 20
129.5154241986
 30
0.0
 10
295.4171418627
 20
131.8778291419
 30
0.0
 10
296.1183554018
 20
134.2652152189
 30
0.0
 10
297.4005398432
 20
136.6356441303
 30
0.0
 10
298.562400653
 20
138.1078409939
 30
0.0
 10
299.2192347244
 20
138.8346665246
 30
0.0
  0
SPLINE
  5
454
330
21F
100
AcDbEntity
  8
7_ALL_FEATURES
  6
Continuous
 62
     9
100
AcDbSpline
 70
     0
 71
     3
 72
     9
 73
     5
 74
     0
 42
0.000000001
 43
0.0000001
 40
0.0
 40
0.0
 40
0.0
 40
0.0
 40
0.2443540572
 40
1.0
 40
1.0
 40
1.0
 40
1.0
 10
300.0023839019
 20
139.6584872737
 30
0.0
 10
300.126218467
 20
139.7825582905
 30
0.0
 10
300.6385160642
 20
140.2847890897
 30
0.0
 10
301.172054514
 20
140.7652411797
 30
0.0
 10
301.584885788
 20
141.1165678541
 30
0.0
  0
SPLINE
  5
455
330
21F
100
AcDbEntity
  8
7_ALL_FEATURES
  6
Continuous
 62
     9
100
AcDbSpline
 70
     0
 71
     3
 72
     9
 73
     5
 74
     0
 42
0.000000001
 43
0.0000001
 40
0.0
 40
0.0
 40
0.0
 40
0.0
 40
0.2424338904
 40
1.0
 40
1.0
 40
1.0
 40
1.0
 10
301.7984719024
 20
141.2965760934
 30
0.0
 10
302.0139943413
 20
141.476469853
 30
0.0
 10
302.91353979
 20
142.2058218779
 30
0.0
 10
303.8528583072
 20
142.8856833193
 30
0.0
 10
304.5809076397
 20
143.3750795659
 30
0.0
  0
SPLINE
  5
456
330
21F
100
AcDbEntity
  8
7_ALL_FEATURES
  6
Continuous
 62
     9
100
AcDbSpline
 70
     0
 71
     3
 72
     9
 73
     5
 74
     0
 42
0.000000001
 43
0.0000001
 40
0.0
 40
0.0
 40
0.0
 40
0.0
 40
0.2436057159
 40
1.0
 40
1.0
 40
1.0
 40
1.0
 10
304.8704065012
 20
143.567761888
 30
0.0
 10
305.1268345128
 20
143.7367551315
 30
0.0
 10
306.1877550357
 20
144.4178578215
 30
0.0
 10
307.2800572159
 20
145.0497420824
 30
0.0
 10
308.1194703611
 20
145.5021424405
 30
0.0
  0
SPLINE
  5
457
330
21F
100
AcDbEntity
  8
7_ALL_FEATURES
  6
Continuous
 62
     9
100
AcDbSpline
 70
     0
 71
     3
 72
     9
 73
     5
 74
     0
 42
0.000000001
 43
0.0000001
 40
0.0
 40
0.0
 40
0.0
 40
0.0
 40
0.2447156475
 40
1.0
 40
1.0
 40
1.0
 40
1.0
 10
308.41455423
 20
145.6598374565
 30
0.0
 10
308.7154383278
 20
145.8192778736
 30
0.0
 10
309.9518878621
 20
146.457694916
 30
0.0
 10
311.2146582341
 20
147.0448442746
 30
0.0
 10
312.1795433898
 20
147.4614097018
 30
0.0
  0
SPLINE
  5
458
330
21F
100
AcDbEntity
  8
7_ALL_FEATURES
  6
Continuous
 62
     9
100
AcDbSpline
 70
     0
 71
     3
 72
     9
 73
     5
 74
     0
 42
0.000000001
 43
0.0000001
 40
0.0
 40
0.0
 40
0.0
 40
0.0
 40
0.4889956331
 40
1.0
 40
1.0
 40
1.0
 40
1.0
 10
312.3650463779
 20
147.5411053138
 30
0.0
 10
315.2630565729
 20
148.7800639819
 30
0.0
 10
321.3997481552
 20
150.8341622267
 30
0.0
 10
327.7499850388
 20
152.0496975799
 30
0.0
 10
331.0183946429
 20
152.4562389066
 30
0.0
  0
LINE
  5
459
330
21F
100
AcDbEntity
  8
7_ALL_FEATURES
  6
Continuous
 62
     9
100
AcDbLine
 10
360.7913734436
 20
148.5859155947
 30
0.0
 11
360.810271384
 21
148.5752501095
 31
0.0
  0
SPLINE
  5
45A
330
21F
100
AcDbEntity
  8
7_ALL_FEATURES
  6
Continuous
 62
     9
100
AcDbSpline
 70
     0
 71
     3
 72
    22
 73
    18
 74
     0
 42
0.000000001
 43
0.0000001
 40
0.0
 40
0.0
 40
0.0
 40
0.0
 40
0.0615026372
 40
0.1179836771
 40
0.1701012032
 40
0.21892121
 40
0.265903626
 40
0.3127700771
 40
0.3612598688
 40
0.4128774794
 40
0.4687432398
 40
0.5295664403
 40
0.5956905262
 40
0.6671594233
 40
0.7437807832
 40
0.8251771897
 40
1.0
 40
1.0
 40
1.0
 40
1.0
 10
360.810271384
 20
148.5752501095
 30
0.0
 10
361.5516339104
 20
148.1563721785
 30
0.0
 10
362.9306296538
 20
147.2710890159
 30
0.0
 10
364.7223770636
 20
145.7291474491
 30
0.0
 10
366.1242351314
 20
144.0449525131
 30
0.0
 10
367.1133184837
 20
142.235035028
 30
0.0
 10
367.6688677764
 20
140.3221703867
 30
0.0
 10
367.7779514074
 20
138.3376941859
 30
0.0
 10
367.4415906379
 20
136.3156819864
 30
0.0
 10
366.6718251777
 20
134.285105603
 30
0.0
 10
365.4849228751
 20
132.2688920369
 30
0.0
 10
363.8985495502
 20
130.2873942093
 30
0.0
 10
361.9324326651
 20
128.3607907654
 30
0.0
 10
359.6096156957
 20
126.5096338468
 30
0.0
 10
356.9567571078
 20
124.7542666307
 30
0.0
 10
352.9249820444
 20
122.5157119045
 30
0.0
 10
349.6469109679
 20
121.1260308065
 30
0.0
 10
347.3690798456
 20
120.3074510532
 30
0.0
  0
SPLINE
  5
45B
330
21F
100
AcDbEntity
  8
7_ALL_FEATURES
  6
Continuous
 62
     9
100
AcDbSpline
 70
     0
 71
     3
 72
     9
 73
     5
 74
     0
 42
0.000000001
 43
0.0000001
 40
0.0
 40
0.0
 40
0.0
 40
0.0
 40
0.4948883238
 40
1.0
 40
1.0
 40
1.0
 40
1.0
 10
345.8695653957
 20
119.7893217005
 30
0.0
 10
343.6396470102
 20
119.0490405162
 30
0.0
 10
339.052421434
 20
117.7907058191
 30
0.0
 10
334.3664736907
 20
116.9789970958
 30
0.0
 10
331.9866895708
 20
116.6829875038
 30
0.0
  0
SPLINE
  5
45C
330
21F
100
AcDbEntity
  8
7_ALL_FEATURES
  6
Continuous
 62
     9
100
AcDbSpline
 70
     0
 71
     3
 72
    11
 73
     7
 74
     0
 42
0.000000001
 43
0.0000001
 40
0.0
 40
0.0
 40
0.0
 40
0.0
 40
0.2672974356
 40
0.5265495876
 40
0.7723466356
 40
1.0
 40
1.0
 40
1.0
 40
1.0
 10
331.0183946429
 20
152.4562389066
 30
0.0
 10
333.056559783
 20
152.7097562011
 30
0.0
 10
337.0942208385
 20
153.044227899
 30
0.0
 10
343.0364954865
 20
153.0255338729
 30
0.0
 10
348.6487653314
 20
152.4841796189
 30
0.0
 10
352.2224696546
 20
151.7527602848
 30
0.0
 10
353.9092913621
 20
151.2895999487
 30
0.0
  0
LINE
  5
45D
330
21F
100
AcDbEntity
  8
7_ALL_FEATURES
  6
Continuous
 62
     9
100
AcDbLine
 10
353.9092913621
 20
151.2895999487
 30
0.0
 11
353.9315024345
 21
151.2834942872
 31
0.0
  0
SPLINE
  5
45E
330
21F
100
AcDbEntity
  8
7_ALL_FEATURES
  6
Continuous
 62
     9
100
AcDbSpline
 70
     0
 71
     3
 72
     9
 73
     5
 74
     0
 42
0.000000001
 43
0.0000001
 40
0.0
 40
0.0
 40
0.0
 40
0.0
 40
0.2581006768
 40
1.0
 40
1.0
 40
1.0
 40
1.0
 10
353.9315024345
 20
151.2834942872
 30
0.0
 10
354.2479578652
 20
151.1964026429
 30
0.0
 10
355.469694336
 20
150.8435206988
 30
0.0
 10
356.6735886421
 20
150.4274611734
 30
0.0
 10
357.5499652513
 20
150.0780684949
 30
0.0
  0
LINE
  5
45F
330
21F
100
AcDbEntity
  8
7_ALL_FEATURES
  6
Continuous
 62
     9
100
AcDbLine
 10
357.5499652513
 20
150.0780684949
 30
0.0
 11
357.5880612564
 21
150.0628503336
 31
0.0
  0
SPLINE
  5
460
330
21F
100
AcDbEntity
  8
7_ALL_FEATURES
  6
Continuous
 62
     9
100
AcDbSpline
 70
     0
 71
     3
 72
     9
 73
     5
 74
     0
 42
0.000000001
 43
0.0000001
 40
0.0
 40
0.0
 40
0.0
 40
0.0
 40
0.2568571624
 40
1.0
 40
1.0
 40
1.0
 40
1.0
 10
357.5880612564
 20
150.0628503336
 30
0.0
 10
357.796934058
 20
149.9792469189
 30
0.0
 10
358.6064159296
 20
149.64463877
 30
0.0
 10
359.4006803584
 20
149.2727687007
 30
0.0
 10
359.9786249792
 20
148.9732985504
 30
0.0
  0
LINE
  5
461
330
21F
100
AcDbEntity
  8
7_ALL_FEATURES
  6
Continuous
 62
     9
100
AcDbLine
 10
360.7203730763
 20
148.5719512582
 30
0.0
 11
360.7651351125
 21
148.5465889091
 31
0.0
  0
SPLINE
  5
462
330
21F
100
AcDbEntity
  8
7_ALL_FEATURES
  6
Continuous
 62
     9
100
AcDbSpline
 70
     0
 71
     3
 72
    22
 73
    18
 74
     0
 42
0.000000001
 43
0.0000001
 40
0.0
 40
0.0
 40
0.0
 40
0.0
 40
0.0614144689
 40
0.1178228532
 40
0.1698880662
 40
0.2186795584
 40
0.2656579461
 40
0.3125417196
 40
0.3610637636
 40
0.4127209509
 40
0.4686269738
 40
0.5294864692
 40
0.5956402483
 40
0.6671312193
 40
0.743767229
 40
0.8251719506
 40
1.0
 40
1.0
 40
1.0
 40
1.0
 10
360.7651351125
 20
148.5465889091
 30
0.0
 10
361.5010039129
 20
148.1285193062
 30
0.0
 10
362.8695599916
 20
147.2451849519
 30
0.0
 10
364.64662883
 20
145.7075469964
 30
0.0
 10
366.0357738198
 20
144.0287904683
 30
0.0
 10
367.0143079431
 20
142.2253987015
 30
0.0
 10
367.5617196331
 20
140.32008944
 30
0.0
 10
367.6653428095
 20
138.3440176498
 30
0.0
 10
367.3263371349
 20
136.3309463562
 30
0.0
 10
366.5566977754
 20
134.3095451378
 30
0.0
 10
365.3725616348
 20
132.3025339387
 30
0.0
 10
363.791457622
 20
130.3301149032
 30
0.0
 10
361.8329715204
 20
128.4123259339
 30
0.0
 10
359.5199845216
 20
126.569571042
 30
0.0
 10
356.8789614427
 20
124.8220427214
 30
0.0
 10
352.8658716618
 20
122.5932700529
 30
0.0
 10
349.6032674207
 20
121.2091684659
 30
0.0
 10
347.3362307847
 20
120.3936499247
 30
0.0
  0
SPLINE
  5
463
330
21F
100
AcDbEntity
  8
7_ALL_FEATURES
  6
Continuous
 62
     9
100
AcDbSpline
 70
     0
 71
     3
 72
     9
 73
     5
 74
     0
 42
0.000000001
 43
0.0000001
 40
0.0
 40
0.0
 40
0.0
 40
0.0
 40
0.4948684251
 40
1.0
 40
1.0
 40
1.0
 40
1.0
 10
345.8428247563
 20
119.877085189
 30
0.0
 10
343.6162811326
 20
119.1371000678
 30
0.0
 10
339.0355644753
 20
117.8794188437
 30
0.0
 10
334.3560382014
 20
117.0684625964
 30
0.0
 10
331.9794032962
 20
116.7728447197
 30
0.0
  0
SPLINE
  5
464
330
21F
100
AcDbEntity
  8
7_ALL_FEATURES
  6
Continuous
 62
     9
100
AcDbSpline
 70
     0
 71
     3
 72
     9
 73
     5
 74
     0
 42
0.000000001
 43
0.0000001
 40
0.0
 40
0.0
 40
0.0
 40
0.0
 40
0.2481100487
 40
1.0
 40
1.0
 40
1.0
 40
1.0
 10
368.7358745665
 20
139.2023696185
 30
0.0
 10
368.7668365844
 20
139.0029188583
 30
0.0
 10
368.8643142166
 20
138.1949587497
 30
0.0
 10
368.8500603142
 20
137.3741367919
 30
0.0
 10
368.7808107322
 20
136.766400474
 30
0.0
  0
SPLINE
  5
465
330
21F
100
AcDbEntity
  8
7_ALL_FEATURES
  6
Continuous
 62
     9
100
AcDbSpline
 70
     0
 71
     3
 72
    13
 73
     9
 74
     0
 42
0.000000001
 43
0.0000001
 40
0.0
 40
0.0
 40
0.0
 40
0.0
 40
0.0996105944
 40
0.2045437415
 40
0.3162859079
 40
0.4358818504
 40
0.7005215621
 40
1.0
 40
1.0
 40
1.0
 40
1.0
 10
368.7808107322
 20
136.766400474
 30
0.0
 10
368.7173449639
 20
136.2094230709
 30
0.0
 10
368.4863553824
 20
135.0753813962
 30
0.0
 10
367.8603670756
 20
133.402623938
 30
0.0
 10
366.9552241022
 20
131.7344266303
 30
0.0
 10
365.3321934585
 20
129.4565508345
 30
0.0
 10
362.6042744977
 20
126.7079876435
 30
0.0
 10
360.0283110381
 20
124.8334478962
 30
0.0
 10
358.6081190019
 20
123.9259382193
 30
0.0
  0
SPLINE
  5
466
330
21F
100
AcDbEntity
  8
7_ALL_FEATURES
  6
Continuous
 62
     9
100
AcDbSpline
 70
     0
 71
     3
 72
    11
 73
     7
 74
     0
 42
0.000000001
 43
0.0000001
 40
0.0
 40
0.0
 40
0.0
 40
0.0
 40
0.2273061229
 40
0.4741908483
 40
0.734211139
 40
1.0
 40
1.0
 40
1.0
 40
1.0
 10
358.6081190019
 20
123.9259382193
 30
0.0
 10
356.8415895962
 20
122.7971172646
 30
0.0
 10
352.9763567351
 20
120.7191816714
 30
0.0
 10
346.665901575
 20
118.2298391897
 30
0.0
 10
339.7917351412
 20
116.3077144602
 30
0.0
 10
335.0092543538
 20
115.4543567739
 30
0.0
 10
332.5783335693
 20
115.1388464058
 30
0.0
  0
SPLINE
  5
467
330
21F
100
AcDbEntity
  8
7_ALL_FEATURES
  6
Continuous
 62
     9
100
AcDbSpline
 70
     0
 71
     3
 72
    16
 73
    12
 74
     0
 42
0.000000001
 43
0.0000001
 40
0.0
 40
0.0
 40
0.0
 40
0.0
 40
0.159674443
 40
0.3143061806
 40
0.4604940748
 40
0.5953184961
 40
0.7166627375
 40
0.8235818299
 40
0.9168633354
 40
0.9594107831
 40
1.0
 40
1.0
 40
1.0
 40
1.0
 10
331.8153857588
 20
122.8630109429
 30
0.0
 10
330.4353043244
 20
122.6913494301
 30
0.0
 10
327.7028670145
 20
122.468141608
 30
0.0
 10
323.6868327297
 20
122.4954935062
 30
0.0
 10
319.9059665225
 20
122.8863529093
 30
0.0
 10
316.4727289463
 20
123.6288848479
 30
0.0
 10
313.485924974
 20
124.7031449796
 30
0.0
 10
311.0303241919
 20
126.0809217456
 30
0.0
 10
309.4364064106
 20
127.509581015
 30
0.0
 10
308.5442217813
 20
128.7673314794
 30
0.0
 10
308.224470308
 20
129.4216117168
 30
0.0
 10
308.0980868902
 20
129.7517685844
 30
0.0
  0
LINE
  5
468
330
21F
100
AcDbEntity
  8
7_ALL_FEATURES
  6
Continuous
 62
     9
100
AcDbLine
 10
308.0980868902
 20
129.7517685844
 30
0.0
 11
308.0901439349
 21
129.7726347297
 31
0.0
  0
SPLINE
  5
469
330
21F
100
AcDbEntity
  8
7_ALL_FEATURES
  6
Continuous
 62
     9
100
AcDbSpline
 70
     0
 71
     3
 72
    17
 73
    13
 74
     0
 42
0.000000001
 43
0.0000001
 40
0.0
 40
0.0
 40
0.0
 40
0.0
 40
0.039553588
 40
0.0801536437
 40
0.1229975164
 40
0.1690221351
 40
0.2726832239
 40
0.3934214661
 40
0.5301349172
 40
0.6797700122
 40
0.8380451427
 40
1.0
 40
1.0
 40
1.0
 40
1.0
 10
307.8287090786
 20
130.6769046693
 30
0.0
 10
307.7487194787
 20
131.0721500503
 30
0.0
 10
307.6725953738
 20
131.8931532332
 30
0.0
 10
307.8218031317
 20
133.1464790022
 30
0.0
 10
308.2283811666
 20
134.4100060288
 30
0.0
 10
309.1392873029
 20
136.1574536937
 30
0.0
 10
310.9415569841
 20
138.2858709342
 30
0.0
 10
313.8546442861
 20
140.5639824994
 30
0.0
 10
317.4903213935
 20
142.5941772121
 30
0.0
 10
321.7032023093
 20
144.2945599047
 30
0.0
 10
326.321874978
 20
145.5965518985
 30
0.0
 10
329.5438704949
 20
146.1622625765
 30
0.0
 10
331.1824121803
 20
146.3660726834
 30
0.0
  0
SPLINE
  5
46A
330
21F
100
AcDbEntity
  8
7_ALL_FEATURES
  6
Continuous
 62
     9
100
AcDbSpline
 70
     0
 71
     3
 72
    12
 73
     8
 74
     0
 42
0.000000001
 43
0.0000001
 40
0.0
 40
0.0
 40
0.0
 40
0.0
 40
0.2898593694
 40
0.5479879845
 40
0.7807728195
 40
0.8912824923
 40
1.0
 40
1.0
 40
1.0
 40
1.0
 10
360.7997822039
 20
148.60224593
 30
0.0
 10
361.8753789736
 20
148.0512084858
 30
0.0
 10
363.8405289569
 20
146.8608841223
 30
0.0
 10
366.2736438493
 20
144.663750301
 30
0.0
 10
367.6959632114
 20
142.5579242111
 30
0.0
 10
368.3848806981
 20
140.7971909314
 30
0.0
 10
368.5868352037
 20
139.9013495074
 30
0.0
 10
368.6521328193
 20
139.4527932986
 30
0.0
  0
SPLINE
  5
46B
330
21F
100
AcDbEntity
  8
7_ALL_FEATURES
  6
Continuous
 62
     9
100
AcDbSpline
 70
     0
 71
     3
 72
    11
 73
     7
 74
     0
 42
0.000000001
 43
0.0000001
 40
0.0
 40
0.0
 40
0.0
 40
0.0
 40
0.2186662007
 40
0.4523463368
 40
0.7109145296
 40
1.0
 40
1.0
 40
1.0
 40
1.0
 10
368.684411904
 20
139.2070248399
 30
0.0
 10
368.7869014036
 20
138.332305207
 30
0.0
 10
368.7229510539
 20
136.4814295961
 30
0.0
 10
367.8367540958
 20
133.7282604113
 30
0.0
 10
366.2109007132
 20
131.0089541951
 30
0.0
 10
364.7482389401
 20
129.3431758783
 30
0.0
 10
363.9219236692
 20
128.5228977416
 30
0.0
  0
SPLINE
  5
46C
330
21F
100
AcDbEntity
  8
7_ALL_FEATURES
  6
Continuous
 62
     9
100
AcDbSpline
 70
     0
 71
     3
 72
     9
 73
     5
 74
     0
 42
0.000000001
 43
0.0000001
 40
0.0
 40
0.0
 40
0.0
 40
0.0
 40
0.4792858831
 40
1.0
 40
1.0
 40
1.0
 40
1.0
 10
363.9219236692
 20
128.5228977416
 30
0.0
 10
363.1303569287
 20
127.7371142594
 30
0.0
 10
361.3696370799
 20
126.2060590771
 30
0.0
 10
359.4587303265
 20
124.8710755352
 30
0.0
 10
358.4359780734
 20
124.2211769121
 30
0.0
  0
SPLINE
  5
46D
330
21F
100
AcDbEntity
  8
7_ALL_FEATURES
  6
Continuous
 62
     9
100
AcDbSpline
 70
     0
 71
     3
 72
    11
 73
     7
 74
     0
 42
0.000000001
 43
0.0000001
 40
0.0
 40
0.0
 40
0.0
 40
0.0
 40
0.2274638454
 40
0.4745052422
 40
0.7345277543
 40
1.0
 40
1.0
 40
1.0
 40
1.0
 10
358.4359780734
 20
124.2211769121
 30
0.0
 10
356.6480915183
 20
123.0850806513
 30
0.0
 10
352.7362622236
 20
120.9969149562
 30
0.0
 10
346.3525936024
 20
118.5045394381
 30
0.0
 10
339.4047854367
 20
116.5923586893
 30
0.0
 10
334.574322941
 20
115.7542064521
 30
0.0
 10
332.120952507
 20
115.449043822
 30
0.0
  0
SPLINE
  5
46E
330
21F
100
AcDbEntity
  8
7_ALL_FEATURES
  6
Continuous
 62
     9
100
AcDbSpline
 70
     0
 71
     3
 72
    12
 73
     8
 74
     0
 42
0.000000001
 43
0.0000001
 40
0.0
 40
0.0
 40
0.0
 40
0.0
 40
0.1085500087
 40
0.2192040174
 40
0.4526398183
 40
0.7109797838
 40
1.0
 40
1.0
 40
1.0
 40
1.0
 10
368.7318178183
 20
139.2060397663
 30
0.0
 10
368.7871790163
 20
138.7696018149
 30
0.0
 10
368.8332009828
 20
137.8785310984
 30
0.0
 10
368.6612281918
 20
136.0466837415
 30
0.0
 10
367.9199623898
 20
133.6891096435
 30
0.0
 10
366.2936484665
 20
130.9507055829
 30
0.0
 10
364.8254048908
 20
129.2723116489
 30
0.0
 10
363.9950800797
 20
128.4461011671
 30
0.0
  0
SPLINE
  5
46F
330
21F
100
AcDbEntity
  8
7_ALL_FEATURES
  6
Continuous
 62
     9
100
AcDbSpline
 70
     0
 71
     3
 72
     9
 73
     5
 74
     0
 42
0.000000001
 43
0.0000001
 40
0.0
 40
0.0
 40
0.0
 40
0.0
 40
0.479208281
 40
1.0
 40
1.0
 40
1.0
 40
1.0
 10
363.9950800797
 20
128.4461011671
 30
0.0
 10
363.20174586
 20
127.6566979851
 30
0.0
 10
361.4360297083
 20
126.1185981454
 30
0.0
 10
359.5188775044
 20
124.7779593673
 30
0.0
 10
358.4925208659
 20
124.1253196446
 30
0.0
  0
SPLINE
  5
470
330
21F
100
AcDbEntity
  8
7_ALL_FEATURES
  6
Continuous
 62
     9
100
AcDbSpline
 70
     0
 71
     3
 72
    11
 73
     7
 74
     0
 42
0.000000001
 43
0.0000001
 40
0.0
 40
0.0
 40
0.0
 40
0.0
 40
0.2274383355
 40
0.4744754238
 40
0.7345091265
 40
1.0
 40
1.0
 40
1.0
 40
1.0
 10
358.4925208659
 20
124.1253196446
 30
0.0
 10
356.702270442
 20
122.9869350945
 30
0.0
 10
352.7847598295
 20
120.8945634605
 30
0.0
 10
346.391165351
 20
118.3972647207
 30
0.0
 10
339.4319124899
 20
116.4813539433
 30
0.0
 10
334.5932964207
 20
115.6416617408
 30
0.0
 10
332.1357457556
 20
115.3359791523
 30
0.0
  0
SPLINE
  5
471
330
21F
100
AcDbEntity
  8
7_ALL_FEATURES
  6
Continuous
 62
     9
100
AcDbSpline
 70
     0
 71
     3
 72
    18
 73
    14
 74
     0
 42
0.000000001
 43
0.0000001
 40
0.0
 40
0.0
 40
0.0
 40
0.0
 40
0.1672799007
 40
0.3278656202
 40
0.4771909394
 40
0.611592028
 40
0.7289174374
 40
0.7812218893
 40
0.8296077087
 40
0.8746716145
 40
0.9172998407
 40
0.9586400866
 40
1.0
 40
1.0
 40
1.0
 40
1.0
 10
331.1824121803
 20
146.3660726834
 30
0.0
 10
332.7621875278
 20
146.5625731357
 30
0.0
 10
335.8795570487
 20
146.7983198494
 30
0.0
 10
340.427360981
 20
146.678061574
 30
0.0
 10
344.6253642066
 20
146.0857679661
 30
0.0
 10
348.3105034055
 20
145.0446660273
 30
0.0
 10
350.9404658513
 20
143.7847901441
 30
0.0
 10
352.623823506
 20
142.5627025806
 30
0.0
 10
353.6268958559
 20
141.5971427484
 30
0.0
 10
354.4074330675
 20
140.555755862
 30
0.0
 10
354.9544379778
 20
139.4476075209
 30
0.0
 10
355.2584641977
 20
138.2857757859
 30
0.0
 10
355.2949496695
 20
137.4930044472
 30
0.0
 10
355.2739128512
 20
137.0999579515
 30
0.0
  0
SPLINE
  5
472
330
21F
100
AcDbEntity
  8
7_ALL_FEATURES
  6
Continuous
 62
     9
100
AcDbSpline
 70
     0
 71
     3
 72
    17
 73
    13
 74
     0
 42
0.000000001
 43
0.0000001
 40
0.0
 40
0.0
 40
0.0
 40
0.0
 40
0.0397058711
 40
0.0815493312
 40
0.1262873256
 40
0.1744439449
 40
0.2819366517
 40
0.4046694199
 40
0.5410848696
 40
0.688324107
 40
0.8426832479
 40
1.0
 40
1.0
 40
1.0
 40
1.0
 10
355.2739128512
 20
137.0999579515
 30
0.0
 10
355.2533033649
 20
136.7148956178
 30
0.0
 10
355.1334355046
 20
135.9266406354
 30
0.0
 10
354.7380785348
 20
134.760110139
 30
0.0
 10
354.1298734314
 20
133.5962524643
 30
0.0
 10
353.0032705718
 20
132.0035658961
 30
0.0
 10
351.0632919064
 20
130.0911776053
 30
0.0
 10
348.1325274759
 20
128.0483874312
 30
0.0
 10
344.613565423
 20
126.2391388125
 30
0.0
 10
340.6292594279
 20
124.7269571915
 30
0.0
 10
336.3198037868
 20
123.5649168428
 30
0.0
 10
333.3315230978
 20
123.0515957777
 30
0.0
 10
331.8153857588
 20
122.8630109429
 30
0.0
  0
SPLINE
  5
473
330
21F
100
AcDbEntity
  8
7_ALL_FEATURES
  6
Continuous
 62
     9
100
AcDbSpline
 70
     0
 71
     3
 72
    11
 73
     7
 74
     0
 42
0.000000001
 43
0.0000001
 40
0.0
 40
0.0
 40
0.0
 40
0.0
 40
0.2191234019
 40
0.4523972421
 40
0.7106118565
 40
1.0
 40
1.0
 40
1.0
 40
1.0
 10
308.0635643224
 20
130.7551200738
 30
0.0
 10
307.9763418101
 20
131.317062837
 30
0.0
 10
307.9769236049
 20
132.51178389
 30
0.0
 10
308.5068582496
 20
134.2993897596
 30
0.0
 10
309.5300343732
 20
136.0658498975
 30
0.0
 10
310.4648868103
 20
137.1462975119
 30
0.0
 10
310.995038208
 20
137.6782522436
 30
0.0
  0
SPLINE
  5
474
330
21F
100
AcDbEntity
  8
7_ALL_FEATURES
  6
Continuous
 62
     9
100
AcDbSpline
 70
     0
 71
     3
 72
     9
 73
     5
 74
     0
 42
0.000000001
 43
0.0000001
 40
0.0
 40
0.0
 40
0.0
 40
0.0
 40
0.4732438285
 40
1.0
 40
1.0
 40
1.0
 40
1.0
 10
311.2450615661
 20
137.9236779932
 30
0.0
 10
311.9745021125
 20
138.6243984196
 30
0.0
 10
313.6507676706
 20
139.9662680186
 30
0.0
 10
315.4879947292
 20
141.0689053047
 30
0.0
 10
316.4827429792
 20
141.5961847283
 30
0.0
  0
SPLINE
  5
475
330
21F
100
AcDbEntity
  8
7_ALL_FEATURES
  6
Continuous
 62
     9
100
AcDbSpline
 70
     0
 71
     3
 72
    10
 73
     6
 74
     0
 42
0.000000001
 43
0.0000001
 40
0.0
 40
0.0
 40
0.0
 40
0.0
 40
0.2339105083
 40
0.4820759215
 40
1.0
 40
1.0
 40
1.0
 40
1.0
 10
316.4827429792
 20
141.5961847283
 30
0.0
 10
317.5460155123
 20
142.1597863515
 30
0.0
 10
319.805056019
 20
143.1968430927
 30
0.0
 10
324.6683164408
 20
144.8891580969
 30
0.0
 10
328.5518396221
 20
145.694778706
 30
0.0
 10
331.1958901332
 20
146.024962975
 30
0.0
  0
LINE
  5
476
330
21F
100
AcDbEntity
  8
7_ALL_FEATURES
  6
Continuous
 62
     9
100
AcDbLine
 10
331.1958901332
 20
146.024962975
 30
0.0
 11
331.2192113857
 21
146.0278695408
 31
0.0
  0
SPLINE
  5
477
330
21F
100
AcDbEntity
  8
7_ALL_FEATURES
  6
Continuous
 62
     9
100
AcDbSpline
 70
     0
 71
     3
 72
     9
 73
     5
 74
     0
 42
0.000000001
 43
0.0000001
 40
0.0
 40
0.0
 40
0.0
 40
0.0
 40
0.7440956395
 40
1.0
 40
1.0
 40
1.0
 40
1.0
 10
357.3859590994
 20
137.8345053565
 30
0.0
 10
357.3846540794
 20
137.8829623031
 30
0.0
 10
357.3898741996
 20
137.9484986533
 30
0.0
 10
357.4032256454
 20
138.0122685562
 30
0.0
 10
357.4071371595
 20
138.0284742118
 30
0.0
  0
SPLINE
  5
478
330
21F
100
AcDbEntity
  8
7_ALL_FEATURES
  6
Continuous
 62
     9
100
AcDbSpline
 70
     0
 71
     3
 72
    18
 73
    14
 74
     0
 42
0.000000001
 43
0.0000001
 40
0.0
 40
0.0
 40
0.0
 40
0.0
 40
0.0941653582
 40
0.1527385917
 40
0.2187167394
 40
0.3678135022
 40
0.5278837767
 40
0.6820639784
 40
0.8150140302
 40
0.870601851
 40
0.9186788072
 40
0.9607624558
 40
1.0
 40
1.0
 40
1.0
 40
1.0
 10
357.4071371595
 20
138.0284742118
 30
0.0
 10
357.4564792224
 20
138.2329015656
 30
0.0
 10
357.6633076668
 20
138.5301786505
 30
0.0
 10
358.037626827
 20
138.8417080167
 30
0.0
 10
358.5619397676
 20
139.1612392566
 30
0.0
 10
359.3514142523
 20
139.4600942136
 30
0.0
 10
360.3745573316
 20
139.647353976
 30
0.0
 10
361.3780473058
 20
139.6507699509
 30
0.0
 10
362.1378379721
 20
139.4938301138
 30
0.0
 10
362.6151368734
 20
139.2602781565
 30
0.0
 10
362.8725149923
 20
139.0554123632
 30
0.0
 10
363.039747167
 20
138.8132029059
 30
0.0
 10
363.0812304433
 20
138.6308022238
 30
0.0
 10
363.0835895586
 20
138.5432054665
 30
0.0
  0
SPLINE
  5
479
330
21F
100
AcDbEntity
  8
7_ALL_FEATURES
  6
Continuous
 62
     9
100
AcDbSpline
 70
     0
 71
     3
 72
     9
 73
     5
 74
     0
 42
0.000000001
 43
0.0000001
 40
0.0
 40
0.0
 40
0.0
 40
0.0
 40
0.2400637688
 40
1.0
 40
1.0
 40
1.0
 40
1.0
 10
363.0835895586
 20
138.5432054665
 30
0.0
 10
363.0843500718
 20
138.5149667058
 30
0.0
 10
363.0803039131
 20
138.3971437432
 30
0.0
 10
363.0473490672
 20
138.281224022
 30
0.0
 10
363.0113604922
 20
138.199361599
 30
0.0
  0
SPLINE
  5
47A
330
21F
100
AcDbEntity
  8
7_ALL_FEATURES
  6
Continuous
 62
     9
100
AcDbSpline
 70
     0
 71
     3
 72
    15
 73
    11
 74
     0
 42
0.000000001
 43
0.0000001
 40
0.0
 40
0.0
 40
0.0
 40
0.0
 40
0.0952014623
 40
0.2154580382
 40
0.3562452526
 40
0.5077130564
 40
0.657857342
 40
0.7949259586
 40
0.9098925523
 40
1.0
 40
1.0
 40
1.0
 40
1.0
 10
363.0113604922
 20
138.199361599
 30
0.0
 10
362.9331450918
 20
138.0214467417
 30
0.0
 10
362.6422211723
 20
137.6720149003
 30
0.0
 10
362.0287874646
 20
137.2730716272
 30
0.0
 10
361.2414132538
 20
136.9604756892
 30
0.0
 10
360.3553755784
 20
136.7681898852
 30
0.0
 10
359.4578495314
 20
136.7134911368
 30
0.0
 10
358.6364400827
 20
136.8035361848
 30
0.0
 10
357.9684170472
 20
137.0250768892
 30
0.0
 10
357.6230896104
 20
137.2913110433
 30
0.0
 10
357.5185542683
 20
137.4426706536
 30
0.0
  0
SPLINE
  5
47B
330
21F
100
AcDbEntity
  8
7_ALL_FEATURES
  6
Continuous
 62
     9
100
AcDbSpline
 70
     0
 71
     3
 72
     9
 73
     5
 74
     0
 42
0.000000001
 43
0.0000001
 40
0.0
 40
0.0
 40
0.0
 40
0.0
 40
0.5097846198
 40
1.0
 40
1.0
 40
1.0
 40
1.0
 10
357.5185542683
 20
137.4426706536
 30
0.0
 10
357.4781772369
 20
137.501133673
 30
0.0
 10
357.412943581
 20
137.6266273921
 30
0.0
 10
357.3877984878
 20
137.7662066781
 30
0.0
 10
357.3859590994
 20
137.8345053565
 30
0.0
  0
SPLINE
  5
47C
330
21F
100
AcDbEntity
  8
7_ALL_FEATURES
  6
Continuous
 62
     9
100
AcDbSpline
 70
     0
 71
     3
 72
     9
 73
     5
 74
     0
 42
0.000000001
 43
0.0000001
 40
0.0
 40
0.0
 40
0.0
 40
0.0
 40
0.5644591113
 40
1.0
 40
1.0
 40
1.0
 40
1.0
 10
316.0705736118
 20
119.1337168194
 30
0.0
 10
315.7996932968
 20
119.1769721563
 30
0.0
 10
315.3255274879
 20
119.2982720433
 30
0.0
 10
314.9025154402
 20
119.5787541885
 30
0.0
 10
314.7732874502
 20
119.746386664
 30
0.0
  0
SPLINE
  5
47D
330
21F
100
AcDbEntity
  8
7_ALL_FEATURES
  6
Continuous
 62
     9
100
AcDbSpline
 70
     0
 71
     3
 72
    18
 73
    14
 74
     0
 42
0.000000001
 43
0.0000001
 40
0.0
 40
0.0
 40
0.0
 40
0.0
 40
0.0409210805
 40
0.0798365787
 40
0.1195100955
 40
0.1624968744
 40
0.2105674148
 40
0.2646208117
 40
0.3905992925
 40
0.5366191195
 40
0.6939917366
 40
0.8520329799
 40
1.0
 40
1.0
 40
1.0
 40
1.0
 10
314.7732874502
 20
119.746386664
 30
0.0
 10
314.7279781956
 20
119.8051611023
 30
0.0
 10
314.6530982714
 20
119.931704879
 30
0.0
 10
314.6032734464
 20
120.1462672009
 30
0.0
 10
314.623379299
 20
120.3692880704
 30
0.0
 10
314.7105395093
 20
120.5924903926
 30
0.0
 10
314.8597179141
 20
120.8114086178
 30
0.0
 10
315.1508367513
 20
121.1076423055
 30
0.0
 10
315.6516051565
 20
121.433689
 30
0.0
 10
316.3750519285
 20
121.7297722688
 30
0.0
 10
317.1921431904
 20
121.9249408718
 30
0.0
 10
318.0315596307
 20
122.0020130244
 30
0.0
 10
318.588737033
 20
121.9686502522
 30
0.0
 10
318.8537224998
 20
121.9263362301
 30
0.0
  0
SPLINE
  5
47E
330
21F
100
AcDbEntity
  8
7_ALL_FEATURES
  6
Continuous
 62
     9
100
AcDbSpline
 70
     0
 71
     3
 72
     9
 73
     5
 74
     0
 42
0.000000001
 43
0.0000001
 40
0.0
 40
0.0
 40
0.0
 40
0.0
 40
0.453798743
 40
1.0
 40
1.0
 40
1.0
 40
1.0
 10
318.9201817599
 20
119.5405373022
 30
0.0
 10
318.8502853645
 20
119.5947259704
 30
0.0
 10
318.6731966938
 20
119.6839173109
 30
0.0
 10
318.4826968491
 20
119.7297613764
 30
0.0
 10
318.3775785332
 20
119.7465471227
 30
0.0
  0
SPLINE
  5
47F
330
21F
100
AcDbEntity
  8
7_ALL_FEATURES
  6
Continuous
 62
     9
100
AcDbSpline
 70
     0
 71
     3
 72
    11
 73
     7
 74
     0
 42
0.000000001
 43
0.0000001
 40
0.0
 40
0.0
 40
0.0
 40
0.0
 40
0.1848420171
 40
0.4064567881
 40
0.6794143085
 40
1.0
 40
1.0
 40
1.0
 40
1.0
 10
314.2393707678
 20
144.5062378724
 30
0.0
 10
314.2207216889
 20
144.6261159622
 30
0.0
 10
314.2647449243
 20
144.9045482688
 30
0.0
 10
314.532608689
 20
145.272920904
 30
0.0
 10
314.9577421816
 20
145.6046599455
 30
0.0
 10
315.3082616647
 20
145.7800102573
 30
0.0
 10
315.5027527963
 20
145.8603066039
 30
0.0
  0
SPLINE
  5
480
330
21F
100
AcDbEntity
  8
3_ALL_AXES
  6
Continuous
 62
     7
100
AcDbSpline
 70
     0
 71
     3
 72
    10
 73
     6
 74
     0
 42
0.000000001
 43
0.0000001
 40
0.0
 40
0.0
 40
0.0
 40
0.0
 40
0.4167099402
 40
0.6895349094
 40
1.0
 40
1.0
 40
1.0
 40
1.0
 10
314.2752017321
 20
144.4992556978
 30
0.0
 10
314.316270761
 20
144.739380351
 30
0.0
 10
314.5858424183
 20
145.0893813352
 30
0.0
 10
315.0598094334
 20
145.4234414069
 30
0.0
 10
315.3684906141
 20
145.5752530166
 30
0.0
 10
315.5362552643
 20
145.6445152413
 30
0.0
  0
SPLINE
  5
481
330
21F
100
AcDbEntity
  8
3_ALL_AXES
  6
Continuous
 62
     7
100
AcDbSpline
 70
     0
 71
     3
 72
    12
 73
     8
 74
     0
 42
0.000000001
 43
0.0000001
 40
0.0
 40
0.0
 40
0.0
 40
0.0
 40
0.1748530161
 40
0.2891185562
 40
0.4193589117
 40
0.709270065
 40
1.0
 40
1.0
 40
1.0
 40
1.0
 10
319.3983908038
 20
145.287782314
 30
0.0
 10
319.2903115393
 20
145.5018074521
 30
0.0
 10
318.9364636376
 20
145.7536512624
 30
0.0
 10
318.393759895
 20
145.930630594
 30
0.0
 10
317.6651097183
 20
146.0455550792
 30
0.0
 10
316.6831566902
 20
146.0004852056
 30
0.0
 10
315.9047478306
 20
145.7966486907
 30
0.0
 10
315.5362552643
 20
145.6445152413
 30
0.0
  0
SPLINE
  5
482
330
21F
100
AcDbEntity
  8
7_ALL_FEATURES
  6
Continuous
 62
     9
100
AcDbSpline
 70
     0
 71
     3
 72
    13
 73
     9
 74
     0
 42
0.000000001
 43
0.0000001
 40
0.0
 40
0.0
 40
0.0
 40
0.0
 40
0.1038878884
 40
0.224956195
 40
0.4993552569
 40
0.7741370364
 40
0.895625031
 40
1.0
 40
1.0
 40
1.0
 40
1.0
 10
361.5829082318
 20
137.1498995631
 30
0.0
 10
361.5088951933
 20
137.1920634377
 30
0.0
 10
361.3351496353
 20
137.2597328797
 30
0.0
 10
360.9310631818
 20
137.3341642725
 30
0.0
 10
360.3754684236
 20
137.312145618
 30
0.0
 10
359.8385778573
 20
137.166345511
 30
0.0
 10
359.4743344691
 20
136.973970583
 30
0.0
 10
359.3280076119
 20
136.857260022
 30
0.0
 10
359.2695171717
 20
136.7947877297
 30
0.0
  0
ENDSEC
  0
SECTION
  2
OBJECTS
  0
DICTIONARY
  5
C
330
0
100
AcDbDictionary
281
     1
  3
ACAD_GROUP
350
D
  3
ACAD_IMAGE_VARS
350
4CC
  3
ACAD_LAYOUT
350
1A
  3
ACAD_MLINESTYLE
350
17
  3
ACAD_PLOTSETTINGS
350
19
  3
ACAD_PLOTSTYLENAME
350
E
  3
ACAD_SCALELIST
350
488
  3
APPDATA
350
4CA
  3
DWGPROPS
350
513
  0
DICTIONARY
  5
D
102
{ACAD_REACTORS
330
C
102
}
330
C
100
AcDbDictionary
281
     1
  0
RASTERVARIABLES
  5
4CC
102
{ACAD_REACTORS
330
C
102
}
330
C
100
AcDbRasterVariables
 90
        0
 70
     1
 71
     1
 72
     1
  0
DICTIONARY
  5
1A
102
{ACAD_REACTORS
330
C
102
}
330
C
100
AcDbDictionary
281
     1
  3
Layout1
350
485
  3
Model
350
484
  0
DICTIONARY
  5
17
102
{ACAD_REACTORS
330
C
102
}
330
C
100
AcDbDictionary
281
     1
  3
Standard
350
18
  0
DICTIONARY
  5
19
102
{ACAD_REACTORS
330
C
102
}
330
C
100
AcDbDictionary
281
     1
  0
ACDBDICTIONARYWDFLT
  5
E
102
{ACAD_REACTORS
330
C
102
}
330
C
100
AcDbDictionary
281
     1
  3
Normal
350
F
100
AcDbDictionaryWithDefault
340
F
  0
DICTIONARY
  5
488
102
{ACAD_REACTORS
330
C
102
}
330
C
100
AcDbDictionary
281
     1
  3
A0
350
489
  3
A1
350
48A
  3
A2
350
48B
  3
A3
350
48C
  3
A4
350
48D
  3
A5
350
48E
  3
A6
350
48F
  3
A7
350
490
  3
A8
350
491
  3
A9
350
492
  3
B0
350
493
  3
B1
350
494
  3
B2
350
495
  3
B3
350
496
  3
B4
350
497
  3
B5
350
498
  3
B6
350
499
  3
B7
350
49A
  3
B8
350
49B
  3
B9
350
49C
  3
C0
350
49D
  3
C1
350
49E
  3
C2
350
49F
  3
C3
350
4A0
  3
C4
350
4A1
  3
C5
350
4A2
  3
C6
350
4A3
  3
C7
350
4A4
  3
C8
350
4A5
  3
C9
350
4A6
  3
D0
350
4A7
  3
D1
350
4A8
  3
D2
350
4A9
  0
DICTIONARY
  5
4CA
102
{ACAD_REACTORS
330
C
102
}
330
C
100
AcDbDictionary
281
     1
  0
XRECORD
  5
513
102
{ACAD_REACTORS
330
C
102
}
330
C
100
AcDbXrecord
280
     1
  1
DWGPROPS COOKIE
  2

  3

  4

  6

  7

  8
umberto.novello
  9

300
=
301
=
302
=
303
=
304
=
305
=
306
=
307
=
308
=
309
=
 40
0.0
 41
0.0
 42
2458444.346696424
  1

 90
        0
  0
LAYOUT
  5
485
102
{ACAD_REACTORS
330
1A
102
}
330
1A
100
AcDbPlotSettings
  1

  2
none_device
  4
ISO_A3_(420.00_x_297.00_MM)
  6

 40
0.0
 41
0.0
 42
0.0
 43
0.0
 44
420.0
 45
297.0
 46
0.0
 47
0.0
 48
0.0
 49
0.0
140
0.0
141
0.0
142
1.0
143
1.0
 70
     0
 72
     1
 73
     0
 74
     0
  7

 75
     0
147
1.0
148
0.0
149
0.0
100
AcDbLayout
  1
Layout1
 70
     0
 71
     1
 10
0.0
 20
0.0
 11
420.0
 21
297.0
 12
0.0
 22
0.0
 32
0.0
 14
0.0
 24
0.0
 34
0.0
 15
0.0
 25
0.0
 35
0.0
146
0.0
 13
0.0
 23
0.0
 33
0.0
 16
1.0
 26
0.0
 36
0.0
 17
0.0
 27
1.0
 37
0.0
 76
     0
330
220
  0
LAYOUT
  5
484
102
{ACAD_REACTORS
330
1A
102
}
330
1A
100
AcDbPlotSettings
  1

  2
none_device
  4
ISO_A3_(420.00_x_297.00_MM)
  6

 40
0.0
 41
0.0
 42
0.0
 43
0.0
 44
420.0
 45
297.0
 46
0.0
 47
0.0
 48
0.0
 49
0.0
140
0.0
141
0.0
142
1.0
143
1.0
 70
  1024
 72
     1
 73
     0
 74
     0
  7

 75
     0
147
1.0
148
0.0
149
0.0
100
AcDbLayout
  1
Model
 70
     0
 71
     0
 10
0.0
 20
0.0
 11
420.0
 21
297.0
 12
0.0
 22
0.0
 32
0.0
 14
0.0
 24
0.0
 34
0.0
 15
0.0
 25
0.0
 35
0.0
146
0.0
 13
0.0
 23
0.0
 33
0.0
 16
1.0
 26
0.0
 36
0.0
 17
0.0
 27
1.0
 37
0.0
 76
     0
330
21F
331
1F4
  0
MLINESTYLE
  5
18
102
{ACAD_REACTORS
330
17
102
}
330
17
100
AcDbMlineStyle
  2
STANDARD
 70
     0
  3

 62
   256
 51
90.0
 52
90.0
 71
     2
 49
0.5
 62
   256
  6
BYLAYER
 49
-0.5
 62
   256
  6
BYLAYER
  0
ACDBPLACEHOLDER
  5
F
102
{ACAD_REACTORS
330
E
102
}
330
E
  0
SCALE
  5
489
102
{ACAD_REACTORS
330
488
102
}
330
488
100
AcDbScale
 70
     0
300
1:1
140
1.0
141
1.0
290
     1
  0
SCALE
  5
48A
102
{ACAD_REACTORS
330
488
102
}
330
488
100
AcDbScale
 70
     0
300
1:2
140
1.0
141
2.0
290
     0
  0
SCALE
  5
48B
102
{ACAD_REACTORS
330
488
102
}
330
488
100
AcDbScale
 70
     0
300
1:4
140
1.0
141
4.0
290
     0
  0
SCALE
  5
48C
102
{ACAD_REACTORS
330
488
102
}
330
488
100
AcDbScale
 70
     0
300
1:5
140
1.0
141
5.0
290
     0
  0
SCALE
  5
48D
102
{ACAD_REACTORS
330
488
102
}
330
488
100
AcDbScale
 70
     0
300
1:8
140
1.0
141
8.0
290
     0
  0
SCALE
  5
48E
102
{ACAD_REACTORS
330
488
102
}
330
488
100
AcDbScale
 70
     0
300
1:10
140
1.0
141
10.0
290
     0
  0
SCALE
  5
48F
102
{ACAD_REACTORS
330
488
102
}
330
488
100
AcDbScale
 70
     0
300
1:16
140
1.0
141
16.0
290
     0
  0
SCALE
  5
490
102
{ACAD_REACTORS
330
488
102
}
330
488
100
AcDbScale
 70
     0
300
1:20
140
1.0
141
20.0
290
     0
  0
SCALE
  5
491
102
{ACAD_REACTORS
330
488
102
}
330
488
100
AcDbScale
 70
     0
300
1:30
140
1.0
141
30.0
290
     0
  0
SCALE
  5
492
102
{ACAD_REACTORS
330
488
102
}
330
488
100
AcDbScale
 70
     0
300
1:40
140
1.0
141
40.0
290
     0
  0
SCALE
  5
493
102
{ACAD_REACTORS
330
488
102
}
330
488
100
AcDbScale
 70
     0
300
1:50
140
1.0
141
50.0
290
     0
  0
SCALE
  5
494
102
{ACAD_REACTORS
330
488
102
}
330
488
100
AcDbScale
 70
     0
300
1:100
140
1.0
141
100.0
290
     0
  0
SCALE
  5
495
102
{ACAD_REACTORS
330
488
102
}
330
488
100
AcDbScale
 70
     0
300
2:1
140
2.0
141
1.0
290
     0
  0
SCALE
  5
496
102
{ACAD_REACTORS
330
488
102
}
330
488
100
AcDbScale
 70
     0
300
4:1
140
4.0
141
1.0
290
     0
  0
SCALE
  5
497
102
{ACAD_REACTORS
330
488
102
}
330
488
100
AcDbScale
 70
     0
300
8:1
140
8.0
141
1.0
290
     0
  0
SCALE
  5
498
102
{ACAD_REACTORS
330
488
102
}
330
488
100
AcDbScale
 70
     0
300
10:1
140
10.0
141
1.0
290
     0
  0
SCALE
  5
499
102
{ACAD_REACTORS
330
488
102
}
330
488
100
AcDbScale
 70
     0
300
100:1
140
100.0
141
1.0
290
     0
  0
SCALE
  5
49A
102
{ACAD_REACTORS
330
488
102
}
330
488
100
AcDbScale
 70
     0
300
1/128" = 1'-0"
140
0.0078125
141
12.0
290
     0
  0
SCALE
  5
49B
102
{ACAD_REACTORS
330
488
102
}
330
488
100
AcDbScale
 70
     0
300
1/64" = 1'-0"
140
0.015625
141
12.0
290
     0
  0
SCALE
  5
49C
102
{ACAD_REACTORS
330
488
102
}
330
488
100
AcDbScale
 70
     0
300
1/32" = 1'-0"
140
0.03125
141
12.0
290
     0
  0
SCALE
  5
49D
102
{ACAD_REACTORS
330
488
102
}
330
488
100
AcDbScale
 70
     0
300
1/16" = 1'-0"
140
0.0625
141
12.0
290
     0
  0
SCALE
  5
49E
102
{ACAD_REACTORS
330
488
102
}
330
488
100
AcDbScale
 70
     0
300
3/32" = 1'-0"
140
0.09375
141
12.0
290
     0
  0
SCALE
  5
49F
102
{ACAD_REACTORS
330
488
102
}
330
488
100
AcDbScale
 70
     0
300
1/8" = 1'-0"
140
0.125
141
12.0
290
     0
  0
SCALE
  5
4A0
102
{ACAD_REACTORS
330
488
102
}
330
488
100
AcDbScale
 70
     0
300
3/16" = 1'-0"
140
0.1875
141
12.0
290
     0
  0
SCALE
  5
4A1
102
{ACAD_REACTORS
330
488
102
}
330
488
100
AcDbScale
 70
     0
300
1/4" = 1'-0"
140
0.25
141
12.0
290
     0
  0
SCALE
  5
4A2
102
{ACAD_REACTORS
330
488
102
}
330
488
100
AcDbScale
 70
     0
300
3/8" = 1'-0"
140
0.375
141
12.0
290
     0
  0
SCALE
  5
4A3
102
{ACAD_REACTORS
330
488
102
}
330
488
100
AcDbScale
 70
     0
300
1/2" = 1'-0"
140
0.5
141
12.0
290
     0
  0
SCALE
  5
4A4
102
{ACAD_REACTORS
330
488
102
}
330
488
100
AcDbScale
 70
     0
300
3/4" = 1'-0"
140
0.75
141
12.0
290
     0
  0
SCALE
  5
4A5
102
{ACAD_REACTORS
330
488
102
}
330
488
100
AcDbScale
 70
     0
300
1" = 1'-0"
140
1.0
141
12.0
290
     0
  0
SCALE
  5
4A6
102
{ACAD_REACTORS
330
488
102
}
330
488
100
AcDbScale
 70
     0
300
1-1/2" = 1'-0"
140
1.5
141
12.0
290
     0
  0
SCALE
  5
4A7
102
{ACAD_REACTORS
330
488
102
}
330
488
100
AcDbScale
 70
     0
300
3" = 1'-0"
140
3.0
141
12.0
290
     0
  0
SCALE
  5
4A8
102
{ACAD_REACTORS
330
488
102
}
330
488
100
AcDbScale
 70
     0
300
6" = 1'-0"
140
6.0
141
12.0
290
     0
  0
SCALE
  5
4A9
102
{ACAD_REACTORS
330
488
102
}
330
488
100
AcDbScale
 70
     0
300
1'-0" = 1'-0"
140
12.0
141
12.0
290
     0
  0
ENDSEC
  0
EOF
