  0
SECTION
  2
HEADER
  9
$ACADVER
  1
AC1021
  9
$ACADMAINTVER
 70
    25
  9
$DWGCODEPAGE
  3
ANSI_1252
  9
$LASTSAVEDBY
  1
umberto.novello
  9
$INSBASE
 10
0.0
 20
0.0
 30
0.0
  9
$EXTMIN
 10
0.0
 20
0.0
 30
0.0
  9
$EXTMAX
 10
420.0
 20
297.0
 30
0.0
  9
$LIMMIN
 10
0.0
 20
0.0
  9
$LIMMAX
 10
420.0
 20
297.0
  9
$ORTHOMODE
 70
     0
  9
$REGENMODE
 70
     1
  9
$FILLMODE
 70
     1
  9
$QTEXTMODE
 70
     0
  9
$MIRRTEXT
 70
     1
  9
$LTSCALE
 40
23.1
  9
$ATTMODE
 70
     1
  9
$TEXTSIZE
 40
0.2
  9
$TRACEWID
 40
0.05
  9
$TEXTSTYLE
  7
STANDARD
  9
$CLAYER
  8
0
  9
$CELTYPE
  6
BYLAYER
  9
$CECOLOR
 62
   256
  9
$CELTSCALE
 40
1.0
  9
$DISPSILH
 70
     0
  9
$DIMSCALE
 40
1.0
  9
$DIMASZ
 40
2.5
  9
$DIMEXO
 40
2.625
  9
$DIMDLI
 40
15.96
  9
$DIMRND
 40
0.0
  9
$DIMDLE
 40
0.0
  9
$DIMEXE
 40
7.56
  9
$DIMTP
 40
0.01
  9
$DIMTM
 40
0.01
  9
$DIMTXT
 40
3.0
  9
$DIMCEN
 40
3.78
  9
$DIMTSZ
 40
0.0
  9
$DIMTOL
 70
     1
  9
$DIMLIM
 70
     0
  9
$DIMTIH
 70
     1
  9
$DIMTOH
 70
     1
  9
$DIMSE1
 70
     0
  9
$DIMSE2
 70
     0
  9
$DIMTAD
 70
     0
  9
$DIMZIN
 70
     0
  9
$DIMBLK
  1
CLOSED
  9
$DIMASO
 70
     1
  9
$DIMSHO
 70
     1
  9
$DIMPOST
  1

  9
$DIMAPOST
  1

  9
$DIMALT
 70
     0
  9
$DIMALTD
 70
     2
  9
$DIMALTF
 40
25.4
  9
$DIMLFAC
 40
1.0
  9
$DIMTOFL
 70
     0
  9
$DIMTVP
 40
0.0
  9
$DIMTIX
 70
     0
  9
$DIMSOXD
 70
     0
  9
$DIMSAH
 70
     0
  9
$DIMBLK1
  1

  9
$DIMBLK2
  1

  9
$DIMSTYLE
  2
STANDARD
  9
$DIMCLRD
 70
     0
  9
$DIMCLRE
 70
     0
  9
$DIMCLRT
 70
     0
  9
$DIMTFAC
 40
1.0
  9
$DIMGAP
 40
0.09
  9
$DIMJUST
 70
     0
  9
$DIMSD1
 70
     0
  9
$DIMSD2
 70
     0
  9
$DIMTOLJ
 70
     1
  9
$DIMTZIN
 70
     0
  9
$DIMALTZ
 70
     0
  9
$DIMALTTZ
 70
     0
  9
$DIMUPT
 70
     0
  9
$DIMDEC
 70
     4
  9
$DIMTDEC
 70
     4
  9
$DIMALTU
 70
     2
  9
$DIMALTTD
 70
     2
  9
$DIMTXSTY
  7
STANDARD
  9
$DIMAUNIT
 70
     0
  9
$DIMADEC
 70
     0
  9
$DIMALTRND
 40
0.0
  9
$DIMAZIN
 70
     0
  9
$DIMDSEP
 70
    46
  9
$DIMATFIT
 70
     3
  9
$DIMFRAC
 70
     0
  9
$DIMLDRBLK
  1

  9
$DIMLUNIT
 70
     2
  9
$DIMLWD
 70
    -2
  9
$DIMLWE
 70
    -2
  9
$DIMTMOVE
 70
     0
  9
$DIMFXL
 40
1.0
  9
$DIMFXLON
 70
     0
  9
$DIMJOGANG
 40
0.7853981633974483
  9
$DIMTFILL
 70
     0
  9
$DIMTFILLCLR
 70
     0
  9
$DIMARCSYM
 70
     0
  9
$DIMLTYPE
  6

  9
$DIMLTEX1
  6

  9
$DIMLTEX2
  6

  9
$LUNITS
 70
     2
  9
$LUPREC
 70
     4
  9
$SKETCHINC
 40
0.1
  9
$FILLETRAD
 40
0.5
  9
$AUNITS
 70
     0
  9
$AUPREC
 70
     0
  9
$MENU
  1
.
  9
$ELEVATION
 40
0.0
  9
$PELEVATION
 40
0.0
  9
$THICKNESS
 40
0.0
  9
$LIMCHECK
 70
     0
  9
$CHAMFERA
 40
0.0
  9
$CHAMFERB
 40
0.0
  9
$CHAMFERC
 40
0.0
  9
$CHAMFERD
 40
0.0
  9
$SKPOLY
 70
     0
  9
$TDCREATE
 40
2447893.041666667
  9
$TDUCREATE
 40
0.0
  9
$TDUPDATE
 40
2458444.389061146
  9
$TDUUPDATE
 40
2458444.347394479
  9
$TDINDWG
 40
0.001138044
  9
$TDUSRTIMER
 40
0.0006958102
  9
$USRTIMER
 70
     1
  9
$ANGBASE
 50
0.0
  9
$ANGDIR
 70
     0
  9
$PDMODE
 70
     3
  9
$PDSIZE
 40
0.3125
  9
$PLINEWID
 40
0.0
  9
$SPLFRAME
 70
     0
  9
$SPLINETYPE
 70
     6
  9
$SPLINESEGS
 70
     8
  9
$HANDSEED
  5
4B8
  9
$SURFTAB1
 70
     6
  9
$SURFTAB2
 70
     6
  9
$SURFTYPE
 70
     6
  9
$SURFU
 70
     6
  9
$SURFV
 70
     6
  9
$UCSBASE
  2

  9
$UCSNAME
  2

  9
$UCSORG
 10
0.0
 20
0.0
 30
0.0
  9
$UCSXDIR
 10
1.0
 20
0.0
 30
0.0
  9
$UCSYDIR
 10
0.0
 20
1.0
 30
0.0
  9
$UCSORTHOREF
  2

  9
$UCSORTHOVIEW
 70
     0
  9
$UCSORGTOP
 10
0.0
 20
0.0
 30
0.0
  9
$UCSORGBOTTOM
 10
0.0
 20
0.0
 30
0.0
  9
$UCSORGLEFT
 10
0.0
 20
0.0
 30
0.0
  9
$UCSORGRIGHT
 10
0.0
 20
0.0
 30
0.0
  9
$UCSORGFRONT
 10
0.0
 20
0.0
 30
0.0
  9
$UCSORGBACK
 10
0.0
 20
0.0
 30
0.0
  9
$PUCSBASE
  2

  9
$PUCSNAME
  2

  9
$PUCSORG
 10
0.0
 20
0.0
 30
0.0
  9
$PUCSXDIR
 10
1.0
 20
0.0
 30
0.0
  9
$PUCSYDIR
 10
0.0
 20
1.0
 30
0.0
  9
$PUCSORTHOREF
  2

  9
$PUCSORTHOVIEW
 70
     0
  9
$PUCSORGTOP
 10
0.0
 20
0.0
 30
0.0
  9
$PUCSORGBOTTOM
 10
0.0
 20
0.0
 30
0.0
  9
$PUCSORGLEFT
 10
0.0
 20
0.0
 30
0.0
  9
$PUCSORGRIGHT
 10
0.0
 20
0.0
 30
0.0
  9
$PUCSORGFRONT
 10
0.0
 20
0.0
 30
0.0
  9
$PUCSORGBACK
 10
0.0
 20
0.0
 30
0.0
  9
$USERI1
 70
     0
  9
$USERI2
 70
     0
  9
$USERI3
 70
     0
  9
$USERI4
 70
     0
  9
$USERI5
 70
     0
  9
$USERR1
 40
0.0
  9
$USERR2
 40
0.0
  9
$USERR3
 40
0.0
  9
$USERR4
 40
0.0
  9
$USERR5
 40
0.0
  9
$WORLDVIEW
 70
     1
  9
$SHADEDGE
 70
     3
  9
$SHADEDIF
 70
    70
  9
$TILEMODE
 70
     1
  9
$MAXACTVP
 70
    64
  9
$PINSBASE
 10
0.0
 20
0.0
 30
0.0
  9
$PLIMCHECK
 70
     0
  9
$PEXTMIN
 10
1.000000000000000E+20
 20
1.000000000000000E+20
 30
1.000000000000000E+20
  9
$PEXTMAX
 10
-1.000000000000000E+20
 20
-1.000000000000000E+20
 30
-1.000000000000000E+20
  9
$PLIMMIN
 10
0.0
 20
0.0
  9
$PLIMMAX
 10
420.0
 20
297.0
  9
$UNITMODE
 70
     0
  9
$VISRETAIN
 70
     1
  9
$PLINEGEN
 70
     0
  9
$PSLTSCALE
 70
     1
  9
$TREEDEPTH
 70
  3020
  9
$CMLSTYLE
  2
Standard
  9
$CMLJUST
 70
     0
  9
$CMLSCALE
 40
1.0
  9
$PROXYGRAPHICS
 70
     1
  9
$MEASUREMENT
 70
     1
  9
$CELWEIGHT
370
    -1
  9
$ENDCAPS
280
     0
  9
$JOINSTYLE
280
     0
  9
$LWDISPLAY
290
     0
  9
$INSUNITS
 70
     4
  9
$HYPERLINKBASE
  1

  9
$STYLESHEET
  1

  9
$XEDIT
290
     1
  9
$CEPSNTYPE
380
     0
  9
$PSTYLEMODE
290
     1
  9
$FINGERPRINTGUID
  2
{222EB1B0-C277-40AB-B7EE-E8A4CA7CBBF4}
  9
$VERSIONGUID
  2
{FAEB1C32-E019-11D5-929B-00C0DF256EC4}
  9
$EXTNAMES
290
     1
  9
$PSVPSCALE
 40
0.0
  9
$OLESTARTUP
290
     0
  9
$SORTENTS
280
   127
  9
$INDEXCTL
280
     0
  9
$HIDETEXT
280
     1
  9
$XCLIPFRAME
290
     0
  9
$HALOGAP
280
     0
  9
$OBSCOLOR
 70
   257
  9
$OBSLTYPE
280
     0
  9
$INTERSECTIONDISPLAY
280
     0
  9
$INTERSECTIONCOLOR
 70
   257
  9
$DIMASSOC
280
     2
  9
$PROJECTNAME
  1

  9
$CAMERADISPLAY
290
     0
  9
$LENSLENGTH
 40
50.0
  9
$CAMERAHEIGHT
 40
0.0
  9
$STEPSPERSEC
 40
2.0
  9
$STEPSIZE
 40
6.0
  9
$3DDWFPREC
 40
2.0
  9
$PSOLWIDTH
 40
0.25
  9
$PSOLHEIGHT
 40
4.0
  9
$LOFTANG1
 40
1.570796326794897
  9
$LOFTANG2
 40
1.570796326794897
  9
$LOFTMAG1
 40
0.0
  9
$LOFTMAG2
 40
0.0
  9
$LOFTPARAM
 70
     7
  9
$LOFTNORMALS
280
     1
  9
$LATITUDE
 40
37.795
  9
$LONGITUDE
 40
-122.394
  9
$NORTHDIRECTION
 40
0.0
  9
$TIMEZONE
 70
 -8000
  9
$LIGHTGLYPHDISPLAY
280
     1
  9
$TILEMODELIGHTSYNCH
280
     1
  9
$SOLIDHIST
280
     1
  9
$SHOWHIST
280
     1
  9
$DWFFRAME
280
     2
  9
$DGNFRAME
280
     2
  9
$REALWORLDSCALE
290
     1
  9
$INTERFERECOLOR
 62
   256
  9
$CSHADOW
280
     0
  9
$SHADOWPLANELOCATION
 40
0.0
  0
ENDSEC
  0
SECTION
  2
CLASSES
  0
CLASS
  1
ACDBDICTIONARYWDFLT
  2
AcDbDictionaryWithDefault
  3
ObjectDBX Classes
 90
        0
 91
       16
280
     0
281
     0
  0
CLASS
  1
ACDBPLACEHOLDER
  2
AcDbPlaceHolder
  3
ObjectDBX Classes
 90
        0
 91
        1
280
     0
281
     0
  0
CLASS
  1
LAYOUT
  2
AcDbLayout
  3
ObjectDBX Classes
 90
        0
 91
        1
280
     0
281
     0
  0
CLASS
  1
TABLESTYLE
  2
AcDbTableStyle
  3
ObjectDBX Classes
 90
     4095
 91
       16
280
     0
281
     0
  0
CLASS
  1
ACAD_TABLE
  2
AcDbTable
  3
ObjectDBX Classes
 90
     1025
 91
       15
280
     0
281
     1
  0
CLASS
  1
SCALE
  2
AcDbScale
  3
ObjectDBX Classes
 90
     1153
 91
       16
280
     0
281
     0
  0
CLASS
  1
TABLEGEOMETRY
  2
AcDbTableGeometry
  3
ObjectDBX Classes
 90
     1152
 91
       15
280
     0
281
     0
  0
CLASS
  1
VISUALSTYLE
  2
AcDbVisualStyle
  3
ObjectDBX Classes
 90
     4095
 91
       16
280
     0
281
     0
  0
CLASS
  1
MATERIAL
  2
AcDbMaterial
  3
ObjectDBX Classes
 90
     1153
 91
       16
280
     0
281
     0
  0
CLASS
  1
SUN
  2
AcDbSun
  3
SCENEOE
 90
     1153
 91
       15
280
     0
281
     0
  0
CLASS
  1
RASTERVARIABLES
  2
AcDbRasterVariables
  3
ISM
 90
        0
 91
       12
280
     0
281
     0
  0
CLASS
  1
DICTIONARYVAR
  2
AcDbDictionaryVar
  3
ObjectDBX Classes
 90
        0
 91
        4
280
     0
281
     0
  0
CLASS
  1
CELLSTYLEMAP
  2
AcDbCellStyleMap
  3
ObjectDBX Classes
 90
     1152
 91
        4
280
     0
281
     0
  0
CLASS
  1
MLEADERSTYLE
  2
AcDbMLeaderStyle
  3
ACDB_MLEADERSTYLE_CLASS
 90
     4095
 91
       16
280
     0
281
     0
  0
ENDSEC
  0
SECTION
  2
TABLES
  0
TABLE
  2
VPORT
  5
8
330
0
100
AcDbSymbolTable
 70
     1
  0
VPORT
  5
1F4
330
8
100
AcDbSymbolTableRecord
100
AcDbViewportTableRecord
  2
*ACTIVE
 70
     0
 10
0.0
 20
0.0
 11
1.0
 21
1.0
 12
220.7757211103367
 22
213.1166511734523
 13
0.0
 23
0.0
 14
1.0
 24
1.0
 15
0.0
 25
0.0
 16
0.0
 26
0.0
 36
1.0
 17
0.0
 27
0.0
 37
0.0
 40
464.0625000000001
 41
1.929961089494163
 42
50.0
 43
0.0
 44
0.0
 50
0.0
 51
0.0
 71
    16
 72
   100
 73
     1
 74
     1
 75
     0
 76
     0
 77
     0
 78
     0
281
     0
 65
     1
110
0.0
120
0.0
130
0.0
111
1.0
121
0.0
131
0.0
112
0.0
122
1.0
132
0.0
 79
     0
146
0.0
348
467
 60
     3
 61
     5
292
     1
282
     1
141
0.0
142
0.0
 63
   256
361
480
  0
ENDTAB
  0
TABLE
  2
LTYPE
  5
5
330
0
100
AcDbSymbolTable
 70
     6
  0
LTYPE
  5
14
330
5
100
AcDbSymbolTableRecord
100
AcDbLinetypeTableRecord
  2
BYBLOCK
 70
     0
  3

 72
    65
 73
     0
 40
0.0
  0
LTYPE
  5
15
330
5
100
AcDbSymbolTableRecord
100
AcDbLinetypeTableRecord
  2
BYLAYER
 70
     0
  3

 72
    65
 73
     0
 40
0.0
  0
LTYPE
  5
16
330
5
100
AcDbSymbolTableRecord
100
AcDbLinetypeTableRecord
  2
CONTINUOUS
 70
     0
  3
Solid line
 72
    65
 73
     0
 40
0.0
  0
LTYPE
  5
1F5
330
5
100
AcDbSymbolTableRecord
100
AcDbLinetypeTableRecord
  2
CENTER
 70
     0
  3
____ _ ____ _ ____ _ ____ _ ____ _ ____ _ ____
 72
    65
 73
     4
 40
0.6
 49
0.375
 74
     0
 49
-0.075
 74
     0
 49
0.075
 74
     0
 49
-0.075
 74
     0
  0
LTYPE
  5
1F6
330
5
100
AcDbSymbolTableRecord
100
AcDbLinetypeTableRecord
  2
HIDDEN
 70
     0
  3
- - - - - - - - - - - - - - - - - - - -
 72
    65
 73
     2
 40
0.2
 49
0.1
 74
     0
 49
-0.1
 74
     0
  0
LTYPE
  5
1F7
330
5
100
AcDbSymbolTableRecord
100
AcDbLinetypeTableRecord
  2
PHANTOM
 70
     0
  3
_____ _ _ _____ _ _ _____ _ _ _____
 72
    65
 73
     6
 40
0.8
 49
0.45
 74
     0
 49
-0.05
 74
     0
 49
0.1
 74
     0
 49
-0.05
 74
     0
 49
0.1
 74
     0
 49
-0.05
 74
     0
  0
LTYPE
  5
1F8
330
5
100
AcDbSymbolTableRecord
100
AcDbLinetypeTableRecord
  2
DOT
 70
     0
  3
. . . . . . . . . . . . . . . . . . . .
 72
    65
 73
     2
 40
0.2
 49
0.1
 74
     0
 49
-0.1
 74
     0
  0
LTYPE
  5
1F9
330
5
100
AcDbSymbolTableRecord
100
AcDbLinetypeTableRecord
  2
DASHED
 70
     0
  3
- - - - - - - - - - - - - - - - - - - -
 72
    65
 73
     2
 40
0.2
 49
0.1
 74
     0
 49
-0.1
 74
     0
  0
ENDTAB
  0
TABLE
  2
LAYER
  5
2
330
0
100
AcDbSymbolTable
 70
    35
  0
LAYER
  5
10
330
2
100
AcDbSymbolTableRecord
100
AcDbLayerTableRecord
  2
0
 70
     0
 62
     7
  6
CONTINUOUS
370
    -3
390
F
347
47E
  0
LAYER
  5
1FA
330
2
100
AcDbSymbolTableRecord
100
AcDbLayerTableRecord
  2
DEFAULT_1
 70
     0
 62
     7
  6
CENTER
370
    -3
390
F
347
47E
  0
LAYER
  5
1FB
330
2
100
AcDbSymbolTableRecord
100
AcDbLayerTableRecord
  2
DEFAULT_2
 70
     0
 62
     8
  6
HIDDEN
370
    -3
390
F
347
47E
  0
LAYER
  5
1FC
330
2
100
AcDbSymbolTableRecord
100
AcDbLayerTableRecord
  2
DEFAULT_3
 70
     0
 62
     7
  6
PHANTOM
370
    -3
390
F
347
47E
  0
LAYER
  5
1FD
330
2
100
AcDbSymbolTableRecord
100
AcDbLayerTableRecord
  2
01_ALL_DTM_PLN
 70
     0
 62
     7
  6
CONTINUOUS
370
    -3
390
F
347
47E
  0
LAYER
  5
1FE
330
2
100
AcDbSymbolTableRecord
100
AcDbLayerTableRecord
  2
01__ASM_ALL_DTM_PLN
 70
     0
 62
     7
  6
CONTINUOUS
370
    -3
390
F
347
47E
  0
LAYER
  5
1FF
330
2
100
AcDbSymbolTableRecord
100
AcDbLayerTableRecord
  2
01__ASM_DEF_DTM_PLN
 70
     0
 62
     7
  6
CONTINUOUS
370
    -3
390
F
347
47E
  0
LAYER
  5
200
330
2
100
AcDbSymbolTableRecord
100
AcDbLayerTableRecord
  2
01___PRT_ALL_DTM_PLN
 70
     0
 62
     7
  6
CONTINUOUS
370
    -3
390
F
347
47E
  0
LAYER
  5
201
330
2
100
AcDbSymbolTableRecord
100
AcDbLayerTableRecord
  2
01___PRT_DEF_DTM_PLN
 70
     0
 62
     7
  6
CONTINUOUS
370
    -3
390
F
347
47E
  0
LAYER
  5
202
330
2
100
AcDbSymbolTableRecord
100
AcDbLayerTableRecord
  2
02_ALL_AXES
 70
     0
 62
     7
  6
CONTINUOUS
370
    -3
390
F
347
47E
  0
LAYER
  5
203
330
2
100
AcDbSymbolTableRecord
100
AcDbLayerTableRecord
  2
02__ASM_ALL_AXES
 70
     0
 62
     7
  6
CONTINUOUS
370
    -3
390
F
347
47E
  0
LAYER
  5
204
330
2
100
AcDbSymbolTableRecord
100
AcDbLayerTableRecord
  2
02___PRT_ALL_AXES
 70
     0
 62
     7
  6
CONTINUOUS
370
    -3
390
F
347
47E
  0
LAYER
  5
205
330
2
100
AcDbSymbolTableRecord
100
AcDbLayerTableRecord
  2
03_ALL_CURVES
 70
     0
 62
     7
  6
CONTINUOUS
370
    -3
390
F
347
47E
  0
LAYER
  5
206
330
2
100
AcDbSymbolTableRecord
100
AcDbLayerTableRecord
  2
03__ASM_ALL_CURVES
 70
     0
 62
     7
  6
CONTINUOUS
370
    -3
390
F
347
47E
  0
LAYER
  5
207
330
2
100
AcDbSymbolTableRecord
100
AcDbLayerTableRecord
  2
03___PRT_ALL_CURVES
 70
     0
 62
     7
  6
CONTINUOUS
370
    -3
390
F
347
47E
  0
LAYER
  5
208
330
2
100
AcDbSymbolTableRecord
100
AcDbLayerTableRecord
  2
04_ALL_DTM_PNT
 70
     0
 62
     7
  6
CONTINUOUS
370
    -3
390
F
347
47E
  0
LAYER
  5
209
330
2
100
AcDbSymbolTableRecord
100
AcDbLayerTableRecord
  2
04__ASM_ALL_DTM_PNT
 70
     0
 62
     7
  6
CONTINUOUS
370
    -3
390
F
347
47E
  0
LAYER
  5
20A
330
2
100
AcDbSymbolTableRecord
100
AcDbLayerTableRecord
  2
04___PRT_ALL_DTM_PNT
 70
     0
 62
     7
  6
CONTINUOUS
370
    -3
390
F
347
47E
  0
LAYER
  5
20B
330
2
100
AcDbSymbolTableRecord
100
AcDbLayerTableRecord
  2
05_ALL_DTM_CSYS
 70
     0
 62
     7
  6
CONTINUOUS
370
    -3
390
F
347
47E
  0
LAYER
  5
20C
330
2
100
AcDbSymbolTableRecord
100
AcDbLayerTableRecord
  2
05__ASM_ALL_DTM_CSYS
 70
     0
 62
     7
  6
CONTINUOUS
370
    -3
390
F
347
47E
  0
LAYER
  5
20D
330
2
100
AcDbSymbolTableRecord
100
AcDbLayerTableRecord
  2
05__ASM_DEF_DTM_CSYS
 70
     0
 62
     7
  6
CONTINUOUS
370
    -3
390
F
347
47E
  0
LAYER
  5
20E
330
2
100
AcDbSymbolTableRecord
100
AcDbLayerTableRecord
  2
05___PRT_ALL_DTM_CSYS
 70
     0
 62
     7
  6
CONTINUOUS
370
    -3
390
F
347
47E
  0
LAYER
  5
20F
330
2
100
AcDbSymbolTableRecord
100
AcDbLayerTableRecord
  2
05___PRT_DEF_DTM_CSYS
 70
     0
 62
     7
  6
CONTINUOUS
370
    -3
390
F
347
47E
  0
LAYER
  5
210
330
2
100
AcDbSymbolTableRecord
100
AcDbLayerTableRecord
  2
06_ALL_SURFS
 70
     0
 62
     7
  6
CONTINUOUS
370
    -3
390
F
347
47E
  0
LAYER
  5
211
330
2
100
AcDbSymbolTableRecord
100
AcDbLayerTableRecord
  2
06__ASM_ALL_SURFS
 70
     0
 62
     7
  6
CONTINUOUS
370
    -3
390
F
347
47E
  0
LAYER
  5
212
330
2
100
AcDbSymbolTableRecord
100
AcDbLayerTableRecord
  2
06___PRT_ALL_SURFS
 70
     0
 62
     7
  6
CONTINUOUS
370
    -3
390
F
347
47E
  0
LAYER
  5
213
330
2
100
AcDbSymbolTableRecord
100
AcDbLayerTableRecord
  2
07__ASM_ALL_SKELETONS
 70
     0
 62
     7
  6
CONTINUOUS
370
    -3
390
F
347
47E
  0
LAYER
  5
214
330
2
100
AcDbSymbolTableRecord
100
AcDbLayerTableRecord
  2
1_ALL_PLANES
 70
     0
 62
     7
  6
CONTINUOUS
370
    -3
390
F
347
47E
  0
LAYER
  5
215
330
2
100
AcDbSymbolTableRecord
100
AcDbLayerTableRecord
  2
3_ALL_AXES
 70
     0
 62
     7
  6
CONTINUOUS
370
    -3
390
F
347
47E
  0
LAYER
  5
216
330
2
100
AcDbSymbolTableRecord
100
AcDbLayerTableRecord
  2
4_ALL_POINTS
 70
     0
 62
     7
  6
CONTINUOUS
370
    -3
390
F
347
47E
  0
LAYER
  5
217
330
2
100
AcDbSymbolTableRecord
100
AcDbLayerTableRecord
  2
5_ALL_CURVES
 70
     0
 62
     7
  6
CONTINUOUS
370
    -3
390
F
347
47E
  0
LAYER
  5
218
330
2
100
AcDbSymbolTableRecord
100
AcDbLayerTableRecord
  2
6_ALL_SURFS
 70
     0
 62
     7
  6
CONTINUOUS
370
    -3
390
F
347
47E
  0
LAYER
  5
219
330
2
100
AcDbSymbolTableRecord
100
AcDbLayerTableRecord
  2
7_ALL_FEATURES
 70
     0
 62
     7
  6
CONTINUOUS
370
    -3
390
F
347
47E
  0
LAYER
  5
21A
330
2
100
AcDbSymbolTableRecord
100
AcDbLayerTableRecord
  2
8_ALL_NOTES_BALLOONS_SYMBOLS_GT
 70
     0
 62
     7
  6
CONTINUOUS
370
    -3
390
F
347
47E
  0
LAYER
  5
482
330
2
100
AcDbSymbolTableRecord
100
AcDbLayerTableRecord
  2
Defpoints
 70
     0
 62
     7
  6
CONTINUOUS
290
     0
370
    -3
390
F
347
47E
  0
ENDTAB
  0
TABLE
  2
STYLE
  5
3
330
0
100
AcDbSymbolTable
 70
     5
  0
STYLE
  5
11
330
3
100
AcDbSymbolTableRecord
100
AcDbTextStyleTableRecord
  2
STANDARD
 70
     0
 40
0.0
 41
0.85
 50
0.0
 71
     0
 42
0.2
  3
txt
  4

  0
STYLE
  5
21B
330
3
100
AcDbSymbolTableRecord
100
AcDbTextStyleTableRecord
  2
TEXTSTYLE_1
 70
     0
 40
0.0
 41
0.8
 50
0.0
 71
     0
 42
0.2
  3
gdt
  4

  0
STYLE
  5
21C
330
3
100
AcDbSymbolTableRecord
100
AcDbTextStyleTableRecord
  2
TEXTSTYLE_2
 70
     0
 40
0.0
 41
0.9
 50
0.0
 71
     0
 42
0.2
  3
txt
  4

  0
STYLE
  5
21D
330
3
100
AcDbSymbolTableRecord
100
AcDbTextStyleTableRecord
  2
TEXTSTYLE_3
 70
     0
 40
0.0
 41
0.9
 50
0.0
 71
     0
 42
0.2
  3
txt
  4

  0
STYLE
  5
21E
330
3
100
AcDbSymbolTableRecord
100
AcDbTextStyleTableRecord
  2
TEXTSTYLE_4
 70
     0
 40
0.0
 41
0.85
 50
0.0
 71
     0
 42
0.2
  3
txt
  4

  0
ENDTAB
  0
TABLE
  2
VIEW
  5
6
330
0
100
AcDbSymbolTable
 70
     0
  0
ENDTAB
  0
TABLE
  2
UCS
  5
7
330
0
100
AcDbSymbolTable
 70
     0
  0
ENDTAB
  0
TABLE
  2
APPID
  5
9
330
0
100
AcDbSymbolTable
 70
     2
  0
APPID
  5
21F
330
9
100
AcDbSymbolTableRecord
100
AcDbRegAppTableRecord
  2
ACAD
 70
     0
  0
APPID
  5
4B2
330
9
100
AcDbSymbolTableRecord
100
AcDbRegAppTableRecord
  2
ACAD_MLEADERVER
 70
     0
  0
ENDTAB
  0
TABLE
  2
DIMSTYLE
  5
A
330
0
100
AcDbSymbolTable
 70
     4
100
AcDbDimStyleTable
  0
DIMSTYLE
105
229
330
A
100
AcDbSymbolTableRecord
100
AcDbDimStyleTableRecord
  2
STANDARD
 70
     0
 41
2.5
 47
0.01
 48
0.01
 71
     1
 73
     0
 74
     0
 77
     1
 78
     8
140
3.0
178
     0
271
     2
272
     2
284
     8
340
11
341
222
342
222
343
222
344
222
  0
DIMSTYLE
105
22A
330
A
100
AcDbSymbolTableRecord
100
AcDbDimStyleTableRecord
  2
DIMSTYLE_1
 70
     0
 41
2.5
 47
0.5
 48
0.5
 73
     0
 74
     0
 77
     1
 78
     8
140
3.0
144
2.0
178
     0
271
     2
272
     2
284
     8
340
11
341
222
342
222
343
222
344
222
  0
DIMSTYLE
105
22B
330
A
100
AcDbSymbolTableRecord
100
AcDbDimStyleTableRecord
  2
DIMSTYLE_2
 70
     0
 41
2.5
 47
0.3
 48
0.3
 73
     0
 74
     0
 77
     1
 78
     8
140
3.0
144
2.0
178
     0
271
     2
272
     2
284
     8
340
11
341
222
342
222
343
222
344
222
  0
DIMSTYLE
105
22C
330
A
100
AcDbSymbolTableRecord
100
AcDbDimStyleTableRecord
  2
DIMSTYLE_3
 70
     0
 41
2.5
 47
0.1
 48
0.1
 73
     0
 74
     0
 77
     1
 78
     8
140
3.0
144
2.0
178
     0
271
     2
272
     2
284
     8
340
11
341
222
342
222
343
222
344
222
  0
ENDTAB
  0
TABLE
  2
BLOCK_RECORD
  5
1
330
0
100
AcDbSymbolTable
 70
     7
  0
BLOCK_RECORD
  5
220
330
1
100
AcDbSymbolTableRecord
100
AcDbBlockTableRecord
  2
*Model_Space
340
439
 70
     0
280
     1
281
     0
  0
BLOCK_RECORD
  5
221
330
1
100
AcDbSymbolTableRecord
100
AcDbBlockTableRecord
  2
*Paper_Space
340
43A
 70
     0
280
     1
281
     0
  0
BLOCK_RECORD
  5
222
330
1
100
AcDbSymbolTableRecord
100
AcDbBlockTableRecord
  2
_CLOSED
340
0
102
{BLKREFS
331
273
331
274
331
27C
331
27D
331
285
331
286
331
290
331
291
102
}
 70
     0
280
     1
281
     0
  0
BLOCK_RECORD
  5
223
330
1
100
AcDbSymbolTableRecord
100
AcDbBlockTableRecord
  2
*D1
340
0
 70
     0
280
     1
281
     0
  0
BLOCK_RECORD
  5
224
330
1
100
AcDbSymbolTableRecord
100
AcDbBlockTableRecord
  2
*D2
340
0
 70
     0
280
     1
281
     0
  0
BLOCK_RECORD
  5
225
330
1
100
AcDbSymbolTableRecord
100
AcDbBlockTableRecord
  2
*D3
340
0
 70
     0
280
     1
281
     0
  0
BLOCK_RECORD
  5
226
330
1
100
AcDbSymbolTableRecord
100
AcDbBlockTableRecord
  2
*D4
340
0
 70
     0
280
     1
281
     0
  0
BLOCK_RECORD
  5
227
330
1
100
AcDbSymbolTableRecord
100
AcDbBlockTableRecord
  2
LOGO2_BL0
340
0
102
{BLKREFS
331
2BA
102
}
 70
     0
280
     1
281
     0
  0
BLOCK_RECORD
  5
228
330
1
100
AcDbSymbolTableRecord
100
AcDbBlockTableRecord
  2
*T6
340
0
102
{BLKREFS
331
2BB
102
}
 70
     0
280
     1
281
     0
  0
ENDTAB
  0
ENDSEC
  0
SECTION
  2
BLOCKS
  0
BLOCK
  5
20
330
220
100
AcDbEntity
  8
0
100
AcDbBlockBegin
  2
*Model_Space
 70
     0
 10
0.0
 20
0.0
 30
0.0
  3
*Model_Space
  1
*Model_Space
  0
ENDBLK
  5
21
330
220
100
AcDbEntity
  8
0
100
AcDbBlockEnd
  0
BLOCK
  5
1C
330
221
100
AcDbEntity
 67
     1
  8
0
100
AcDbBlockBegin
  2
*Paper_Space
 70
     0
 10
0.0
 20
0.0
 30
0.0
  3
*Paper_Space
  1
*Paper_Space
  0
ENDBLK
  5
1D
330
221
100
AcDbEntity
 67
     1
  8
0
100
AcDbBlockEnd
  0
BLOCK
  5
269
330
222
100
AcDbEntity
  8
0
100
AcDbBlockBegin
  2
_CLOSED
 70
     0
 10
0.0
 20
0.0
 30
0.0
  3
_CLOSED
  1
_CLOSED
  0
LINE
  5
26A
330
222
100
AcDbEntity
  8
0
  6
ByBlock
 62
     0
100
AcDbLine
 10
0.0
 20
0.0
 30
0.0
 11
-1.0
 21
0.2
 31
0.0
  0
LINE
  5
26B
330
222
100
AcDbEntity
  8
0
  6
ByBlock
 62
     0
100
AcDbLine
 10
-1.0
 20
0.2
 30
0.0
 11
-1.0
 21
-0.2
 31
0.0
  0
LINE
  5
26C
330
222
100
AcDbEntity
  8
0
  6
ByBlock
 62
     0
100
AcDbLine
 10
-1.0
 20
-0.2
 30
0.0
 11
0.0
 21
0.0
 31
0.0
  0
LINE
  5
26D
330
222
100
AcDbEntity
  8
0
  6
ByBlock
 62
     0
100
AcDbLine
 10
-1.0
 20
0.0
 30
0.0
 11
0.0
 21
0.0
 31
0.0
  0
ENDBLK
  5
26E
330
222
100
AcDbEntity
  8
0
  6
ByBlock
 62
     0
100
AcDbBlockEnd
  0
BLOCK
  5
26F
330
223
100
AcDbEntity
  8
0
100
AcDbBlockBegin
  2
*D1
 70
     1
 10
0.0
 20
0.0
 30
0.0
  3
*D1
  1
*D1
  0
LINE
  5
270
330
223
100
AcDbEntity
  8
0
  6
Continuous
 62
     0
370
    -2
100
AcDbLine
 10
36.1160709133
 20
38.22015387
 30
0.0
 11
36.11607091330001
 21
27.9386204354
 31
0.0
  0
LINE
  5
271
330
223
100
AcDbEntity
  8
0
  6
Continuous
 62
     0
370
    -2
100
AcDbLine
 10
108.6160709133
 20
38.22015387
 30
0.0
 11
108.6160709133
 21
27.9386204354
 31
0.0
  0
LINE
  5
272
330
223
100
AcDbEntity
  8
0
  6
Continuous
 62
     0
370
    -2
100
AcDbLine
 10
38.61607091330001
 20
28.1186204354
 30
0.0
 11
106.1160709133
 21
28.1186204354
 31
0.0
  0
INSERT
  5
273
330
223
100
AcDbEntity
  8
0
 62
     0
370
    -2
100
AcDbBlockReference
  2
_CLOSED
 10
36.11607091330001
 20
28.1186204354
 30
0.0
 41
2.5
 42
2.5
 43
2.5
 50
180.0
  0
INSERT
  5
274
330
223
100
AcDbEntity
  8
0
 62
     0
370
    -2
100
AcDbBlockReference
  2
_CLOSED
 10
108.6160709133
 20
28.1186204354
 30
0.0
 41
2.5
 42
2.5
 43
2.5
  0
MTEXT
  5
275
330
223
100
AcDbEntity
  8
0
 62
     0
100
AcDbMText
 10
72.3660709133
 20
33.1186204354
 30
0.0
 40
3.0
 41
0.0
 46
0.0
 71
     2
 72
     1
  1
\A1;145
 73
     1
 44
1.0
  0
POINT
  5
276
330
223
100
AcDbEntity
  8
Defpoints
 62
     0
100
AcDbPoint
 10
36.1160709133
 20
38.28265387
 30
0.0
  0
POINT
  5
489
330
223
100
AcDbEntity
  8
Defpoints
 62
     0
100
AcDbPoint
 10
108.6160709133
 20
38.28265387
 30
0.0
  0
POINT
  5
48A
330
223
100
AcDbEntity
  8
Defpoints
 62
     0
100
AcDbPoint
 10
108.6160709133
 20
28.1186204354
 30
0.0
  0
ENDBLK
  5
277
330
223
100
AcDbEntity
  8
0
  6
ByBlock
 62
     0
100
AcDbBlockEnd
  0
BLOCK
  5
278
330
224
100
AcDbEntity
  8
0
100
AcDbBlockBegin
  2
*D2
 70
     1
 10
0.0
 20
0.0
 30
0.0
  3
*D2
  1
*D2
  0
LINE
  5
279
330
224
100
AcDbEntity
  8
0
  6
Continuous
 62
     0
370
    -2
100
AcDbLine
 10
111.1275956735
 20
113.3686204354
 30
0.0
 11
122.9382996491
 21
113.3686204354
 31
0.0
  0
LINE
  5
27A
330
224
100
AcDbEntity
  8
0
  6
Continuous
 62
     0
370
    -2
100
AcDbLine
 10
111.4417774917
 20
40.8686204354
 30
0.0
 11
122.9382996491
 21
40.8686204354
 31
0.0
  0
LINE
  5
27B
330
224
100
AcDbEntity
  8
0
  6
Continuous
 62
     0
370
    -2
100
AcDbLine
 10
122.7582996491
 20
110.8686204354
 30
0.0
 11
122.7582996491
 21
43.3686204354
 31
0.0
  0
INSERT
  5
27C
330
224
100
AcDbEntity
  8
0
 62
     0
370
    -2
100
AcDbBlockReference
  2
_CLOSED
 10
122.7582996491
 20
113.3686204354
 30
0.0
 41
2.5
 42
2.5
 43
2.5
 50
89.99999999999999
  0
INSERT
  5
27D
330
224
100
AcDbEntity
  8
0
 62
     0
370
    -2
100
AcDbBlockReference
  2
_CLOSED
 10
122.7582996491
 20
40.8686204354
 30
0.0
 41
2.5
 42
2.5
 43
2.5
 50
270.0
  0
MTEXT
  5
27E
330
224
100
AcDbEntity
  8
0
 62
     0
100
AcDbMText
 10
117.7582996491
 20
77.1186204354
 30
0.0
 40
3.0
 41
0.0
 46
0.0
 71
     2
 72
     1
  1
\A1;145
 11
1.960117891752000E-16
 21
1.0
 31
0.0
 73
     1
 44
1.0
  0
POINT
  5
27F
330
224
100
AcDbEntity
  8
Defpoints
 62
     0
100
AcDbPoint
 10
111.0650956735
 20
113.3686204354
 30
0.0
  0
POINT
  5
487
330
224
100
AcDbEntity
  8
Defpoints
 62
     0
100
AcDbPoint
 10
111.3792774917
 20
40.8686204354
 30
0.0
  0
POINT
  5
488
330
224
100
AcDbEntity
  8
Defpoints
 62
     0
100
AcDbPoint
 10
122.7582996491
 20
40.8686204354
 30
0.0
  0
ENDBLK
  5
280
330
224
100
AcDbEntity
  8
0
  6
ByBlock
 62
     0
100
AcDbBlockEnd
  0
BLOCK
  5
281
330
225
100
AcDbEntity
  8
0
100
AcDbBlockBegin
  2
*D3
 70
     1
 10
0.0
 20
0.0
 30
0.0
  3
*D3
  1
*D3
  0
LINE
  5
282
330
225
100
AcDbEntity
  8
0
  6
Continuous
 62
     0
370
    -2
100
AcDbLine
 10
110.6297796307
 20
199.5519212166
 30
0.0
 11
122.602244437
 21
199.5519212166
 31
0.0
  0
LINE
  5
283
330
225
100
AcDbEntity
  8
0
  6
Continuous
 62
     0
370
    -2
100
AcDbLine
 10
110.6297796307
 20
234.5519212166
 30
0.0
 11
122.602244437
 21
234.5519212166
 31
0.0
  0
LINE
  5
284
330
225
100
AcDbEntity
  8
0
  6
Continuous
 62
     0
370
    -2
100
AcDbLine
 10
122.422244437
 20
202.0519212166
 30
0.0
 11
122.422244437
 21
232.0519212166
 31
0.0
  0
INSERT
  5
285
330
225
100
AcDbEntity
  8
0
 62
     0
370
    -2
100
AcDbBlockReference
  2
_CLOSED
 10
122.422244437
 20
199.5519212166
 30
0.0
 41
2.5
 42
2.5
 43
2.5
 50
270.0
  0
INSERT
  5
286
330
225
100
AcDbEntity
  8
0
 62
     0
370
    -2
100
AcDbBlockReference
  2
_CLOSED
 10
122.422244437
 20
234.5519212166
 30
0.0
 41
2.5
 42
2.5
 43
2.5
 50
90.0
  0
MTEXT
  5
287
330
225
100
AcDbEntity
  8
0
 62
     0
100
AcDbMText
 10
117.422244437
 20
217.0519212166
 30
0.0
 40
3.0
 41
0.0
 46
0.0
 71
     2
 72
     1
  1
\A1;70
 11
0.0
 21
1.0
 31
0.0
 73
     1
 44
1.0
  0
POINT
  5
288
330
225
100
AcDbEntity
  8
Defpoints
 62
     0
100
AcDbPoint
 10
110.5672796307
 20
199.5519212166
 30
0.0
  0
POINT
  5
483
330
225
100
AcDbEntity
  8
Defpoints
 62
     0
100
AcDbPoint
 10
110.5672796307
 20
234.5519212166
 30
0.0
  0
POINT
  5
484
330
225
100
AcDbEntity
  8
Defpoints
 62
     0
100
AcDbPoint
 10
122.422244437
 20
234.5519212166
 30
0.0
  0
ENDBLK
  5
289
330
225
100
AcDbEntity
  8
0
  6
ByBlock
 62
     0
100
AcDbBlockEnd
  0
BLOCK
  5
28A
330
226
100
AcDbEntity
  8
0
100
AcDbBlockBegin
  2
*D4
 70
     1
 10
0.0
 20
0.0
 30
0.0
  3
*D4
  1
*D4
  0
LINE
  5
28B
330
226
100
AcDbEntity
  8
0
  6
Continuous
 62
     0
370
    -2
100
AcDbLine
 10
243.4013174489
 20
233.0519212166
 30
0.0
 11
253.4117314246
 21
233.0519212166
 31
0.0
  0
LINE
  5
28C
330
226
100
AcDbEntity
  8
0
  6
Continuous
 62
     0
370
    -2
100
AcDbLine
 10
243.1600258125
 20
234.5519212166
 30
0.0
 11
253.4117314246
 21
234.5519212166
 31
0.0
  0
LINE
  5
28D
330
226
100
AcDbEntity
  8
0
  6
Continuous
 62
     0
370
    -2
100
AcDbLine
 10
253.2317314246
 20
234.5519212166
 30
0.0
 11
253.2317314246
 21
246.0392434899
 31
0.0
  0
LINE
  5
28E
330
226
100
AcDbEntity
  8
0
  6
Continuous
 62
     0
370
    -2
100
AcDbLine
 10
253.2317314246
 20
230.5519212166
 30
0.0
 11
253.2317314246
 21
228.0519212166
 31
0.0
  0
LINE
  5
28F
330
226
100
AcDbEntity
  8
0
  6
Continuous
 62
     0
370
    -2
100
AcDbLine
 10
253.2317314246
 20
237.0519212166
 30
0.0
 11
253.2317314246
 21
239.5519212166
 31
0.0
  0
INSERT
  5
290
330
226
100
AcDbEntity
  8
0
 62
     0
370
    -2
100
AcDbBlockReference
  2
_CLOSED
 10
253.2317314246
 20
233.0519212166
 30
0.0
 41
2.5
 42
2.5
 43
2.5
 50
90.0
  0
INSERT
  5
291
330
226
100
AcDbEntity
  8
0
 62
     0
370
    -2
100
AcDbBlockReference
  2
_CLOSED
 10
253.2317314246
 20
234.5519212166
 30
0.0
 41
2.5
 42
2.5
 43
2.5
 50
270.0
  0
MTEXT
  5
292
330
226
100
AcDbEntity
  8
0
 62
     0
100
AcDbMText
 10
248.2317314246
 20
242.3392434899
 30
0.0
 40
3.0
 41
0.0
 46
0.0
 71
     1
 72
     1
  1
\A1;3
 11
0.0
 21
1.0
 31
0.0
 73
     1
 44
1.0
  0
POINT
  5
293
330
226
100
AcDbEntity
  8
Defpoints
 62
     0
100
AcDbPoint
 10
243.3388174489
 20
233.0519212166
 30
0.0
  0
POINT
  5
485
330
226
100
AcDbEntity
  8
Defpoints
 62
     0
100
AcDbPoint
 10
243.0975258125
 20
234.5519212166
 30
0.0
  0
POINT
  5
486
330
226
100
AcDbEntity
  8
Defpoints
 62
     0
100
AcDbPoint
 10
255.4817314246
 20
234.5519212166
 30
0.0
  0
ENDBLK
  5
294
330
226
100
AcDbEntity
  8
0
  6
ByBlock
 62
     0
100
AcDbBlockEnd
  0
BLOCK
  5
22D
330
227
100
AcDbEntity
  8
0
100
AcDbBlockBegin
  2
LOGO2_BL0
 70
     0
 10
333.1473869546
 20
37.5239270671
 30
0.0
  3
LOGO2_BL0
  1
LOGO2_BL0
  0
LINE
  5
22E
330
227
100
AcDbEntity
  8
0
  6
Continuous
 62
     7
100
AcDbLine
 10
324.8903121828
 20
40.7194184059
 30
0.0
 11
323.5859712535
 21
40.7194184059
 31
0.0
  0
LINE
  5
22F
330
227
100
AcDbEntity
  8
0
  6
Continuous
 62
     7
100
AcDbLine
 10
323.5859712535
 20
40.7194184059
 30
0.0
 11
323.5859712535
 21
30.260352346
 31
0.0
  0
LINE
  5
230
330
227
100
AcDbEntity
  8
0
  6
Continuous
 62
     7
100
AcDbLine
 10
323.5859712535
 20
30.260352346
 30
0.0
 11
328.0670261417
 21
30.260352346
 31
0.0
  0
LINE
  5
231
330
227
100
AcDbEntity
  8
0
  6
Continuous
 62
     7
100
AcDbLine
 10
328.0670261417
 20
30.260352346
 30
0.0
 11
328.0670261417
 21
31.4532066711
 31
0.0
  0
LINE
  5
232
330
227
100
AcDbEntity
  8
0
  6
Continuous
 62
     7
100
AcDbLine
 10
328.0670261417
 20
31.4532066711
 30
0.0
 11
324.8903121828
 21
31.4532066711
 31
0.0
  0
LINE
  5
233
330
227
100
AcDbEntity
  8
0
  6
Continuous
 62
     7
100
AcDbLine
 10
324.8903121828
 20
31.4532066711
 30
0.0
 11
324.8903121828
 21
40.7194184059
 31
0.0
  0
LINE
  5
234
330
227
100
AcDbEntity
  8
0
  6
Continuous
 62
     7
100
AcDbLine
 10
339.8266383991
 20
40.7194184059
 30
0.0
 11
338.522820881
 21
40.7194184059
 31
0.0
  0
LINE
  5
235
330
227
100
AcDbEntity
  8
0
  6
Continuous
 62
     7
100
AcDbLine
 10
338.522820881
 20
40.7194184059
 30
0.0
 11
338.522820881
 21
30.260352346
 31
0.0
  0
LINE
  5
236
330
227
100
AcDbEntity
  8
0
  6
Continuous
 62
     7
100
AcDbLine
 10
338.522820881
 20
30.260352346
 30
0.0
 11
343.0040066221
 21
30.260352346
 31
0.0
  0
LINE
  5
237
330
227
100
AcDbEntity
  8
0
  6
Continuous
 62
     7
100
AcDbLine
 10
343.0040066221
 20
30.260352346
 30
0.0
 11
343.0040066221
 21
31.4532066711
 31
0.0
  0
LINE
  5
238
330
227
100
AcDbEntity
  8
0
  6
Continuous
 62
     7
100
AcDbLine
 10
343.0040066221
 20
31.4532066711
 30
0.0
 11
339.8266383991
 21
31.4532066711
 31
0.0
  0
LINE
  5
239
330
227
100
AcDbEntity
  8
0
  6
Continuous
 62
     7
100
AcDbLine
 10
339.8266383991
 20
31.4532066711
 30
0.0
 11
339.8266383991
 21
40.7194184059
 31
0.0
  0
LWPOLYLINE
  5
23A
330
227
100
AcDbEntity
  8
0
  6
Continuous
 62
     7
100
AcDbPolyline
 90
        2
 70
     0
 43
0.2
 10
321.9403661644
 20
26.9168010391
 10
321.9403661644
 20
25.0597377898
  0
LWPOLYLINE
  5
23B
330
227
100
AcDbEntity
  8
0
  6
Continuous
 62
     7
100
AcDbPolyline
 90
        2
 70
     0
 43
0.2
 10
321.9403661644
 20
25.0597377898
 10
322.7360821748
 20
25.0597377898
  0
LWPOLYLINE
  5
23C
330
227
100
AcDbEntity
  8
0
  6
Continuous
 62
     7
100
AcDbPolyline
 90
        2
 70
     0
 43
0.2
 10
322.7360821748
 20
25.0597377898
 10
322.7360821748
 20
25.2717193614
  0
LWPOLYLINE
  5
23D
330
227
100
AcDbEntity
  8
0
  6
Continuous
 62
     7
100
AcDbPolyline
 90
        2
 70
     0
 43
0.2
 10
322.7360821748
 20
25.2717193614
 10
322.1719756593
 20
25.2717193614
  0
LWPOLYLINE
  5
23E
330
227
100
AcDbEntity
  8
0
  6
Continuous
 62
     7
100
AcDbPolyline
 90
        2
 70
     0
 43
0.2
 10
322.1719756593
 20
25.2717193614
 10
322.1719756593
 20
26.9168010391
  0
LWPOLYLINE
  5
23F
330
227
100
AcDbEntity
  8
0
  6
Continuous
 62
     7
100
AcDbPolyline
 90
        2
 70
     0
 43
0.2
 10
322.1719756593
 20
26.9168010391
 10
321.9403661644
 20
26.9168010391
  0
SPLINE
  5
240
330
227
100
AcDbEntity
  8
0
  6
Continuous
 62
     7
100
AcDbSpline
 70
     3
 71
     3
 72
    35
 73
    31
 74
     0
 42
0.000000001
 43
0.0000001
 40
0.0
 40
0.0
 40
0.0
 40
0.0
 40
1.0
 40
1.0
 40
1.0
 40
2.0
 40
2.0
 40
2.0
 40
3.0
 40
3.0
 40
3.0
 40
4.0
 40
4.0
 40
4.0
 40
5.0
 40
5.0
 40
5.0
 40
6.0
 40
6.0
 40
6.0
 40
7.0
 40
7.0
 40
7.0
 40
8.0
 40
8.0
 40
8.0
 40
9.0
 40
9.0
 40
9.0
 40
10.0
 40
10.0
 40
10.0
 40
10.0
 10
324.1343754303
 20
26.2122894457
 30
0.0
 10
324.1343754303
 20
26.2122894457
 30
0.0
 10
324.1343754303
 20
25.5501741665
 30
0.0
 10
324.1343754303
 20
25.5501741665
 30
0.0
 10
324.1343754303
 20
25.2350805712
 30
0.0
 10
324.2822391191
 20
25.0204819432
 30
0.0
 10
324.6223256034
 20
25.0204819432
 30
0.0
 10
324.9618886764
 20
25.0204819432
 30
0.0
 10
325.1100140709
 20
25.2350805712
 30
0.0
 10
325.1100140709
 20
25.5501741665
 30
0.0
 10
325.1100140709
 20
25.5501741665
 30
0.0
 10
325.1100140709
 20
26.2122894457
 30
0.0
 10
325.1100140709
 20
26.2122894457
 30
0.0
 10
325.1100140709
 20
26.2122894457
 30
0.0
 10
324.887956832
 20
26.2122894457
 30
0.0
 10
324.887956832
 20
26.2122894457
 30
0.0
 10
324.887956832
 20
26.2122894457
 30
0.0
 10
324.887956832
 20
25.5752979083
 30
0.0
 10
324.887956832
 20
25.5752979083
 30
0.0
 10
324.887956832
 20
25.3894869011
 30
0.0
 10
324.8412423746
 20
25.2267059906
 30
0.0
 10
324.6223256034
 20
25.2267059906
 30
0.0
 10
324.402885421
 20
25.2267059906
 30
0.0
 10
324.3561709636
 20
25.3894869011
 30
0.0
 10
324.3561709636
 20
25.5752979083
 30
0.0
 10
324.3561709636
 20
25.5752979083
 30
0.0
 10
324.3561709636
 20
26.2122894457
 30
0.0
 10
324.3561709636
 20
26.2122894457
 30
0.0
 10
324.3561709636
 20
26.2122894457
 30
0.0
 10
324.1343754303
 20
26.2122894457
 30
0.0
 10
324.1343754303
 20
26.2122894457
 30
0.0
  0
SPLINE
  5
241
330
227
100
AcDbEntity
  8
0
  6
Continuous
 62
     7
100
AcDbSpline
 70
     3
 71
     3
 72
    35
 73
    31
 74
     0
 42
0.000000001
 43
0.0000001
 40
0.0
 40
0.0
 40
0.0
 40
0.0
 40
1.0
 40
1.0
 40
1.0
 40
2.0
 40
2.0
 40
2.0
 40
3.0
 40
3.0
 40
3.0
 40
4.0
 40
4.0
 40
4.0
 40
5.0
 40
5.0
 40
5.0
 40
6.0
 40
6.0
 40
6.0
 40
7.0
 40
7.0
 40
7.0
 40
8.0
 40
8.0
 40
8.0
 40
9.0
 40
9.0
 40
9.0
 40
10.0
 40
10.0
 40
10.0
 40
10.0
 10
327.5331466281
 20
26.1709399539
 30
0.0
 10
327.4446901205
 20
26.2222342601
 30
0.0
 10
327.3312407238
 20
26.2473580019
 30
0.0
 10
327.2276052888
 20
26.2473580019
 30
0.0
 10
326.8727324356
 20
26.2473580019
 30
0.0
 10
326.5972872454
 20
25.9835587129
 30
0.0
 10
326.5972872454
 20
25.6260688032
 30
0.0
 10
326.5972872454
 20
25.2811407645
 30
0.0
 10
326.8757420505
 20
25.0210053545
 30
0.0
 10
327.2153051235
 20
25.0210053545
 30
0.0
 10
327.3312407238
 20
25.0210053545
 30
0.0
 10
327.4319973967
 20
25.0429886286
 30
0.0
 10
327.5331466281
 20
25.0968999912
 30
0.0
 10
327.5331466281
 20
25.0968999912
 30
0.0
 10
327.5331466281
 20
25.3795420867
 30
0.0
 10
327.5331466281
 20
25.3795420867
 30
0.0
 10
327.4492699692
 20
25.2863748774
 30
0.0
 10
327.345765387
 20
25.2272294019
 30
0.0
 10
327.2176604743
 20
25.2272294019
 30
0.0
 10
326.9839573343
 20
25.2272294019
 30
0.0
 10
326.8186902202
 20
25.3994317156
 30
0.0
 10
326.8186902202
 20
25.6360136177
 30
0.0
 10
326.8186902202
 20
25.8479951893
 30
0.0
 10
326.9864435379
 20
26.040087132
 30
0.0
 10
327.2032666639
 20
26.040087132
 30
0.0
 10
327.3360822782
 20
26.040087132
 30
0.0
 10
327.4446901205
 20
25.9861757693
 30
0.0
 10
327.5331466281
 20
25.8851573907
 30
0.0
 10
327.5331466281
 20
25.8851573907
 30
0.0
 10
327.5331466281
 20
26.1709399539
 30
0.0
 10
327.5331466281
 20
26.1709399539
 30
0.0
  0
SPLINE
  5
242
330
227
100
AcDbEntity
  8
0
  6
Continuous
 62
     7
100
AcDbSpline
 70
     3
 71
     3
 72
    32
 73
    28
 74
     0
 42
0.000000001
 43
0.0000001
 40
0.0
 40
0.0
 40
0.0
 40
0.0
 40
1.0
 40
1.0
 40
1.0
 40
2.0
 40
2.0
 40
2.0
 40
3.0
 40
3.0
 40
3.0
 40
4.0
 40
4.0
 40
4.0
 40
5.0
 40
5.0
 40
5.0
 40
6.0
 40
6.0
 40
6.0
 40
7.0
 40
7.0
 40
7.0
 40
8.0
 40
8.0
 40
8.0
 40
9.0
 40
9.0
 40
9.0
 40
9.0
 10
330.0650178804
 20
25.5993748276
 30
0.0
 10
330.0650178804
 20
25.5993748276
 30
0.0
 10
330.0650178804
 20
25.6333965613
 30
0.0
 10
330.0650178804
 20
25.6333965613
 30
0.0
 10
330.0650178804
 20
25.9757075435
 30
0.0
 10
329.8921613025
 20
26.2473580019
 30
0.0
 10
329.5255116954
 20
26.2473580019
 30
0.0
 10
329.153889681
 20
26.2473580019
 30
0.0
 10
328.9641530891
 20
25.9809416564
 30
0.0
 10
328.9641530891
 20
25.6260688032
 30
0.0
 10
328.9641530891
 20
25.2863748774
 30
0.0
 10
329.1782283059
 20
25.0204819432
 30
0.0
 10
329.5303532498
 20
25.0204819432
 30
0.0
 10
329.754373281
 20
25.0204819432
 30
0.0
 10
329.9565408909
 20
25.1361558378
 30
0.0
 10
330.0650178804
 20
25.3355755385
 30
0.0
 10
330.0650178804
 20
25.3355755385
 30
0.0
 10
329.8773749337
 20
25.4423514412
 30
0.0
 10
329.8773749337
 20
25.4423514412
 30
0.0
 10
329.7938908332
 20
25.3036474499
 30
0.0
 10
329.7026864163
 20
25.2178079987
 30
0.0
 10
329.5331011591
 20
25.2178079987
 30
0.0
 10
329.3211195875
 20
25.2178079987
 30
0.0
 10
329.1881731204
 20
25.4025721833
 30
0.0
 10
329.1858177696
 20
25.5993748276
 30
0.0
 10
329.1858177696
 20
25.5993748276
 30
0.0
 10
330.0650178804
 20
25.5993748276
 30
0.0
 10
330.0650178804
 20
25.5993748276
 30
0.0
  0
SPLINE
  5
243
330
227
100
AcDbEntity
  8
0
  6
Continuous
 62
     7
100
AcDbSpline
 70
     3
 71
     3
 72
    14
 73
    10
 74
     0
 42
0.000000001
 43
0.0000001
 40
0.0
 40
0.0
 40
0.0
 40
0.0
 40
1.0
 40
1.0
 40
1.0
 40
2.0
 40
2.0
 40
2.0
 40
3.0
 40
3.0
 40
3.0
 40
3.0
 10
329.1978562292
 20
25.7668664397
 30
0.0
 10
329.2254661746
 20
25.9317409954
 30
0.0
 10
329.3533093817
 20
26.054742648
 30
0.0
 10
329.5255116954
 20
26.054742648
 30
0.0
 10
329.7026864163
 20
26.054742648
 30
0.0
 10
329.816135813
 20
25.9390687534
 30
0.0
 10
329.8433531999
 20
25.7668664397
 30
0.0
 10
329.8433531999
 20
25.7668664397
 30
0.0
 10
329.1978562292
 20
25.7668664397
 30
0.0
 10
329.1978562292
 20
25.7668664397
 30
0.0
  0
SPLINE
  5
244
330
227
100
AcDbEntity
  8
0
  6
Continuous
 62
     7
100
AcDbSpline
 70
     3
 71
     3
 72
    20
 73
    16
 74
     0
 42
0.000000001
 43
0.0000001
 40
0.0
 40
0.0
 40
0.0
 40
0.0
 40
1.0
 40
1.0
 40
1.0
 40
2.0
 40
2.0
 40
2.0
 40
3.0
 40
3.0
 40
3.0
 40
4.0
 40
4.0
 40
4.0
 40
5.0
 40
5.0
 40
5.0
 40
5.0
 10
332.0890493306
 20
25.9762309548
 30
0.0
 10
332.0890493306
 20
25.9762309548
 30
0.0
 10
332.5001888972
 20
25.4737561185
 30
0.0
 10
332.5001888972
 20
25.4737561185
 30
0.0
 10
332.3841224441
 20
25.3580822239
 30
0.0
 10
332.2463344226
 20
25.2277528132
 30
0.0
 10
332.0743938145
 20
25.2277528132
 30
0.0
 10
331.8969573879
 20
25.2277528132
 30
0.0
 10
331.7294657758
 20
25.3921039576
 30
0.0
 10
331.7294657758
 20
25.5690169729
 30
0.0
 10
331.7294657758
 20
25.7469768107
 30
0.0
 10
331.9392228494
 20
25.8731189311
 30
0.0
 10
332.0668043508
 20
25.9610520275
 30
0.0
 10
332.0668043508
 20
25.9610520275
 30
0.0
 10
332.0890493306
 20
25.9762309548
 30
0.0
 10
332.0890493306
 20
25.9762309548
 30
0.0
  0
SPLINE
  5
245
330
227
100
AcDbEntity
  8
0
  6
Continuous
 62
     7
100
AcDbSpline
 70
     3
 71
     3
 72
    23
 73
    19
 74
     0
 42
0.000000001
 43
0.0000001
 40
0.0
 40
0.0
 40
0.0
 40
0.0
 40
1.0
 40
1.0
 40
1.0
 40
2.0
 40
2.0
 40
2.0
 40
3.0
 40
3.0
 40
3.0
 40
4.0
 40
4.0
 40
4.0
 40
5.0
 40
5.0
 40
5.0
 40
6.0
 40
6.0
 40
6.0
 40
6.0
 10
332.1383808444
 20
26.2672476309
 30
0.0
 10
332.1383808444
 20
26.2672476309
 30
0.0
 10
332.0767491653
 20
26.3457593241
 30
0.0
 10
332.0767491653
 20
26.3457593241
 30
0.0
 10
332.0228378026
 20
26.4143262028
 30
0.0
 10
331.9660476779
 20
26.4834164928
 30
0.0
 10
331.9660476779
 20
26.5771071133
 30
0.0
 10
331.9660476779
 20
26.6959214757
 30
0.0
 10
332.0619627964
 20
26.7733863463
 30
0.0
 10
332.1729259894
 20
26.7733863463
 30
0.0
 10
332.2961893477
 20
26.7733863463
 30
0.0
 10
332.3894874098
 20
26.7022024111
 30
0.0
 10
332.3894874098
 20
26.5718730004
 30
0.0
 10
332.3894874098
 20
26.4368328882
 30
0.0
 10
332.2613824971
 20
26.3604148401
 30
0.0
 10
332.1678227294
 20
26.2866138485
 30
0.0
 10
332.1678227294
 20
26.2866138485
 30
0.0
 10
332.1383808444
 20
26.2672476309
 30
0.0
 10
332.1383808444
 20
26.2672476309
 30
0.0
  0
SPLINE
  5
246
330
227
100
AcDbEntity
  8
0
  6
Continuous
 62
     7
100
AcDbSpline
 70
     3
 71
     3
 72
    50
 73
    46
 74
     0
 42
0.000000001
 43
0.0000001
 40
0.0
 40
0.0
 40
0.0
 40
0.0
 40
1.0
 40
1.0
 40
1.0
 40
2.0
 40
2.0
 40
2.0
 40
3.0
 40
3.0
 40
3.0
 40
4.0
 40
4.0
 40
4.0
 40
5.0
 40
5.0
 40
5.0
 40
6.0
 40
6.0
 40
6.0
 40
7.0
 40
7.0
 40
7.0
 40
8.0
 40
8.0
 40
8.0
 40
9.0
 40
9.0
 40
9.0
 40
10.0
 40
10.0
 40
10.0
 40
11.0
 40
11.0
 40
11.0
 40
12.0
 40
12.0
 40
12.0
 40
13.0
 40
13.0
 40
13.0
 40
14.0
 40
14.0
 40
14.0
 40
15.0
 40
15.0
 40
15.0
 40
15.0
 10
332.8405370871
 20
25.0602612011
 30
0.0
 10
332.8405370871
 20
25.0602612011
 30
0.0
 10
333.1259270918
 20
25.0602612011
 30
0.0
 10
333.1259270918
 20
25.0602612011
 30
0.0
 10
333.1259270918
 20
25.0602612011
 30
0.0
 10
332.793560924
 20
25.471139062
 30
0.0
 10
332.793560924
 20
25.471139062
 30
0.0
 10
332.793560924
 20
25.471139062
 30
0.0
 10
333.0200671588
 20
25.7370319963
 30
0.0
 10
333.0200671588
 20
25.7370319963
 30
0.0
 10
333.0200671588
 20
25.7370319963
 30
0.0
 10
332.8718109116
 20
25.8898680923
 30
0.0
 10
332.8718109116
 20
25.8898680923
 30
0.0
 10
332.8718109116
 20
25.8898680923
 30
0.0
 10
332.6559037553
 20
25.6386306742
 30
0.0
 10
332.6559037553
 20
25.6386306742
 30
0.0
 10
332.6559037553
 20
25.6386306742
 30
0.0
 10
332.2688411079
 20
26.1065603655
 30
0.0
 10
332.2688411079
 20
26.1065603655
 30
0.0
 10
332.4242942604
 20
26.2206640263
 30
0.0
 10
332.6065722414
 20
26.3604148401
 30
0.0
 10
332.6065722414
 20
26.5697793553
 30
0.0
 10
332.6065722414
 20
26.8136890154
 30
0.0
 10
332.4045354843
 20
26.9571037083
 30
0.0
 10
332.1780292495
 20
26.9571037083
 30
0.0
 10
331.9338578837
 20
26.9571037083
 30
0.0
 10
331.7494862575
 20
26.8063612574
 30
0.0
 10
331.7494862575
 20
26.5498897263
 30
0.0
 10
331.7494862575
 20
26.3923429287
 30
0.0
 10
331.8481492853
 20
26.25468576
 30
0.0
 10
331.953485807
 20
26.1437225669
 30
0.0
 10
331.953485807
 20
26.1437225669
 30
0.0
 10
331.8379427652
 20
26.0599767609
 30
0.0
 10
331.8379427652
 20
26.0599767609
 30
0.0
 10
331.660244633
 20
25.9317409954
 30
0.0
 10
331.5129043554
 20
25.8040286411
 30
0.0
 10
331.5129043554
 20
25.5669233277
 30
0.0
 10
331.5129043554
 20
25.2465956195
 30
0.0
 10
331.7714695316
 20
25.0204819432
 30
0.0
 10
332.0818524253
 20
25.0204819432
 30
0.0
 10
332.3007691965
 20
25.0204819432
 30
0.0
 10
332.4979643992
 20
25.145577241
 30
0.0
 10
332.6382386243
 20
25.3114986192
 30
0.0
 10
332.6382386243
 20
25.3114986192
 30
0.0
 10
332.8405370871
 20
25.0602612011
 30
0.0
 10
332.8405370871
 20
25.0602612011
 30
0.0
  0
LWPOLYLINE
  5
247
330
227
100
AcDbEntity
  8
0
  6
Continuous
 62
     7
100
AcDbPolyline
 90
        2
 70
     0
 43
0.2
 10
334.7759811768
 20
26.9168010391
 10
334.5446333876
 20
26.9168010391
  0
LWPOLYLINE
  5
248
330
227
100
AcDbEntity
  8
0
  6
Continuous
 62
     7
100
AcDbPolyline
 90
        2
 70
     0
 43
0.2
 10
334.5446333876
 20
26.9168010391
 10
334.5446333876
 20
25.0597377898
  0
LWPOLYLINE
  5
249
330
227
100
AcDbEntity
  8
0
  6
Continuous
 62
     7
100
AcDbPolyline
 90
        2
 70
     0
 43
0.2
 10
334.5446333876
 20
25.0597377898
 10
335.3399568395
 20
25.0597377898
  0
LWPOLYLINE
  5
24A
330
227
100
AcDbEntity
  8
0
  6
Continuous
 62
     7
100
AcDbPolyline
 90
        2
 70
     0
 43
0.2
 10
335.3399568395
 20
25.0597377898
 10
335.3399568395
 20
25.2717193614
  0
LWPOLYLINE
  5
24B
330
227
100
AcDbEntity
  8
0
  6
Continuous
 62
     7
100
AcDbPolyline
 90
        2
 70
     0
 43
0.2
 10
335.3399568395
 20
25.2717193614
 10
334.7759811768
 20
25.2717193614
  0
LWPOLYLINE
  5
24C
330
227
100
AcDbEntity
  8
0
  6
Continuous
 62
     7
100
AcDbPolyline
 90
        2
 70
     0
 43
0.2
 10
334.7759811768
 20
25.2717193614
 10
334.7759811768
 20
26.9168010391
  0
LWPOLYLINE
  5
24D
330
227
100
AcDbEntity
  8
0
  6
Continuous
 62
     7
100
AcDbPolyline
 90
        2
 70
     0
 43
0.2
 10
337.019060251
 20
26.2122894457
 10
336.7979189819
 20
26.2122894457
  0
LWPOLYLINE
  5
24E
330
227
100
AcDbEntity
  8
0
  6
Continuous
 62
     7
100
AcDbPolyline
 90
        2
 70
     0
 43
0.2
 10
336.7979189819
 20
26.2122894457
 10
336.7979189819
 20
25.0602612011
  0
LWPOLYLINE
  5
24F
330
227
100
AcDbEntity
  8
0
  6
Continuous
 62
     7
100
AcDbPolyline
 90
        2
 70
     0
 43
0.2
 10
336.7979189819
 20
25.0602612011
 10
337.019060251
 20
25.0602612011
  0
LWPOLYLINE
  5
250
330
227
100
AcDbEntity
  8
0
  6
Continuous
 62
     7
100
AcDbPolyline
 90
        2
 70
     0
 43
0.2
 10
337.019060251
 20
25.0602612011
 10
337.019060251
 20
26.2122894457
  0
SPLINE
  5
251
330
227
100
AcDbEntity
  8
0
  6
Continuous
 62
     7
100
AcDbSpline
 70
     3
 71
     3
 72
    17
 73
    13
 74
     0
 42
0.000000001
 43
0.0000001
 40
0.0
 40
0.0
 40
0.0
 40
0.0
 40
1.0
 40
1.0
 40
1.0
 40
2.0
 40
2.0
 40
2.0
 40
3.0
 40
3.0
 40
3.0
 40
4.0
 40
4.0
 40
4.0
 40
4.0
 10
336.9086204693
 20
26.894817765
 30
0.0
 10
336.8246129576
 20
26.894817765
 30
0.0
 10
336.7560460788
 20
26.825727475
 30
0.0
 10
336.7560460788
 20
26.7398880238
 30
0.0
 10
336.7560460788
 20
26.6556188065
 30
0.0
 10
336.8246129576
 20
26.5896689842
 30
0.0
 10
336.9086204693
 20
26.5896689842
 30
0.0
 10
336.9923662753
 20
26.5896689842
 30
0.0
 10
337.0611948597
 20
26.6556188065
 30
0.0
 10
337.0611948597
 20
26.7398880238
 30
0.0
 10
337.0611948597
 20
26.825727475
 30
0.0
 10
336.9923662753
 20
26.894817765
 30
0.0
 10
336.9086204693
 20
26.894817765
 30
0.0
  0
SPLINE
  5
252
330
227
100
AcDbEntity
  8
0
  6
Continuous
 62
     7
100
AcDbSpline
 70
     3
 71
     3
 72
    17
 73
    13
 74
     0
 42
0.000000001
 43
0.0000001
 40
0.0
 40
0.0
 40
0.0
 40
0.0
 40
1.0
 40
1.0
 40
1.0
 40
2.0
 40
2.0
 40
2.0
 40
3.0
 40
3.0
 40
3.0
 40
4.0
 40
4.0
 40
4.0
 40
4.0
 10
339.1493441926
 20
25.2178079987
 30
0.0
 10
338.915379347
 20
25.2178079987
 30
0.0
 10
338.7850499363
 20
25.4198447558
 30
0.0
 10
338.7850499363
 20
25.6360136177
 30
0.0
 10
338.7850499363
 20
25.8506122457
 30
0.0
 10
338.9208751655
 20
26.0495085351
 30
0.0
 10
339.1493441926
 20
26.0495085351
 30
0.0
 10
339.3888048568
 20
26.0495085351
 30
0.0
 10
339.5243683804
 20
25.8605570602
 30
0.0
 10
339.5243683804
 20
25.6360136177
 30
0.0
 10
339.5243683804
 20
25.4098999414
 30
0.0
 10
339.3911602076
 20
25.2178079987
 30
0.0
 10
339.1493441926
 20
25.2178079987
 30
0.0
  0
SPLINE
  5
253
330
227
100
AcDbEntity
  8
0
  6
Continuous
 62
     7
100
AcDbSpline
 70
     3
 71
     3
 72
    50
 73
    46
 74
     0
 42
0.000000001
 43
0.0000001
 40
0.0
 40
0.0
 40
0.0
 40
0.0
 40
1.0
 40
1.0
 40
1.0
 40
2.0
 40
2.0
 40
2.0
 40
3.0
 40
3.0
 40
3.0
 40
4.0
 40
4.0
 40
4.0
 40
5.0
 40
5.0
 40
5.0
 40
6.0
 40
6.0
 40
6.0
 40
7.0
 40
7.0
 40
7.0
 40
8.0
 40
8.0
 40
8.0
 40
9.0
 40
9.0
 40
9.0
 40
10.0
 40
10.0
 40
10.0
 40
11.0
 40
11.0
 40
11.0
 40
12.0
 40
12.0
 40
12.0
 40
13.0
 40
13.0
 40
13.0
 40
14.0
 40
14.0
 40
14.0
 40
15.0
 40
15.0
 40
15.0
 40
15.0
 10
339.7334711899
 20
26.2128128569
 30
0.0
 10
339.7334711899
 20
26.2128128569
 30
0.0
 10
339.5118065095
 20
26.2128128569
 30
0.0
 10
339.5118065095
 20
26.2128128569
 30
0.0
 10
339.5118065095
 20
26.2128128569
 30
0.0
 10
339.5118065095
 20
26.0154868014
 30
0.0
 10
339.5118065095
 20
26.0154868014
 30
0.0
 10
339.5118065095
 20
26.0154868014
 30
0.0
 10
339.5070958079
 20
26.0154868014
 30
0.0
 10
339.5070958079
 20
26.0154868014
 30
0.0
 10
339.4157605382
 20
26.158378083
 30
0.0
 10
339.2778416638
 20
26.2468345907
 30
0.0
 10
339.1051159388
 20
26.2468345907
 30
0.0
 10
338.772749771
 20
26.2468345907
 30
0.0
 10
338.5636469615
 20
25.9589583823
 30
0.0
 10
338.5636469615
 20
25.6433413757
 30
0.0
 10
338.5636469615
 20
25.3135922644
 30
0.0
 10
338.7607113114
 20
25.0204819432
 30
0.0
 10
339.1155841646
 20
25.0204819432
 30
0.0
 10
339.2778416638
 20
25.0204819432
 30
0.0
 10
339.4178541833
 20
25.1089384508
 30
0.0
 10
339.5070958079
 20
25.2397912728
 30
0.0
 10
339.5070958079
 20
25.2397912728
 30
0.0
 10
339.5118065095
 20
25.2397912728
 30
0.0
 10
339.5118065095
 20
25.2397912728
 30
0.0
 10
339.5118065095
 20
25.2397912728
 30
0.0
 10
339.5118065095
 20
25.0204819432
 30
0.0
 10
339.5118065095
 20
25.0204819432
 30
0.0
 10
339.5118065095
 20
24.7839000411
 30
0.0
 10
339.4552780904
 20
24.5970422113
 30
0.0
 10
339.1820573981
 20
24.5970422113
 30
0.0
 10
338.9797589354
 20
24.5970422113
 30
0.0
 10
338.8371293594
 20
24.7153331624
 30
0.0
 10
338.8371293594
 20
24.9215572098
 30
0.0
 10
338.8371293594
 20
24.9215572098
 30
0.0
 10
338.615464679
 20
24.9215572098
 30
0.0
 10
338.615464679
 20
24.9215572098
 30
0.0
 10
338.6204370862
 20
24.5970422113
 30
0.0
 10
338.8515231698
 20
24.4002395671
 30
0.0
 10
339.171850878
 20
24.4002395671
 30
0.0
 10
339.6198909404
 20
24.4002395671
 30
0.0
 10
339.7334711899
 20
24.6854987189
 30
0.0
 10
339.7334711899
 20
25.0822444751
 30
0.0
 10
339.7334711899
 20
25.0822444751
 30
0.0
 10
339.7334711899
 20
26.2128128569
 30
0.0
 10
339.7334711899
 20
26.2128128569
 30
0.0
  0
SPLINE
  5
254
330
227
100
AcDbEntity
  8
0
  6
Continuous
 62
     7
100
AcDbSpline
 70
     3
 71
     3
 72
    44
 73
    40
 74
     0
 42
0.000000001
 43
0.0000001
 40
0.0
 40
0.0
 40
0.0
 40
0.0
 40
1.0
 40
1.0
 40
1.0
 40
2.0
 40
2.0
 40
2.0
 40
3.0
 40
3.0
 40
3.0
 40
4.0
 40
4.0
 40
4.0
 40
5.0
 40
5.0
 40
5.0
 40
6.0
 40
6.0
 40
6.0
 40
7.0
 40
7.0
 40
7.0
 40
8.0
 40
8.0
 40
8.0
 40
9.0
 40
9.0
 40
9.0
 40
10.0
 40
10.0
 40
10.0
 40
11.0
 40
11.0
 40
11.0
 40
12.0
 40
12.0
 40
12.0
 40
13.0
 40
13.0
 40
13.0
 40
13.0
 10
341.3023965253
 20
27.1978729007
 30
0.0
 10
341.3023965253
 20
27.1978729007
 30
0.0
 10
341.3023965253
 20
25.0597377898
 30
0.0
 10
341.3023965253
 20
25.0597377898
 30
0.0
 10
341.3023965253
 20
25.0597377898
 30
0.0
 10
341.5237995001
 20
25.0597377898
 30
0.0
 10
341.5237995001
 20
25.0597377898
 30
0.0
 10
341.5237995001
 20
25.0597377898
 30
0.0
 10
341.5237995001
 20
25.5894300131
 30
0.0
 10
341.5237995001
 20
25.5894300131
 30
0.0
 10
341.5237995001
 20
25.7993179395
 30
0.0
 10
341.5237995001
 20
26.0500319464
 30
0.0
 10
341.8090586519
 20
26.0500319464
 30
0.0
 10
342.0359574452
 20
26.0500319464
 30
0.0
 10
342.0629131266
 20
25.9170854793
 30
0.0
 10
342.0629131266
 20
25.7208062464
 30
0.0
 10
342.0629131266
 20
25.7208062464
 30
0.0
 10
342.0629131266
 20
25.0597377898
 30
0.0
 10
342.0629131266
 20
25.0597377898
 30
0.0
 10
342.0629131266
 20
25.0597377898
 30
0.0
 10
342.2848395126
 20
25.0597377898
 30
0.0
 10
342.2848395126
 20
25.0597377898
 30
0.0
 10
342.2848395126
 20
25.0597377898
 30
0.0
 10
342.2848395126
 20
25.7469768107
 30
0.0
 10
342.2848395126
 20
25.7469768107
 30
0.0
 10
342.2848395126
 20
26.027525261
 30
0.0
 10
342.2008320009
 20
26.2473580019
 30
0.0
 10
341.8757935911
 20
26.2473580019
 30
0.0
 10
341.7360427773
 20
26.2473580019
 30
0.0
 10
341.5978621973
 20
26.1808847684
 30
0.0
 10
341.5285102016
 20
26.0578831157
 30
0.0
 10
341.5285102016
 20
26.0578831157
 30
0.0
 10
341.5237995001
 20
26.0578831157
 30
0.0
 10
341.5237995001
 20
26.0578831157
 30
0.0
 10
341.5237995001
 20
26.0578831157
 30
0.0
 10
341.5237995001
 20
27.1978729007
 30
0.0
 10
341.5237995001
 20
27.1978729007
 30
0.0
 10
341.5237995001
 20
27.1978729007
 30
0.0
 10
341.3023965253
 20
27.1978729007
 30
0.0
 10
341.3023965253
 20
27.1978729007
 30
0.0
  0
LWPOLYLINE
  5
255
330
227
100
AcDbEntity
  8
0
  6
Continuous
 62
     7
100
AcDbPolyline
 90
        2
 70
     0
 43
0.2
 10
344.1246301895
 20
26.005541987
 10
344.341060757
 20
26.005541987
  0
LWPOLYLINE
  5
256
330
227
100
AcDbEntity
  8
0
  6
Continuous
 62
     7
100
AcDbPolyline
 90
        2
 70
     0
 43
0.2
 10
344.341060757
 20
26.005541987
 10
344.341060757
 20
26.2122894457
  0
LWPOLYLINE
  5
257
330
227
100
AcDbEntity
  8
0
  6
Continuous
 62
     7
100
AcDbPolyline
 90
        2
 70
     0
 43
0.2
 10
344.341060757
 20
26.2122894457
 10
344.1246301895
 20
26.2122894457
  0
LWPOLYLINE
  5
258
330
227
100
AcDbEntity
  8
0
  6
Continuous
 62
     7
100
AcDbPolyline
 90
        2
 70
     0
 43
0.2
 10
344.1246301895
 20
26.2122894457
 10
344.1246301895
 20
26.65300175
  0
LWPOLYLINE
  5
259
330
227
100
AcDbEntity
  8
0
  6
Continuous
 62
     7
100
AcDbPolyline
 90
        2
 70
     0
 43
0.2
 10
344.1246301895
 20
26.65300175
 10
343.9029655091
 20
26.65300175
  0
LWPOLYLINE
  5
25A
330
227
100
AcDbEntity
  8
0
  6
Continuous
 62
     7
100
AcDbPolyline
 90
        2
 70
     0
 43
0.2
 10
343.9029655091
 20
26.65300175
 10
343.9029655091
 20
26.2122894457
  0
LWPOLYLINE
  5
25B
330
227
100
AcDbEntity
  8
0
  6
Continuous
 62
     7
100
AcDbPolyline
 90
        2
 70
     0
 43
0.2
 10
343.9029655091
 20
26.2122894457
 10
343.7823192072
 20
26.2122894457
  0
LWPOLYLINE
  5
25C
330
227
100
AcDbEntity
  8
0
  6
Continuous
 62
     7
100
AcDbPolyline
 90
        2
 70
     0
 43
0.2
 10
343.7823192072
 20
26.2122894457
 10
343.7823192072
 20
26.005541987
  0
LWPOLYLINE
  5
25D
330
227
100
AcDbEntity
  8
0
  6
Continuous
 62
     7
100
AcDbPolyline
 90
        2
 70
     0
 43
0.2
 10
343.7823192072
 20
26.005541987
 10
343.9029655091
 20
26.005541987
  0
LWPOLYLINE
  5
25E
330
227
100
AcDbEntity
  8
0
  6
Continuous
 62
     7
100
AcDbPolyline
 90
        2
 70
     0
 43
0.2
 10
343.9029655091
 20
26.005541987
 10
343.9029655091
 20
25.0597377898
  0
LWPOLYLINE
  5
25F
330
227
100
AcDbEntity
  8
0
  6
Continuous
 62
     7
100
AcDbPolyline
 90
        2
 70
     0
 43
0.2
 10
343.9029655091
 20
25.0597377898
 10
344.1246301895
 20
25.0597377898
  0
LWPOLYLINE
  5
260
330
227
100
AcDbEntity
  8
0
  6
Continuous
 62
     7
100
AcDbPolyline
 90
        2
 70
     0
 43
0.2
 10
344.1246301895
 20
25.0597377898
 10
344.1246301895
 20
26.005541987
  0
SPLINE
  5
261
330
227
100
AcDbEntity
  8
0
  6
Continuous
 62
     7
100
AcDbSpline
 70
     3
 71
     3
 72
    20
 73
    16
 74
     0
 42
0.000000001
 43
0.0000001
 40
0.0
 40
0.0
 40
0.0
 40
0.0
 40
1.0
 40
1.0
 40
1.0
 40
2.0
 40
2.0
 40
2.0
 40
3.0
 40
3.0
 40
3.0
 40
4.0
 40
4.0
 40
4.0
 40
5.0
 40
5.0
 40
5.0
 40
5.0
 10
331.9066404967
 20
35.4206642332
 30
0.0
 10
331.9066404967
 20
35.4206642332
 30
0.0
 10
334.2229971512
 20
32.5911028109
 30
0.0
 10
334.2229971512
 20
32.5911028109
 30
0.0
 10
333.5713500978
 20
31.9389323462
 30
0.0
 10
332.7944768938
 20
31.2030160755
 30
0.0
 10
331.8232872491
 20
31.2030160755
 30
0.0
 10
330.8247493647
 20
31.2030160755
 30
0.0
 10
329.8814313711
 20
32.1325945228
 30
0.0
 10
329.8814313711
 20
33.1317866713
 30
0.0
 10
329.8814313711
 20
34.1309788198
 30
0.0
 10
331.0602844442
 20
34.8375840585
 30
0.0
 10
331.7818069046
 20
35.3374418384
 30
0.0
 10
331.7818069046
 20
35.3374418384
 30
0.0
 10
331.9066404967
 20
35.4206642332
 30
0.0
 10
331.9066404967
 20
35.4206642332
 30
0.0
  0
SPLINE
  5
262
330
227
100
AcDbEntity
  8
0
  6
Continuous
 62
     7
100
AcDbSpline
 70
     3
 71
     3
 72
    23
 73
    19
 74
     0
 42
0.000000001
 43
0.0000001
 40
0.0
 40
0.0
 40
0.0
 40
0.0
 40
1.0
 40
1.0
 40
1.0
 40
2.0
 40
2.0
 40
2.0
 40
3.0
 40
3.0
 40
3.0
 40
4.0
 40
4.0
 40
4.0
 40
5.0
 40
5.0
 40
5.0
 40
6.0
 40
6.0
 40
6.0
 40
6.0
 10
332.1840484793
 20
37.0584181529
 30
0.0
 10
332.1840484793
 20
37.0584181529
 30
0.0
 10
331.8375502067
 20
37.5017475137
 30
0.0
 10
331.8375502067
 20
37.5017475137
 30
0.0
 10
331.5317471618
 20
37.8898569837
 30
0.0
 10
331.2128588347
 20
38.2783590121
 30
0.0
 10
331.2128588347
 20
38.8053033262
 30
0.0
 10
331.2128588347
 20
39.4714750428
 30
0.0
 10
331.7541969591
 20
39.9151969621
 30
0.0
 10
332.3781032143
 20
39.9151969621
 30
0.0
 10
333.0718848763
 20
39.9151969621
 30
0.0
 10
333.5990908961
 20
39.5129553874
 30
0.0
 10
333.5990908961
 20
38.7779550864
 30
0.0
 10
333.5990908961
 20
38.0146905758
 30
0.0
 10
332.8778301414
 20
37.58457735
 30
0.0
 10
332.3507549745
 20
37.1688579346
 30
0.0
 10
332.3507549745
 20
37.1688579346
 30
0.0
 10
332.1840484793
 20
37.0584181529
 30
0.0
 10
332.1840484793
 20
37.0584181529
 30
0.0
  0
SPLINE
  5
263
330
227
100
AcDbEntity
  8
0
  6
Continuous
 62
     7
100
AcDbSpline
 70
     3
 71
     3
 72
    50
 73
    46
 74
     0
 42
0.000000001
 43
0.0000001
 40
0.0
 40
0.0
 40
0.0
 40
0.0
 40
1.0
 40
1.0
 40
1.0
 40
2.0
 40
2.0
 40
2.0
 40
3.0
 40
3.0
 40
3.0
 40
4.0
 40
4.0
 40
4.0
 40
5.0
 40
5.0
 40
5.0
 40
6.0
 40
6.0
 40
6.0
 40
7.0
 40
7.0
 40
7.0
 40
8.0
 40
8.0
 40
8.0
 40
9.0
 40
9.0
 40
9.0
 40
10.0
 40
10.0
 40
10.0
 40
11.0
 40
11.0
 40
11.0
 40
12.0
 40
12.0
 40
12.0
 40
13.0
 40
13.0
 40
13.0
 40
14.0
 40
14.0
 40
14.0
 40
15.0
 40
15.0
 40
15.0
 40
15.0
 10
336.1376356422
 20
30.2598289348
 30
0.0
 10
336.1376356422
 20
30.2598289348
 30
0.0
 10
337.7468636468
 20
30.2598289348
 30
0.0
 10
337.7468636468
 20
30.2598289348
 30
0.0
 10
337.7468636468
 20
30.2598289348
 30
0.0
 10
335.8738363531
 20
32.5769707062
 30
0.0
 10
335.8738363531
 20
32.5769707062
 30
0.0
 10
335.8738363531
 20
32.5769707062
 30
0.0
 10
337.1501747786
 20
34.0744504008
 30
0.0
 10
337.1501747786
 20
34.0744504008
 30
0.0
 10
337.1501747786
 20
34.0744504008
 30
0.0
 10
336.3179508309
 20
34.9354619693
 30
0.0
 10
336.3179508309
 20
34.9354619693
 30
0.0
 10
336.3179508309
 20
34.9354619693
 30
0.0
 10
335.0973557076
 20
33.5201578469
 30
0.0
 10
335.0973557076
 20
33.5201578469
 30
0.0
 10
335.0973557076
 20
33.5201578469
 30
0.0
 10
332.9194413388
 20
36.1555336813
 30
0.0
 10
332.9194413388
 20
36.1555336813
 30
0.0
 10
333.7930147782
 20
36.7935720412
 30
0.0
 10
334.8196860194
 20
37.58457735
 30
0.0
 10
334.8196860194
 20
38.7634304231
 30
0.0
 10
334.8196860194
 20
40.1371233482
 30
0.0
 10
333.6817898795
 20
40.9416064976
 30
0.0
 10
332.4064982766
 20
40.9416064976
 30
0.0
 10
331.0330670573
 20
40.9416064976
 30
0.0
 10
329.9921328585
 20
40.0953812979
 30
0.0
 10
329.9921328585
 20
38.6527289358
 30
0.0
 10
329.9921328585
 20
37.7651542444
 30
0.0
 10
330.547472235
 20
36.9882810403
 30
0.0
 10
331.1436376918
 20
36.3638513739
 30
0.0
 10
331.1436376918
 20
36.3638513739
 30
0.0
 10
330.4917289328
 20
35.8922578035
 30
0.0
 10
330.4917289328
 20
35.8922578035
 30
0.0
 10
329.4931910484
 20
35.1709970488
 30
0.0
 10
328.6603128365
 20
34.4497362942
 30
0.0
 10
328.6603128365
 20
33.1181779778
 30
0.0
 10
328.6603128365
 20
31.3145026798
 30
0.0
 10
330.1173590091
 20
30.0379025487
 30
0.0
 10
331.8648984465
 20
30.0379025487
 30
0.0
 10
333.0997565274
 20
30.0379025487
 30
0.0
 10
334.2091267521
 20
30.7460780212
 30
0.0
 10
335.000001208
 20
31.6746096459
 30
0.0
 10
335.000001208
 20
31.6746096459
 30
0.0
 10
336.1376356422
 20
30.2598289348
 30
0.0
 10
336.1376356422
 20
30.2598289348
 30
0.0
  0
LINE
  5
264
330
227
100
AcDbEntity
  8
0
  6
Continuous
 62
     7
100
AcDbLine
 10
321.9404970172
 20
28.2337038394
 30
0.0
 11
344.3544077449
 21
28.2337038394
 31
0.0
  0
LINE
  5
265
330
227
100
AcDbEntity
  8
0
  6
Continuous
 62
     7
100
AcDbLine
 10
344.3544077449
 20
28.2337038394
 30
0.0
 11
344.3544077449
 21
50.6476145671
 31
0.0
  0
LINE
  5
266
330
227
100
AcDbEntity
  8
0
  6
Continuous
 62
     7
100
AcDbLine
 10
344.3544077449
 20
50.6476145671
 30
0.0
 11
321.9404970172
 21
50.6476145671
 31
0.0
  0
LINE
  5
267
330
227
100
AcDbEntity
  8
0
  6
Continuous
 62
     7
100
AcDbLine
 10
321.9404970172
 20
50.6476145671
 30
0.0
 11
321.9404970172
 21
28.2337038394
 31
0.0
  0
ENDBLK
  5
268
330
227
100
AcDbEntity
  8
0
  6
ByBlock
 62
     0
100
AcDbBlockEnd
  0
BLOCK
  5
295
330
228
100
AcDbEntity
  8
0
100
AcDbBlockBegin
  2
*T6
 70
     1
 10
0.0
 20
0.0
 30
0.0
  3
*T6
  1
*T6
  0
MTEXT
  5
296
330
228
100
AcDbEntity
  8
0
  6
Continuous
 62
     0
100
AcDbMText
 10
30.06
 20
-3.0
 30
0.0
 40
3.0
 41
39.88
 46
0.0
 71
     4
 72
     5
  1
251_C_030
 73
     1
 44
1.0
  0
MTEXT
  5
297
330
228
100
AcDbEntity
  8
0
  6
Continuous
 62
     0
100
AcDbMText
 10
70.06
 20
-0.06
 30
0.0
 40
3.5
 41
19.88
 46
0.0
 71
     1
 72
     5
  1
Rev:00
 73
     1
 44
1.0
  0
MTEXT
  5
298
330
228
100
AcDbEntity
  8
0
  6
Continuous
 62
     0
100
AcDbMText
 10
30.06
 20
-6.06
 30
0.0
 40
3.5
 41
39.88
 46
0.0
 71
     1
 72
     5
  1
Scale:1:1
 73
     1
 44
1.0
  0
MTEXT
  5
299
330
228
100
AcDbEntity
  8
0
  6
Continuous
 62
     0
100
AcDbMText
 10
70.06
 20
-9.0
 30
0.0
 40
3.5
 41
19.88
 46
0.0
 71
     4
 72
     5
  1
A3
 73
     1
 44
1.0
  0
MTEXT
  5
29A
330
228
100
AcDbEntity
  8
0
  6
Continuous
 62
     0
100
AcDbMText
 10
30.06
 20
-17.0
 30
0.0
 40
3.5
 41
59.88
 46
0.0
 71
     4
 72
     5
  1
BRIGHT 5.1
 73
     1
 44
1.0
  0
MTEXT
  5
29B
330
228
100
AcDbEntity
  8
0
  6
Continuous
 62
     0
100
AcDbMText
 10
30.06
 20
-24.5
 30
0.0
 40
2.5
 41
59.88
 46
0.0
 71
     4
 72
     5
  1
DATE:20/03/2014
 73
     1
 44
1.0
  0
MTEXT
  5
29C
330
228
100
AcDbEntity
  8
0
  6
Continuous
 62
     0
100
AcDbMText
 10
0.06
 20
-27.06
 30
0.0
 40
1.85
 41
89.88
 46
0.0
 71
     1
 72
     5
  1
Any integral or partial reproductions are prohibited \Pwithout prior authorisation of L & L Luce & Light s.r.l., \Pin accordance with the law in force. \PAll rights reserved.
 73
     1
 44
1.0
  0
LINE
  5
29D
330
228
100
AcDbEntity
  8
0
  6
Continuous
 62
     0
370
    -2
100
AcDbLine
 10
0.0
 20
0.0
 30
0.0
 11
10.0
 21
0.0
 31
0.0
  0
LINE
  5
29E
330
228
100
AcDbEntity
  8
0
  6
Continuous
 62
     0
370
    -2
100
AcDbLine
 10
10.0
 20
0.0
 30
0.0
 11
20.0
 21
0.0
 31
0.0
  0
LINE
  5
29F
330
228
100
AcDbEntity
  8
0
  6
Continuous
 62
     0
370
    -2
100
AcDbLine
 10
20.0
 20
0.0
 30
0.0
 11
30.0
 21
0.0
 31
0.0
  0
LINE
  5
2A0
330
228
100
AcDbEntity
  8
0
  6
Continuous
 62
     0
370
    -2
100
AcDbLine
 10
0.0
 20
0.0
 30
0.0
 11
0.0
 21
-6.0
 31
0.0
  0
LINE
  5
2A1
330
228
100
AcDbEntity
  8
0
  6
Continuous
 62
     0
370
    -2
100
AcDbLine
 10
0.0
 20
-6.0
 30
0.0
 11
0.0
 21
-12.0
 31
0.0
  0
LINE
  5
2A2
330
228
100
AcDbEntity
  8
0
  6
Continuous
 62
     0
370
    -2
100
AcDbLine
 10
0.0
 20
-12.0
 30
0.0
 11
0.0
 21
-22.0
 31
0.0
  0
LINE
  5
2A3
330
228
100
AcDbEntity
  8
0
  6
Continuous
 62
     0
370
    -2
100
AcDbLine
 10
0.0
 20
-22.0
 30
0.0
 11
0.0
 21
-27.0
 31
0.0
  0
LINE
  5
2A4
330
228
100
AcDbEntity
  8
0
  6
Continuous
 62
     0
370
    -2
100
AcDbLine
 10
30.0
 20
0.0
 30
0.0
 11
70.0
 21
0.0
 31
0.0
  0
LINE
  5
2A5
330
228
100
AcDbEntity
  8
0
  6
Continuous
 62
     0
370
    -2
100
AcDbLine
 10
30.0
 20
0.0
 30
0.0
 11
30.0
 21
-6.0
 31
0.0
  0
LINE
  5
2A6
330
228
100
AcDbEntity
  8
0
  6
Continuous
 62
     0
370
    -2
100
AcDbLine
 10
70.0
 20
0.0
 30
0.0
 11
90.0
 21
0.0
 31
0.0
  0
LINE
  5
48B
330
228
100
AcDbEntity
  8
0
  6
Continuous
 62
     0
370
    -2
100
AcDbLine
 10
70.0
 20
0.0
 30
0.0
 11
70.0
 21
-6.0
 31
0.0
  0
LINE
  5
48C
330
228
100
AcDbEntity
  8
0
  6
Continuous
 62
     0
370
    -2
100
AcDbLine
 10
90.0
 20
0.0
 30
0.0
 11
90.0
 21
-6.0
 31
0.0
  0
LINE
  5
48D
330
228
100
AcDbEntity
  8
0
  6
Continuous
 62
     0
370
    -2
100
AcDbLine
 10
30.0
 20
-6.0
 30
0.0
 11
70.0
 21
-6.0
 31
0.0
  0
LINE
  5
48E
330
228
100
AcDbEntity
  8
0
  6
Continuous
 62
     0
370
    -2
100
AcDbLine
 10
30.0
 20
-6.0
 30
0.0
 11
30.0
 21
-12.0
 31
0.0
  0
LINE
  5
48F
330
228
100
AcDbEntity
  8
0
  6
Continuous
 62
     0
370
    -2
100
AcDbLine
 10
70.0
 20
-6.0
 30
0.0
 11
90.0
 21
-6.0
 31
0.0
  0
LINE
  5
490
330
228
100
AcDbEntity
  8
0
  6
Continuous
 62
     0
370
    -2
100
AcDbLine
 10
70.0
 20
-6.0
 30
0.0
 11
70.0
 21
-12.0
 31
0.0
  0
LINE
  5
491
330
228
100
AcDbEntity
  8
0
  6
Continuous
 62
     0
370
    -2
100
AcDbLine
 10
90.0
 20
-6.0
 30
0.0
 11
90.0
 21
-12.0
 31
0.0
  0
LINE
  5
492
330
228
100
AcDbEntity
  8
0
  6
Continuous
 62
     0
370
    -2
100
AcDbLine
 10
30.0
 20
-12.0
 30
0.0
 11
70.0
 21
-12.0
 31
0.0
  0
LINE
  5
493
330
228
100
AcDbEntity
  8
0
  6
Continuous
 62
     0
370
    -2
100
AcDbLine
 10
70.0
 20
-12.0
 30
0.0
 11
90.0
 21
-12.0
 31
0.0
  0
LINE
  5
494
330
228
100
AcDbEntity
  8
0
  6
Continuous
 62
     0
370
    -2
100
AcDbLine
 10
30.0
 20
-12.0
 30
0.0
 11
30.0
 21
-22.0
 31
0.0
  0
LINE
  5
495
330
228
100
AcDbEntity
  8
0
  6
Continuous
 62
     0
370
    -2
100
AcDbLine
 10
90.0
 20
-12.0
 30
0.0
 11
90.0
 21
-22.0
 31
0.0
  0
LINE
  5
496
330
228
100
AcDbEntity
  8
0
  6
Continuous
 62
     0
370
    -2
100
AcDbLine
 10
30.0
 20
-22.0
 30
0.0
 11
70.0
 21
-22.0
 31
0.0
  0
LINE
  5
497
330
228
100
AcDbEntity
  8
0
  6
Continuous
 62
     0
370
    -2
100
AcDbLine
 10
70.0
 20
-22.0
 30
0.0
 11
90.0
 21
-22.0
 31
0.0
  0
LINE
  5
498
330
228
100
AcDbEntity
  8
0
  6
Continuous
 62
     0
370
    -2
100
AcDbLine
 10
30.0
 20
-22.0
 30
0.0
 11
30.0
 21
-27.0
 31
0.0
  0
LINE
  5
499
330
228
100
AcDbEntity
  8
0
  6
Continuous
 62
     0
370
    -2
100
AcDbLine
 10
90.0
 20
-22.0
 30
0.0
 11
90.0
 21
-27.0
 31
0.0
  0
LINE
  5
49A
330
228
100
AcDbEntity
  8
0
  6
Continuous
 62
     0
370
    -2
100
AcDbLine
 10
0.0
 20
-27.0
 30
0.0
 11
10.0
 21
-27.0
 31
0.0
  0
LINE
  5
49B
330
228
100
AcDbEntity
  8
0
  6
Continuous
 62
     0
370
    -2
100
AcDbLine
 10
10.0
 20
-27.0
 30
0.0
 11
20.0
 21
-27.0
 31
0.0
  0
LINE
  5
49C
330
228
100
AcDbEntity
  8
0
  6
Continuous
 62
     0
370
    -2
100
AcDbLine
 10
20.0
 20
-27.0
 30
0.0
 11
30.0
 21
-27.0
 31
0.0
  0
LINE
  5
49D
330
228
100
AcDbEntity
  8
0
  6
Continuous
 62
     0
370
    -2
100
AcDbLine
 10
30.0
 20
-27.0
 30
0.0
 11
70.0
 21
-27.0
 31
0.0
  0
LINE
  5
49E
330
228
100
AcDbEntity
  8
0
  6
Continuous
 62
     0
370
    -2
100
AcDbLine
 10
70.0
 20
-27.0
 30
0.0
 11
90.0
 21
-27.0
 31
0.0
  0
LINE
  5
49F
330
228
100
AcDbEntity
  8
0
  6
Continuous
 62
     0
370
    -2
100
AcDbLine
 10
0.0
 20
-27.0
 30
0.0
 11
0.0
 21
-40.0
 31
0.0
  0
LINE
  5
4A0
330
228
100
AcDbEntity
  8
0
  6
Continuous
 62
     0
370
    -2
100
AcDbLine
 10
90.0
 20
-27.0
 30
0.0
 11
90.0
 21
-40.0
 31
0.0
  0
LINE
  5
4A1
330
228
100
AcDbEntity
  8
0
  6
Continuous
 62
     0
370
    -2
100
AcDbLine
 10
0.0
 20
-40.0
 30
0.0
 11
10.0
 21
-40.0
 31
0.0
  0
LINE
  5
4A2
330
228
100
AcDbEntity
  8
0
  6
Continuous
 62
     0
370
    -2
100
AcDbLine
 10
10.0
 20
-40.0
 30
0.0
 11
20.0
 21
-40.0
 31
0.0
  0
LINE
  5
4A3
330
228
100
AcDbEntity
  8
0
  6
Continuous
 62
     0
370
    -2
100
AcDbLine
 10
20.0
 20
-40.0
 30
0.0
 11
30.0
 21
-40.0
 31
0.0
  0
LINE
  5
4A4
330
228
100
AcDbEntity
  8
0
  6
Continuous
 62
     0
370
    -2
100
AcDbLine
 10
30.0
 20
-40.0
 30
0.0
 11
70.0
 21
-40.0
 31
0.0
  0
LINE
  5
4A5
330
228
100
AcDbEntity
  8
0
  6
Continuous
 62
     0
370
    -2
100
AcDbLine
 10
70.0
 20
-40.0
 30
0.0
 11
90.0
 21
-40.0
 31
0.0
  0
ENDBLK
  5
2A7
330
228
100
AcDbEntity
  8
0
100
AcDbBlockEnd
  0
ENDSEC
  0
SECTION
  2
ENTITIES
  0
MTEXT
  5
2A8
330
220
100
AcDbEntity
  8
0
  6
Continuous
 62
     2
100
AcDbMText
 10
1.6467220993
 20
53.595027386
 30
0.0
 40
4.0
 41
2.2857142857
 46
0.0
 71
     1
 72
     1
  1
1
  7
TEXTSTYLE_2
 73
     1
 44
0.9
  0
MTEXT
  5
2A9
330
220
100
AcDbEntity
  8
0
  6
Continuous
 62
     2
100
AcDbMText
 10
1.6467220993
 20
153.595027386
 30
0.0
 40
4.0
 41
3.1428571429
 46
0.0
 71
     1
 72
     1
  1
2
  7
TEXTSTYLE_2
 73
     1
 44
0.9
  0
MTEXT
  5
2AA
330
220
100
AcDbEntity
  8
0
  6
Continuous
 62
     2
100
AcDbMText
 10
1.6467220993
 20
253.595027386
 30
0.0
 40
4.0
 41
2.8571428571
 46
0.0
 71
     1
 72
     1
  1
3
  7
TEXTSTYLE_2
 73
     1
 44
0.9
  0
MTEXT
  5
2AB
330
220
100
AcDbEntity
  8
0
  6
Continuous
 62
     2
100
AcDbMText
 10
414.6467220993
 20
60.6268709614
 30
0.0
 40
4.0
 41
2.2857142857
 46
0.0
 71
     1
 72
     1
  1
1
  7
TEXTSTYLE_2
 73
     1
 44
0.9
  0
MTEXT
  5
2AC
330
220
100
AcDbEntity
  8
0
  6
Continuous
 62
     2
100
AcDbMText
 10
414.6467220993
 20
160.6268709614
 30
0.0
 40
4.0
 41
3.1428571429
 46
0.0
 71
     1
 72
     1
  1
2
  7
TEXTSTYLE_2
 73
     1
 44
0.9
  0
MTEXT
  5
2AD
330
220
100
AcDbEntity
  8
0
  6
Continuous
 62
     2
100
AcDbMText
 10
414.6467220993
 20
260.6268709614
 30
0.0
 40
4.0
 41
2.8571428571
 46
0.0
 71
     1
 72
     1
  1
3
  7
TEXTSTYLE_2
 73
     1
 44
0.9
  0
MTEXT
  5
2AE
330
220
100
AcDbEntity
  8
0
  6
Continuous
 62
     2
100
AcDbMText
 10
362.154890719
 20
5.35876025
 30
0.0
 40
4.0
 41
3.6
 46
0.0
 71
     1
 72
     1
  1
A
  7
TEXTSTYLE_3
 73
     1
 44
0.9
  0
MTEXT
  5
2AF
330
220
100
AcDbEntity
  8
0
  6
Continuous
 62
     2
100
AcDbMText
 10
262.154890719
 20
5.35876025
 30
0.0
 40
4.0
 41
3.6
 46
0.0
 71
     1
 72
     1
  1
B
  7
TEXTSTYLE_3
 73
     1
 44
0.9
  0
MTEXT
  5
2B0
330
220
100
AcDbEntity
  8
0
  6
Continuous
 62
     2
100
AcDbMText
 10
162.154890719
 20
5.35876025
 30
0.0
 40
4.0
 41
3.6
 46
0.0
 71
     1
 72
     1
  1
C
  7
TEXTSTYLE_3
 73
     1
 44
0.9
  0
MTEXT
  5
2B1
330
220
100
AcDbEntity
  8
0
  6
Continuous
 62
     2
100
AcDbMText
 10
55.7978688212
 20
5.5353441916
 30
0.0
 40
4.0
 41
3.6
 46
0.0
 71
     1
 72
     1
  1
D
  7
TEXTSTYLE_3
 73
     1
 44
0.9
  0
MTEXT
  5
2B2
330
220
100
AcDbEntity
  8
0
  6
Continuous
 62
     2
100
AcDbMText
 10
362.154890719
 20
295.35876025
 30
0.0
 40
4.0
 41
3.6
 46
0.0
 71
     1
 72
     1
  1
A
  7
TEXTSTYLE_3
 73
     1
 44
0.9
  0
MTEXT
  5
2B3
330
220
100
AcDbEntity
  8
0
  6
Continuous
 62
     2
100
AcDbMText
 10
262.154890719
 20
295.35876025
 30
0.0
 40
4.0
 41
3.6
 46
0.0
 71
     1
 72
     1
  1
B
  7
TEXTSTYLE_3
 73
     1
 44
0.9
  0
MTEXT
  5
2B4
330
220
100
AcDbEntity
  8
0
  6
Continuous
 62
     2
100
AcDbMText
 10
162.154890719
 20
295.35876025
 30
0.0
 40
4.0
 41
3.6
 46
0.0
 71
     1
 72
     1
  1
C
  7
TEXTSTYLE_3
 73
     1
 44
0.9
  0
MTEXT
  5
2B5
330
220
100
AcDbEntity
  8
0
  6
Continuous
 62
     2
100
AcDbMText
 10
53.9878834197
 20
295.579490177
 30
0.0
 40
4.0
 41
3.6
 46
0.0
 71
     1
 72
     1
  1
D
  7
TEXTSTYLE_3
 73
     1
 44
0.9
  0
INSERT
  5
2BA
330
220
100
AcDbEntity
  8
0
  6
Continuous
 62
     2
100
AcDbBlockReference
  2
LOGO2_BL0
 10
333.1473869546
 20
37.5239270671
 30
0.0
  0
ACAD_TABLE
  5
2BB
330
220
100
AcDbEntity
  8
0
  6
Continuous
 62
     2
 92
     5592
310
D815000033000000880000001D000000000000000000F03F00000000000000000000000000000000D937513524F573400000000000000000000000000000F03F00000000000000008357C90A1083494000000000000000000000000000000000000000000000F03F0000000000000000000000000000000000000000000000
310
000000000000000000000000000000F03FC0000000260000008FC2F5285C0F3E4000000000000011C0000000000000000000000000000000000000000000000000000000000000F03F000000000000F03F000000000000000000000000000000003200350031005F0043005F00300033003000000009000000010000000000
310
000000000840333333333333EB3F0000000000000000000000000000F03F00000000000000000000000000000000000000000000000000000000000000000000000000000000740078007400000000000000BC00000026000000A4703D0AD78351407B14AE47E17A0CC0000000000000000000000000000000000000000000
310
000000000000000000F03F000000000000F03F000000000000000000000000000000005200650076003A00300030000000000006000000010000000000000000000C40333333333333EB3F0000000000000000000000000000F03F000000000000000000000000000000000000000000000000000000000000000000000000
310
00000000740078007400000000000000C0000000260000008FC2F5285C0F3E401E85EB51B81E23C0000000000000000000000000000000000000000000000000000000000000F03F000000000000F03F000000000000000000000000000000005300630061006C0065003A0031003A00310000000900000001000000000000
310
0000000C40333333333333EB3F0000000000000000000000000000F03F00000000000000000000000000000000000000000000000000000000000000000000000000000000740078007400000000000000B400000026000000A4703D0AD783514000000000008025C000000000000000000000000000000000000000000000
310
0000000000000000F03F000000000000F03F00000000000000000000000000000000410033000000000002000000010000000000000000000C40333333333333EB3F0000000000000000000000000000F03F000000000000000000000000000000000000000000000000000000000000000000000000000000007400780074
310
00000000000000C4000000260000008FC2F5285C0F3E400000000000C032C0000000000000000000000000000000000000000000000000000000000000F03F000000000000F03F00000000000000000000000000000000420052004900470048005400200035002E003100000000000A000000010000000000000000000C40
310
333333333333EB3F0000000000000000000000000000F03F00000000000000000000000000000000000000000000000000000000000000000000000000000000740078007400000000000000CC000000260000008FC2F5285C0F3E400000000000C039C0000000000000000000000000000000000000000000000000000000
310
000000F03F000000000000F03F0000000000000000000000000000000044004100540045003A00320030002F00300033002F00320030003100340000000F000000010000000000000000000440333333333333EB3F0000000000000000000000000000F03F0000000000000000000000000000000000000000000000000000
310
00000000000000000000000000007400780074000000000000001801000026000000B81E85EB51B8AE3F295C8FC2F5E83CC0000000000000000000000000000000000000000000000000000000000000F03F000000000000F03F0000000000000000000000000000000041006E007900200069006E00740065006700720061
310
006C0020006F00720020007000610072007400690061006C00200072006500700072006F00640075006300740069006F006E00730020006100720065002000700072006F0068006900620069007400650064002000000035000000010000009A9999999999FD3F333333333333EB3F0000000000000000000000000000F03F
310
000000000000000000000000000000000000000000000000000000000000000000000000000000007400780074000000000000002401000026000000B81E85EB51B8AE3F7EB1E4174BFE3FC0000000000000000000000000000000000000000000000000000000000000F03F000000000000F03F0000000000000000000000
310
000000000077006900740068006F007500740020007000720069006F007200200061007500740068006F007200690073006100740069006F006E0020006F00660020004C002000260020004C0020004C007500630065002000260020004C006900670068007400200073002E0072002E006C002E002C002000000000003A00
310
0000010000009A9999999999FD3F333333333333EB3F0000000000000000000000000000F03F00000000000000000000000000000000000000000000000000000000000000000000000000000000740078007400000000000000F800000026000000B81E85EB51B8AE3F6A039D36D08941C000000000000000000000000000
310
0000000000000000000000000000000000F03F000000000000F03F0000000000000000000000000000000069006E0020006100630063006F007200640061006E006300650020007700690074006800200074006800650020006C0061007700200069006E00200066006F007200630065002E00200000002500000001000000
310
9A9999999999FD3F333333333333EB3F0000000000000000000000000000F03F00000000000000000000000000000000000000000000000000000000000000000000000000000000740078007400000000000000D800000026000000B81E85EB51B8AE3F15AE47E17A1443C000000000000000000000000000000000000000
310
0000000000000000000000F03F000000000000F03F0000000000000000000000000000000041006C006C0020007200690067006800740073002000720065007300650072007600650064002E000000000014000000010000009A9999999999FD3F333333333333EB3F0000000000000000000000000000F03F000000000000
310
00000000000000000000000000000000000000000000000000000000000000000000740078007400000000000000540000002000000002000000000000000000000000000000000000000000000000000000000000000000244000000000000000000000000000000000000000000000000000000000000000000000000000
310
00F03F54000000200000000200000000000000000024400000000000000000000000000000000000000000000034400000000000000000000000000000000000000000000000000000000000000000000000000000F03F54000000200000000200000000000000000034400000000000000000000000000000000000000000
310
00003E400000000000000000000000000000000000000000000000000000000000000000000000000000F03F540000002000000002000000000000000000000000000000000000000000000000000000000000000000000000000000000018C0000000000000000000000000000000000000000000000000000000000000F0
310
3F540000002000000002000000000000000000000000000000000018C00000000000000000000000000000000000000000000028C0000000000000000000000000000000000000000000000000000000000000F03F540000002000000002000000000000000000000000000000000028C00000000000000000000000000000
310
000000000000000036C0000000000000000000000000000000000000000000000000000000000000F03F540000002000000002000000000000000000000000000000000036C0000000000000000000000000000000000000000000003BC0000000000000000000000000000000000000000000000000000000000000F03F54
310
00000020000000020000000000000000003E400000000000000000000000000000000000000000008051400000000000000000000000000000000000000000000000000000000000000000000000000000F03F5400000020000000020000000000000000003E40000000000000000000000000000000000000000000003E40
310
00000000000018C0000000000000000000000000000000000000000000000000000000000000F03F54000000200000000200000000000000008051400000000000000000000000000000000000000000008056400000000000000000000000000000000000000000000000000000000000000000000000000000F03F540000
310
002000000002000000000000000080514000000000000000000000000000000000000000000080514000000000000018C0000000000000000000000000000000000000000000000000000000000000F03F54000000200000000200000000000000008056400000000000000000000000000000000000000000008056400000
310
0000000018C0000000000000000000000000000000000000000000000000000000000000F03F5400000020000000020000000000000000003E4000000000000018C00000000000000000000000000080514000000000000018C0000000000000000000000000000000000000000000000000000000000000F03F5400000020
310
000000020000000000000000003E4000000000000018C000000000000000000000000000003E4000000000000028C0000000000000000000000000000000000000000000000000000000000000F03F540000002000000002000000000000000080514000000000000018C00000000000000000000000000080564000000000
310
000018C0000000000000000000000000000000000000000000000000000000000000F03F540000002000000002000000000000000080514000000000000018C00000000000000000000000000080514000000000000028C0000000000000000000000000000000000000000000000000000000000000F03F54000000200000
310
0002000000000000000080564000000000000018C00000000000000000000000000080564000000000000028C0000000000000000000000000000000000000000000000000000000000000F03F5400000020000000020000000000000000003E4000000000000028C000000000000000000000000000805140000000000000
310
28C0000000000000000000000000000000000000000000000000000000000000F03F540000002000000002000000000000000080514000000000000028C00000000000000000000000000080564000000000000028C0000000000000000000000000000000000000000000000000000000000000F03F540000002000000002
310
0000000000000000003E4000000000000028C000000000000000000000000000003E4000000000000036C0000000000000000000000000000000000000000000000000000000000000F03F540000002000000002000000000000000080564000000000000028C00000000000000000000000000080564000000000000036C0
310
000000000000000000000000000000000000000000000000000000000000F03F5400000020000000020000000000000000003E4000000000000036C00000000000000000000000000080514000000000000036C0000000000000000000000000000000000000000000000000000000000000F03F5400000020000000020000
310
00000000000080514000000000000036C00000000000000000000000000080564000000000000036C0000000000000000000000000000000000000000000000000000000000000F03F5400000020000000020000000000000000003E4000000000000036C000000000000000000000000000003E400000000000003BC00000
310
00000000000000000000000000000000000000000000000000000000F03F540000002000000002000000000000000080564000000000000036C0000000000000000000000000008056400000000000003BC0000000000000000000000000000000000000000000000000000000000000F03F54000000200000000200000000
310
000000000000000000000000003BC0000000000000000000000000000024400000000000003BC0000000000000000000000000000000000000000000000000000000000000F03F54000000200000000200000000000000000024400000000000003BC0000000000000000000000000000034400000000000003BC000000000
310
0000000000000000000000000000000000000000000000000000F03F54000000200000000200000000000000000034400000000000003BC000000000000000000000000000003E400000000000003BC0000000000000000000000000000000000000000000000000000000000000F03F540000002000000002000000000000
310
0000003E400000000000003BC0000000000000000000000000008051400000000000003BC0000000000000000000000000000000000000000000000000000000000000F03F54000000200000000200000000000000008051400000000000003BC0000000000000000000000000008056400000000000003BC0000000000000
310
000000000000000000000000000000000000000000000000F03F54000000200000000200000000000000000000000000000000003BC00000000000000000000000000000000000000000000044C0000000000000000000000000000000000000000000000000000000000000F03F5400000020000000020000000000000000
310
8056400000000000003BC00000000000000000000000000080564000000000000044C0000000000000000000000000000000000000000000000000000000000000F03F540000002000000002000000000000000000000000000000000044C00000000000000000000000000000244000000000000044C00000000000000000
310
00000000000000000000000000000000000000000000F03F540000002000000002000000000000000000244000000000000044C00000000000000000000000000000344000000000000044C0000000000000000000000000000000000000000000000000000000000000F03F54000000200000000200000000000000000034
310
4000000000000044C000000000000000000000000000003E4000000000000044C0000000000000000000000000000000000000000000000000000000000000F03F5400000020000000020000000000000000003E4000000000000044C00000000000000000000000000080514000000000000044C000000000000000000000
310
0000000000000000000000000000000000000000F03F540000002000000002000000000000000080514000000000000044C00000000000000000000000000080564000000000000044C0000000000000000000000000000000000000000000000000000000000000F03F080000001F000000880000001D0000000000000000
310
00F03F0000000000000000000000000000000000000000000000000000000000000000000000000000F03F0000000000000000000000000000000000000000000000000000000000000000000000000000F03F0000000000000000000000000000000000000000000000000000000000000000000000000000F03F08000000
310
1F000000
100
AcDbBlockReference
  2
*T6
 10
319.3213399098
 20
51.0239270671
 30
0.0
100
AcDbTable
342
460
343
228
 11
1.0
 21
0.0
 31
0.0
 90
       22
 91
        5
 92
        5
 93
        0
 94
        0
 95
        0
 96
        0
141
6.0
141
6.0
141
10.0
141
5.0
141
13.0
142
10.0
142
10.0
142
10.0
142
40.0
142
20.0
171
     1
172
     0
173
     0
174
     0
175
     3
176
     4
 91
        0
178
     0
145
0.0
 92
        0
301
CELL_VALUE
 93
        6
 90
        4
  1

 94
        0
300

302

304
ACVALUE_END
171
     1
172
     0
173
     1
174
     0
175
     1
176
     1
 91
        0
178
     0
145
0.0
 92
        0
301
CELL_VALUE
 93
        3
 90
        0
 91
        0
 94
        0
300

302

304
ACVALUE_END
171
     1
172
     0
173
     1
174
     0
175
     1
176
     1
 91
        0
178
     0
145
0.0
 92
        0
301
CELL_VALUE
 93
        3
 90
        0
 91
        0
 94
        0
300

302

304
ACVALUE_END
171
     1
172
     0
173
     0
174
     0
175
     1
176
     1
 91
       33
178
     0
145
0.0
170
     4
140
3.0
 92
        0
301
CELL_VALUE
 93
        6
 90
        4
  1
251_C_030
 94
        0
300

302
251_C_030
304
ACVALUE_END
171
     1
172
     0
173
     0
174
     0
175
     1
176
     1
 91
       33
178
     0
145
0.0
170
     1
140
3.5
 92
        0
301
CELL_VALUE
 93
        6
 90
        4
  1
Rev:00
 94
        0
300

302
Rev:00
304
ACVALUE_END
171
     1
172
     0
173
     1
174
     0
175
     1
176
     1
 91
        0
178
     0
145
0.0
 92
        0
301
CELL_VALUE
 93
        3
 90
        0
 91
        0
 94
        0
300

302

304
ACVALUE_END
171
     1
172
     0
173
     1
174
     0
175
     1
176
     1
 91
        0
178
     0
145
0.0
 92
        0
301
CELL_VALUE
 93
        3
 90
        0
 91
        0
 94
        0
300

302

304
ACVALUE_END
171
     1
172
     0
173
     1
174
     0
175
     1
176
     1
 91
        0
178
     0
145
0.0
 92
        0
301
CELL_VALUE
 93
        3
 90
        0
 91
        0
 94
        0
300

302

304
ACVALUE_END
171
     1
172
     0
173
     0
174
     0
175
     1
176
     1
 91
       33
178
     0
145
0.0
170
     1
140
3.5
 92
        0
301
CELL_VALUE
 93
        6
 90
        4
  1
Scale:1:1
 94
        0
300

302
Scale:1:1
304
ACVALUE_END
171
     1
172
     0
173
     0
174
     0
175
     1
176
     1
 91
       33
178
     0
145
0.0
170
     4
140
3.5
 92
        0
301
CELL_VALUE
 93
        6
 90
        4
  1
A3
 94
        0
300

302
A3
304
ACVALUE_END
171
     1
172
     0
173
     1
174
     0
175
     1
176
     1
 91
        0
178
     0
145
0.0
 92
        0
301
CELL_VALUE
 93
        3
 90
        0
 91
        0
 94
        0
300

302

304
ACVALUE_END
171
     1
172
     0
173
     1
174
     0
175
     1
176
     1
 91
        0
178
     0
145
0.0
 92
        0
301
CELL_VALUE
 93
        3
 90
        0
 91
        0
 94
        0
300

302

304
ACVALUE_END
171
     1
172
     0
173
     1
174
     0
175
     1
176
     1
 91
        0
178
     0
145
0.0
 92
        0
301
CELL_VALUE
 93
        3
 90
        0
 91
        0
 94
        0
300

302

304
ACVALUE_END
171
     1
172
     0
173
     0
174
     0
175
     2
176
     1
 91
       33
178
     0
145
0.0
170
     4
140
3.5
 92
        0
301
CELL_VALUE
 93
        6
 90
        4
  1
BRIGHT 5.1
 94
        0
300

302
BRIGHT 5.1
304
ACVALUE_END
171
     1
172
     0
173
     1
174
     0
175
     1
176
     1
 91
        0
178
     0
145
0.0
 92
        0
301
CELL_VALUE
 93
        3
 90
        0
 91
        0
 94
        0
300

302

304
ACVALUE_END
171
     1
172
     0
173
     1
174
     0
175
     1
176
     1
 91
        0
178
     0
145
0.0
 92
        0
301
CELL_VALUE
 93
        3
 90
        0
 91
        0
 94
        0
300

302

304
ACVALUE_END
171
     1
172
     0
173
     1
174
     0
175
     1
176
     1
 91
        0
178
     0
145
0.0
 92
        0
301
CELL_VALUE
 93
        3
 90
        0
 91
        0
 94
        0
300

302

304
ACVALUE_END
171
     1
172
     0
173
     1
174
     0
175
     1
176
     1
 91
        0
178
     0
145
0.0
 92
        0
301
CELL_VALUE
 93
        3
 90
        0
 91
        0
 94
        0
300

302

304
ACVALUE_END
171
     1
172
     0
173
     0
174
     0
175
     2
176
     1
 91
       33
178
     0
145
0.0
170
     4
140
2.5
 92
        0
301
CELL_VALUE
 93
        6
 90
        4
  1
DATE:20/03/2014
 94
        0
300

302
DATE:20/03/2014
304
ACVALUE_END
171
     1
172
     0
173
     1
174
     0
175
     1
176
     1
 91
        0
178
     0
145
0.0
 92
        0
301
CELL_VALUE
 93
        3
 90
        0
 91
        0
 94
        0
300

302

304
ACVALUE_END
171
     1
172
     0
173
     0
174
     0
175
     5
176
     1
 91
       33
178
     0
145
0.0
170
     1
140
1.85
 92
        0
301
CELL_VALUE
 93
        6
 90
        4
  1
Any integral or partial reproductions are prohibited \Pwithout prior authorisation of L & L Luce & Light s.r.l., \Pin accordance with the law in force. \PAll rights reserved.
 94
        0
300

302
Any integral or partial reproductions are prohibited \Pwithout prior authorisation of L & L Luce & Light s.r.l., \Pin accordance with the law in force. \PAll rights reserved.
304
ACVALUE_END
171
     1
172
     0
173
     1
174
     0
175
     1
176
     1
 91
        0
178
     0
145
0.0
 92
        0
301
CELL_VALUE
 93
        3
 90
        0
 91
        0
 94
        0
300

302

304
ACVALUE_END
171
     1
172
     0
173
     1
174
     0
175
     1
176
     1
 91
        0
178
     0
145
0.0
 92
        0
301
CELL_VALUE
 93
        3
 90
        0
 91
        0
 94
        0
300

302

304
ACVALUE_END
171
     1
172
     0
173
     1
174
     0
175
     1
176
     1
 91
        0
178
     0
145
0.0
 92
        0
301
CELL_VALUE
 93
        3
 90
        0
 91
        0
 94
        0
300

302

304
ACVALUE_END
171
     1
172
     0
173
     1
174
     0
175
     1
176
     1
 91
        0
178
     0
145
0.0
 92
        0
301
CELL_VALUE
 93
        3
 90
        0
 91
        0
 94
        0
300

302

304
ACVALUE_END
  0
LINE
  5
2BE
330
220
100
AcDbEntity
  8
0
  6
Continuous
 62
     7
100
AcDbLine
 10
0.0
 20
0.0
 30
0.0
 11
0.0
 21
297.0
 31
0.0
  0
LWPOLYLINE
  5
2BF
330
220
100
AcDbEntity
  8
0
  6
Continuous
 62
     7
100
AcDbPolyline
 90
        2
 70
     0
 43
0.1000000003
 10
7.0536312849
 20
0.0
 10
7.0536312849
 20
297.0
  0
LWPOLYLINE
  5
2C0
330
220
100
AcDbEntity
  8
0
  6
Continuous
 62
     7
100
AcDbPolyline
 90
        2
 70
     0
 43
0.4999999952
 10
10.0536312849
 20
10.0318435754
 10
10.0536312849
 20
287.0
  0
LINE
  5
2C1
330
220
100
AcDbEntity
  8
0
  6
Continuous
 62
     7
100
AcDbLine
 10
0.0
 20
0.0
 30
0.0
 11
420.0
 21
0.0
 31
0.0
  0
LWPOLYLINE
  5
2C2
330
220
100
AcDbEntity
  8
0
  6
Continuous
 62
     7
100
AcDbPolyline
 90
        2
 70
     0
 43
0.1000000003
 10
0.0
 20
7.0318435754
 10
420.0
 20
7.0318435754
  0
LWPOLYLINE
  5
2C3
330
220
100
AcDbEntity
  8
0
  6
Continuous
 62
     7
100
AcDbPolyline
 90
        2
 70
     0
 43
0.4999999952
 10
10.0536312849
 20
10.0318435754
 10
410.0
 20
10.0318435754
  0
LINE
  5
2C4
330
220
100
AcDbEntity
  8
0
  6
Continuous
 62
     7
100
AcDbLine
 10
113.0
 20
297.0
 30
0.0
 11
113.0
 21
290.0
 31
0.0
  0
LINE
  5
2C5
330
220
100
AcDbEntity
  8
0
  6
Continuous
 62
     7
100
AcDbLine
 10
113.0
 20
7.0
 30
0.0
 11
113.0
 21
0.0
 31
0.0
  0
LWPOLYLINE
  5
2C6
330
220
100
AcDbEntity
  8
0
  6
Continuous
 62
     7
100
AcDbPolyline
 90
        2
 70
     0
 43
0.1000000003
 10
123.0
 20
10.0
 10
123.0
 20
0.0
  0
LWPOLYLINE
  5
2C7
330
220
100
AcDbEntity
  8
0
  6
Continuous
 62
     7
100
AcDbPolyline
 90
        2
 70
     0
 43
0.1000000003
 10
123.0
 20
287.0
 10
123.0
 20
297.0
  0
LINE
  5
2C8
330
220
100
AcDbEntity
  8
0
  6
Continuous
 62
     7
100
AcDbLine
 10
0.0
 20
99.9681564246
 30
0.0
 11
7.0
 21
99.9681564246
 31
0.0
  0
LINE
  5
2C9
330
220
100
AcDbEntity
  8
0
  6
Continuous
 62
     7
100
AcDbLine
 10
413.0
 20
107.0
 30
0.0
 11
420.0
 21
107.0
 31
0.0
  0
LWPOLYLINE
  5
2CA
330
220
100
AcDbEntity
  8
0
  6
Continuous
 62
     7
100
AcDbPolyline
 90
        2
 70
     0
 43
0.1000000003
 10
210.0
 20
10.0
 10
210.0
 20
0.0
  0
LWPOLYLINE
  5
2CB
330
220
100
AcDbEntity
  8
0
  6
Continuous
 62
     7
100
AcDbPolyline
 90
        2
 70
     0
 43
0.1000000003
 10
210.0
 20
287.0
 10
210.0
 20
297.0
  0
LWPOLYLINE
  5
2CC
330
220
100
AcDbEntity
  8
0
  6
Continuous
 62
     7
100
AcDbPolyline
 90
        2
 70
     0
 43
0.1000000003
 10
10.0
 20
148.5
 10
0.0
 20
148.5
  0
LWPOLYLINE
  5
2CD
330
220
100
AcDbEntity
  8
0
  6
Continuous
 62
     7
100
AcDbPolyline
 90
        2
 70
     0
 43
0.1000000003
 10
410.0
 20
148.5
 10
420.0
 20
148.5
  0
LINE
  5
2CE
330
220
100
AcDbEntity
  8
0
  6
Continuous
 62
     7
100
AcDbLine
 10
0.0
 20
199.9681564246
 30
0.0
 11
7.0
 21
199.9681564246
 31
0.0
  0
LWPOLYLINE
  5
2CF
330
220
100
AcDbEntity
  8
0
  6
Continuous
 62
     7
100
AcDbPolyline
 90
        2
 70
     0
 43
0.1000000003
 10
10.0
 20
202.9681564246
 10
0.0
 20
202.9681564246
  0
LWPOLYLINE
  5
2D0
330
220
100
AcDbEntity
  8
0
  6
Continuous
 62
     7
100
AcDbPolyline
 90
        2
 70
     0
 43
0.1000000003
 10
410.0
 20
210.0
 10
420.0
 20
210.0
  0
LINE
  5
2D1
330
220
100
AcDbEntity
  8
0
  6
Continuous
 62
     7
100
AcDbLine
 10
313.0
 20
297.0
 30
0.0
 11
313.0
 21
290.0
 31
0.0
  0
LINE
  5
2D2
330
220
100
AcDbEntity
  8
0
  6
Continuous
 62
     7
100
AcDbLine
 10
313.0
 20
7.0
 30
0.0
 11
313.0
 21
0.0
 31
0.0
  0
LWPOLYLINE
  5
2D3
330
220
100
AcDbEntity
  8
0
  6
Continuous
 62
     7
100
AcDbPolyline
 90
        2
 70
     0
 43
0.4999999952
 10
10.0536312849
 20
287.0
 10
410.0
 20
287.0
  0
LWPOLYLINE
  5
2D4
330
220
100
AcDbEntity
  8
0
  6
Continuous
 62
     7
100
AcDbPolyline
 90
        2
 70
     0
 43
0.1000000003
 10
0.0
 20
290.0
 10
420.0
 20
290.0
  0
LINE
  5
2D5
330
220
100
AcDbEntity
  8
0
  6
Continuous
 62
     7
100
AcDbLine
 10
0.0
 20
297.0
 30
0.0
 11
420.0
 21
297.0
 31
0.0
  0
LWPOLYLINE
  5
2D6
330
220
100
AcDbEntity
  8
0
  6
Continuous
 62
     7
100
AcDbPolyline
 90
        2
 70
     0
 43
0.4999999952
 10
410.0
 20
10.0318435754
 10
410.0
 20
287.0
  0
LWPOLYLINE
  5
2D7
330
220
100
AcDbEntity
  8
0
  6
Continuous
 62
     7
100
AcDbPolyline
 90
        2
 70
     0
 43
0.1000000003
 10
413.0
 20
0.0
 10
413.0
 20
297.0
  0
LINE
  5
2D8
330
220
100
AcDbEntity
  8
0
  6
Continuous
 62
     7
100
AcDbLine
 10
420.0
 20
0.0
 30
0.0
 11
420.0
 21
297.0
 31
0.0
  0
LINE
  5
2D9
330
220
100
AcDbEntity
  8
7_ALL_FEATURES
  6
Continuous
 62
     7
100
AcDbLine
 10
26.25614873431169
 20
189.5040922541668
 30
0.0
 11
26.25614873431169
 21
44.50409225416684
 31
0.0
  0
LINE
  5
2DA
330
220
100
AcDbEntity
  8
7_ALL_FEATURES
  6
Continuous
 62
     7
100
AcDbLine
 10
28.25614873431169
 20
187.5040922541668
 30
0.0
 11
28.25614873431169
 21
46.50409225416684
 31
0.0
  0
LINE
  5
2DB
330
220
100
AcDbEntity
  8
7_ALL_FEATURES
  6
Continuous
 62
     7
100
AcDbLine
 10
26.25614873431169
 20
44.50409225416684
 30
0.0
 11
171.2561487343117
 21
44.50409225416684
 31
0.0
  0
LINE
  5
2DC
330
220
100
AcDbEntity
  8
7_ALL_FEATURES
  6
Continuous
 62
     7
100
AcDbLine
 10
28.25614873431169
 20
46.50409225416684
 30
0.0
 11
169.2561487343117
 21
46.50409225416684
 31
0.0
  0
LINE
  5
2DD
330
220
100
AcDbEntity
  8
7_ALL_FEATURES
  6
Continuous
 62
     7
100
AcDbLine
 10
28.25614873431169
 20
46.50409225416684
 30
0.0
 11
26.25614873431169
 21
44.50409225416684
 31
0.0
  0
LINE
  5
2DE
330
220
100
AcDbEntity
  8
7_ALL_FEATURES
  6
Continuous
 62
     7
100
AcDbLine
 10
169.2561487343117
 20
187.5040922541668
 30
0.0
 11
171.2561487343117
 21
189.5040922541668
 31
0.0
  0
LINE
  5
2DF
330
220
100
AcDbEntity
  8
7_ALL_FEATURES
  6
Continuous
 62
     7
100
AcDbLine
 10
169.2561487343117
 20
46.50409225416684
 30
0.0
 11
171.2561487343117
 21
44.50409225416684
 31
0.0
  0
LINE
  5
2E0
330
220
100
AcDbEntity
  8
7_ALL_FEATURES
  6
Continuous
 62
     7
100
AcDbLine
 10
28.25614873431169
 20
187.5040922541668
 30
0.0
 11
26.25614873431169
 21
189.5040922541668
 31
0.0
  0
LINE
  5
2E1
330
220
100
AcDbEntity
  8
7_ALL_FEATURES
  6
Continuous
 62
     7
100
AcDbLine
 10
169.2561487343117
 20
46.50409225416684
 30
0.0
 11
169.2561487343117
 21
187.5040922541668
 31
0.0
  0
LINE
  5
2E2
330
220
100
AcDbEntity
  8
7_ALL_FEATURES
  6
Continuous
 62
     7
100
AcDbLine
 10
171.2561487343117
 20
44.50409225416684
 30
0.0
 11
171.2561487343117
 21
189.5040922541668
 31
0.0
  0
LINE
  5
2E3
330
220
100
AcDbEntity
  8
7_ALL_FEATURES
  6
Continuous
 62
     7
100
AcDbLine
 10
169.2561487343117
 20
187.5040922541668
 30
0.0
 11
28.25614873431169
 21
187.5040922541668
 31
0.0
  0
LINE
  5
2E4
330
220
100
AcDbEntity
  8
7_ALL_FEATURES
  6
Continuous
 62
     7
100
AcDbLine
 10
171.2561487343117
 20
189.5040922541668
 30
0.0
 11
26.25614873431169
 21
189.5040922541668
 31
0.0
  0
LINE
  5
2E5
330
220
100
AcDbEntity
  8
7_ALL_FEATURES
  6
Continuous
 62
     7
100
AcDbLine
 10
28.25614873431166
 20
270.7620379481175
 30
0.0
 11
26.25614873431166
 21
268.7620379481175
 31
0.0
  0
LINE
  5
2E6
330
220
100
AcDbEntity
  8
7_ALL_FEATURES
  6
Continuous
 62
     7
100
AcDbLine
 10
26.25614873431166
 20
267.7620379481175
 30
0.0
 11
26.25614873431166
 21
268.7620379481175
 31
0.0
  0
LINE
  5
2E7
330
220
100
AcDbEntity
  8
02___PRT_ALL_AXES
  6
Continuous
 62
     7
100
AcDbLine
 10
36.75614873431166
 20
267.7620379481175
 30
0.0
 11
36.75614873431166
 21
260.7620379481175
 31
0.0
  0
LINE
  5
2E8
330
220
100
AcDbEntity
  8
3_ALL_AXES
  6
Continuous
 62
     7
100
AcDbLine
 10
36.75614873431166
 20
245.7620379481175
 30
0.0
 11
36.75614873431166
 21
260.4620378735176
 31
0.0
  0
LINE
  5
2E9
330
220
100
AcDbEntity
  8
7_ALL_FEATURES
  6
Continuous
 62
     7
100
AcDbLine
 10
37.05615126411166
 20
260.7620354917176
 30
0.0
 11
36.75615120231166
 21
260.4620354055176
 31
0.0
  0
LINE
  5
2EA
330
220
100
AcDbEntity
  8
3_ALL_AXES
  6
Continuous
 62
     7
100
AcDbLine
 10
48.75614873431166
 20
221.7620379481176
 30
0.0
 11
48.75614873431166
 21
223.7620379481176
 31
0.0
  0
LINE
  5
2EB
330
220
100
AcDbEntity
  8
3_ALL_AXES
  6
Continuous
 62
     7
100
AcDbLine
 10
48.75614873431166
 20
226.7620379481176
 30
0.0
 11
48.75614873431166
 21
229.2620379481176
 31
0.0
  0
LINE
  5
2EC
330
220
100
AcDbEntity
  8
3_ALL_AXES
  6
Continuous
 62
     7
100
AcDbLine
 10
48.75614873431166
 20
232.2620379481176
 30
0.0
 11
48.75614873431166
 21
234.7620379481176
 31
0.0
  0
LINE
  5
2ED
330
220
100
AcDbEntity
  8
3_ALL_AXES
  6
Continuous
 62
     7
100
AcDbLine
 10
48.75614873431166
 20
237.7620379481176
 30
0.0
 11
48.75614873431166
 21
245.7620379481175
 31
0.0
  0
LINE
  5
2EE
330
220
100
AcDbEntity
  8
7_ALL_FEATURES
  6
Continuous
 62
     7
100
AcDbLine
 10
49.75614873431166
 20
220.7620379481176
 30
0.0
 11
48.75614873431166
 21
221.7620379481176
 31
0.0
  0
LINE
  5
2EF
330
220
100
AcDbEntity
  8
7_ALL_FEATURES
  6
Continuous
 62
     7
100
AcDbLine
 10
58.75614873431166
 20
237.7620379481176
 30
0.0
 11
58.75614873431166
 21
234.7620379481176
 31
0.0
  0
LINE
  5
2F0
330
220
100
AcDbEntity
  8
7_ALL_FEATURES
  6
Continuous
 62
     7
100
AcDbLine
 10
58.75614873431166
 20
232.2620379481176
 30
0.0
 11
58.75614873431166
 21
229.2620379481176
 31
0.0
  0
LINE
  5
2F1
330
220
100
AcDbEntity
  8
7_ALL_FEATURES
  6
Continuous
 62
     7
100
AcDbLine
 10
58.75614873431166
 20
226.7620379481176
 30
0.0
 11
58.75614873431166
 21
223.7620379481176
 31
0.0
  0
LINE
  5
2F2
330
220
100
AcDbEntity
  8
02___PRT_ALL_AXES
  6
Continuous
 62
     7
100
AcDbLine
 10
93.91448913751165
 20
200.7620379481176
 30
0.0
 11
103.5978083309116
 21
200.7620379481176
 31
0.0
  0
LINE
  5
2F3
330
220
100
AcDbEntity
  8
02___PRT_ALL_AXES
  6
Continuous
 62
     9
100
AcDbLine
 10
107.2561487343117
 20
205.0184943337176
 30
0.0
 11
105.8158259077117
 21
205.0184943337176
 31
0.0
  0
LINE
  5
2F4
330
220
100
AcDbEntity
  8
02___PRT_ALL_AXES
  6
Continuous
 62
     9
100
AcDbLine
 10
90.25614873431167
 20
205.0184943337176
 30
0.0
 11
91.69647156071164
 21
205.0184943337176
 31
0.0
  0
LINE
  5
2F5
330
220
100
AcDbEntity
  8
02___PRT_ALL_AXES
  6
Continuous
 62
     9
100
AcDbLine
 10
97.31582590771166
 20
205.0184943337176
 30
0.0
 11
100.1964715607116
 21
205.0184943337176
 31
0.0
  0
LINE
  5
2F6
330
220
100
AcDbEntity
  8
02___PRT_ALL_AXES
  6
Continuous
 62
     7
100
AcDbLine
 10
107.2561487343117
 20
205.0451993541176
 30
0.0
 11
105.8158259077117
 21
205.0451993541176
 31
0.0
  0
LINE
  5
2F7
330
220
100
AcDbEntity
  8
02___PRT_ALL_AXES
  6
Continuous
 62
     7
100
AcDbLine
 10
90.25614873431167
 20
205.0451993541176
 30
0.0
 11
91.69647156071164
 21
205.0451993541176
 31
0.0
  0
LINE
  5
2F8
330
220
100
AcDbEntity
  8
02___PRT_ALL_AXES
  6
Continuous
 62
     7
100
AcDbLine
 10
97.31582590771166
 20
205.0451993541176
 30
0.0
 11
100.1964715607116
 21
205.0451993541176
 31
0.0
  0
LINE
  5
2F9
330
220
100
AcDbEntity
  8
02___PRT_ALL_AXES
  6
Continuous
 62
     7
100
AcDbLine
 10
107.2561487343117
 20
213.2620379481176
 30
0.0
 11
90.25614873431167
 21
213.2620379481176
 31
0.0
  0
LINE
  5
2FA
330
220
100
AcDbEntity
  8
02___PRT_ALL_AXES
  6
Continuous
 62
     7
100
AcDbLine
 10
107.2561487343117
 20
217.2620379481176
 30
0.0
 11
90.25614873431167
 21
217.2620379481176
 31
0.0
  0
LINE
  5
2FB
330
220
100
AcDbEntity
  8
06___PRT_ALL_SURFS
  6
Continuous
 62
     7
100
AcDbLine
 10
51.26139326091165
 20
266.7620379481175
 30
0.0
 11
50.49534881771167
 21
267.7620379481175
 31
0.0
  0
LINE
  5
2FC
330
220
100
AcDbEntity
  8
06___PRT_ALL_SURFS
  6
Continuous
 62
     7
100
AcDbLine
 10
87.98996171891164
 20
267.7620379481175
 30
0.0
 11
87.98996171891164
 21
266.7620379481175
 31
0.0
  0
LINE
  5
2FD
330
220
100
AcDbEntity
  8
7_ALL_FEATURES
  6
Continuous
 62
     7
100
AcDbLine
 10
49.75614873431166
 20
220.7620379481176
 30
0.0
 11
147.7561487343117
 21
220.7620379481176
 31
0.0
  0
LINE
  5
2FE
330
220
100
AcDbEntity
  8
7_ALL_FEATURES
  6
Continuous
 62
     7
100
AcDbLine
 10
48.75614873431166
 20
221.7620379481176
 30
0.0
 11
148.7561487343117
 21
221.7620379481176
 31
0.0
  0
LINE
  5
2FF
330
220
100
AcDbEntity
  8
7_ALL_FEATURES
  6
Continuous
 62
     7
100
AcDbLine
 10
48.75614873431166
 20
223.7620379481176
 30
0.0
 11
148.7561487343117
 21
223.7620379481176
 31
0.0
  0
LINE
  5
300
330
220
100
AcDbEntity
  8
02___PRT_ALL_AXES
  6
Continuous
 62
     7
100
AcDbLine
 10
90.25614873431167
 20
220.7620379481176
 30
0.0
 11
90.25614873431167
 21
217.2620379481176
 31
0.0
  0
LINE
  5
301
330
220
100
AcDbEntity
  8
02___PRT_ALL_AXES
  6
Continuous
 62
     7
100
AcDbLine
 10
90.25614873431167
 20
202.8427282591176
 30
0.0
 11
90.25614873431167
 21
213.2620379481176
 31
0.0
  0
LINE
  5
302
330
220
100
AcDbEntity
  8
02___PRT_ALL_AXES
  6
Continuous
 62
     7
100
AcDbLine
 10
91.25614873431167
 20
213.2620379481176
 30
0.0
 11
91.25614873431167
 21
217.2620379481176
 31
0.0
  0
LINE
  5
303
330
220
100
AcDbEntity
  8
02___PRT_ALL_AXES
  6
Continuous
 62
     7
100
AcDbLine
 10
91.69647156071164
 20
205.0184943337176
 30
0.0
 11
91.69647156071164
 21
205.0451993541176
 31
0.0
  0
LINE
  5
304
330
220
100
AcDbEntity
  8
7_ALL_FEATURES
  6
Continuous
 62
     7
100
AcDbLine
 10
148.7561487343117
 20
226.7620379481176
 30
0.0
 11
48.75614873431166
 21
226.7620379481176
 31
0.0
  0
LINE
  5
305
330
220
100
AcDbEntity
  8
7_ALL_FEATURES
  6
Continuous
 62
     7
100
AcDbLine
 10
48.75614873431166
 20
229.2620379481176
 30
0.0
 11
148.7561487343117
 21
229.2620379481176
 31
0.0
  0
LINE
  5
306
330
220
100
AcDbEntity
  8
06___PRT_ALL_SURFS
  6
Continuous
 62
     7
100
AcDbLine
 10
87.98996171891164
 20
266.7620379481175
 30
0.0
 11
87.81631354111164
 21
267.7620379481175
 31
0.0
  0
LINE
  5
307
330
220
100
AcDbEntity
  8
02___PRT_ALL_AXES
  6
Continuous
 62
     7
100
AcDbLine
 10
97.31582590771166
 20
205.0184943337176
 30
0.0
 11
97.31582590771166
 21
205.0451993541176
 31
0.0
  0
LINE
  5
308
330
220
100
AcDbEntity
  8
02___PRT_ALL_AXES
  6
Continuous
 62
     7
100
AcDbLine
 10
98.75614873431167
 20
220.7620379481176
 30
0.0
 11
98.75614873431167
 21
217.2620379481176
 31
0.0
  0
LINE
  5
309
330
220
100
AcDbEntity
  8
02___PRT_ALL_AXES
  6
Continuous
 62
     7
100
AcDbLine
 10
98.75614873431167
 20
213.2620379481176
 30
0.0
 11
98.75614873431167
 21
205.7620379481176
 31
0.0
  0
LINE
  5
30A
330
220
100
AcDbEntity
  8
7_ALL_FEATURES
  6
Continuous
 62
     7
100
AcDbLine
 10
148.7561487343117
 20
232.2620379481176
 30
0.0
 11
48.75614873431166
 21
232.2620379481176
 31
0.0
  0
LINE
  5
30B
330
220
100
AcDbEntity
  8
7_ALL_FEATURES
  6
Continuous
 62
     7
100
AcDbLine
 10
48.75614873431166
 20
234.7620379481176
 30
0.0
 11
148.7561487343117
 21
234.7620379481176
 31
0.0
  0
LINE
  5
30C
330
220
100
AcDbEntity
  8
02___PRT_ALL_AXES
  6
Continuous
 62
     7
100
AcDbLine
 10
100.1964715607116
 20
205.0184943337176
 30
0.0
 11
100.1964715607116
 21
205.0451993541176
 31
0.0
  0
LINE
  5
30D
330
220
100
AcDbEntity
  8
7_ALL_FEATURES
  6
Continuous
 62
     7
100
AcDbLine
 10
148.7561487343117
 20
237.7620379481176
 30
0.0
 11
48.75614873431166
 21
237.7620379481176
 31
0.0
  0
LINE
  5
30E
330
220
100
AcDbEntity
  8
02___PRT_ALL_AXES
  6
Continuous
 62
     7
100
AcDbLine
 10
105.8158259077117
 20
205.0184943337176
 30
0.0
 11
105.8158259077117
 21
205.0451993541176
 31
0.0
  0
LINE
  5
30F
330
220
100
AcDbEntity
  8
02___PRT_ALL_AXES
  6
Continuous
 62
     7
100
AcDbLine
 10
106.2561487343117
 20
213.2620379481176
 30
0.0
 11
106.2561487343117
 21
217.2620379481176
 31
0.0
  0
LINE
  5
310
330
220
100
AcDbEntity
  8
02___PRT_ALL_AXES
  6
Continuous
 62
     7
100
AcDbLine
 10
107.2561487343117
 20
220.7620379481176
 30
0.0
 11
107.2561487343117
 21
217.2620379481176
 31
0.0
  0
LINE
  5
311
330
220
100
AcDbEntity
  8
02___PRT_ALL_AXES
  6
Continuous
 62
     7
100
AcDbLine
 10
107.2561487343117
 20
202.8427282591176
 30
0.0
 11
107.2561487343117
 21
213.2620379481176
 31
0.0
  0
LINE
  5
312
330
220
100
AcDbEntity
  8
3_ALL_AXES
  6
Continuous
 62
     7
100
AcDbLine
 10
36.75614873431166
 20
245.7620379481175
 30
0.0
 11
160.7561487343117
 21
245.7620379481175
 31
0.0
  0
LINE
  5
313
330
220
100
AcDbEntity
  8
7_ALL_FEATURES
  6
Continuous
 62
     7
100
AcDbLine
 10
157.0170912229117
 20
266.7620379481175
 30
0.0
 11
157.9567838437117
 21
267.7620379481175
 31
0.0
  0
LINE
  5
314
330
220
100
AcDbEntity
  8
7_ALL_FEATURES
  6
Continuous
 62
     7
100
AcDbLine
 10
160.7561487343117
 20
266.7620379481175
 30
0.0
 11
161.7561487343117
 21
267.7620379481175
 31
0.0
  0
LINE
  5
315
330
220
100
AcDbEntity
  8
7_ALL_FEATURES
  6
Continuous
 62
     7
100
AcDbLine
 10
160.7561487343117
 20
260.4620378729176
 30
0.0
 11
36.75614873431166
 21
260.4620378729176
 31
0.0
  0
LINE
  5
316
330
220
100
AcDbEntity
  8
02___PRT_ALL_AXES
  6
Continuous
 62
     7
100
AcDbLine
 10
160.7556721681117
 20
260.7620379481175
 30
0.0
 11
36.75662530031166
 21
260.7620379481175
 31
0.0
  0
LINE
  5
317
330
220
100
AcDbEntity
  8
06___PRT_ALL_SURFS
  6
Continuous
 62
     7
100
AcDbLine
 10
51.26139326091165
 20
266.7620379481175
 30
0.0
 11
87.98996171891164
 21
266.7620379481175
 31
0.0
  0
LINE
  5
318
330
220
100
AcDbEntity
  8
7_ALL_FEATURES
  6
Continuous
 62
     7
100
AcDbLine
 10
157.0170912229117
 20
266.7620379481175
 30
0.0
 11
160.7561487343117
 21
266.7620379481175
 31
0.0
  0
LINE
  5
319
330
220
100
AcDbEntity
  8
3_ALL_AXES
  6
Continuous
 62
     7
100
AcDbLine
 10
26.25614873431166
 20
267.7620379481175
 30
0.0
 11
171.2561487343117
 21
267.7620379481175
 31
0.0
  0
LINE
  5
31A
330
220
100
AcDbEntity
  8
7_ALL_FEATURES
  6
Continuous
 62
     7
100
AcDbLine
 10
26.25614873431166
 20
268.7620379481175
 30
0.0
 11
171.2561487343117
 21
268.7620379481175
 31
0.0
  0
LINE
  5
31B
330
220
100
AcDbEntity
  8
7_ALL_FEATURES
  6
Continuous
 62
     7
100
AcDbLine
 10
28.25614873431166
 20
270.7620379481175
 30
0.0
 11
169.2561487343117
 21
270.7620379481175
 31
0.0
  0
LINE
  5
31C
330
220
100
AcDbEntity
  8
7_ALL_FEATURES
  6
Continuous
 62
     7
100
AcDbLine
 10
138.7561487343117
 20
237.7620379481176
 30
0.0
 11
138.7561487343117
 21
234.7620379481176
 31
0.0
  0
LINE
  5
31D
330
220
100
AcDbEntity
  8
7_ALL_FEATURES
  6
Continuous
 62
     7
100
AcDbLine
 10
138.7561487343117
 20
232.2620379481176
 30
0.0
 11
138.7561487343117
 21
229.2620379481176
 31
0.0
  0
LINE
  5
31E
330
220
100
AcDbEntity
  8
7_ALL_FEATURES
  6
Continuous
 62
     7
100
AcDbLine
 10
138.7561487343117
 20
226.7620379481176
 30
0.0
 11
138.7561487343117
 21
223.7620379481176
 31
0.0
  0
LINE
  5
31F
330
220
100
AcDbEntity
  8
7_ALL_FEATURES
  6
Continuous
 62
     7
100
AcDbLine
 10
147.7561487343117
 20
220.7620379481176
 30
0.0
 11
148.7561487343117
 21
221.7620379481176
 31
0.0
  0
LINE
  5
320
330
220
100
AcDbEntity
  8
3_ALL_AXES
  6
Continuous
 62
     7
100
AcDbLine
 10
148.7561487343117
 20
221.7620379481176
 30
0.0
 11
148.7561487343117
 21
223.7620379481176
 31
0.0
  0
LINE
  5
321
330
220
100
AcDbEntity
  8
3_ALL_AXES
  6
Continuous
 62
     7
100
AcDbLine
 10
148.7561487343117
 20
226.7620379481176
 30
0.0
 11
148.7561487343117
 21
229.2620379481176
 31
0.0
  0
LINE
  5
322
330
220
100
AcDbEntity
  8
3_ALL_AXES
  6
Continuous
 62
     7
100
AcDbLine
 10
148.7561487343117
 20
232.2620379481176
 30
0.0
 11
148.7561487343117
 21
234.7620379481176
 31
0.0
  0
LINE
  5
323
330
220
100
AcDbEntity
  8
3_ALL_AXES
  6
Continuous
 62
     7
100
AcDbLine
 10
148.7561487343117
 20
237.7620379481176
 30
0.0
 11
148.7561487343117
 21
245.7620379481175
 31
0.0
  0
LINE
  5
324
330
220
100
AcDbEntity
  8
7_ALL_FEATURES
  6
Continuous
 62
     7
100
AcDbLine
 10
157.0170912229117
 20
267.7620379481175
 30
0.0
 11
157.0170912229117
 21
266.7620379481175
 31
0.0
  0
LINE
  5
325
330
220
100
AcDbEntity
  8
02___PRT_ALL_AXES
  6
Continuous
 62
     7
100
AcDbLine
 10
160.7561487343117
 20
266.7620379481175
 30
0.0
 11
160.7561487343117
 21
260.7620379481175
 31
0.0
  0
LINE
  5
326
330
220
100
AcDbEntity
  8
3_ALL_AXES
  6
Continuous
 62
     7
100
AcDbLine
 10
160.7561487343117
 20
245.7620379481175
 30
0.0
 11
160.7561487343117
 21
260.4620378735176
 31
0.0
  0
LINE
  5
327
330
220
100
AcDbEntity
  8
7_ALL_FEATURES
  6
Continuous
 62
     7
100
AcDbLine
 10
160.4561462043117
 20
260.7620354917176
 30
0.0
 11
160.7561462661116
 21
260.4620354055176
 31
0.0
  0
LINE
  5
328
330
220
100
AcDbEntity
  8
7_ALL_FEATURES
  6
Continuous
 62
     7
100
AcDbLine
 10
171.2561487343117
 20
267.7620379481175
 30
0.0
 11
171.2561487343117
 21
268.7620379481175
 31
0.0
  0
LINE
  5
329
330
220
100
AcDbEntity
  8
7_ALL_FEATURES
  6
Continuous
 62
     7
100
AcDbLine
 10
169.2561487343117
 20
270.7620379481175
 30
0.0
 11
171.2561487343117
 21
268.7620379481175
 31
0.0
  0
LINE
  5
32A
330
220
100
AcDbEntity
  8
7_ALL_FEATURES
  6
Continuous
 62
     7
100
AcDbLine
 10
200.1985036030932
 20
270.7620379481175
 30
0.0
 11
198.1985036030932
 21
268.7620379481175
 31
0.0
  0
LINE
  5
32B
330
220
100
AcDbEntity
  8
7_ALL_FEATURES
  6
Continuous
 62
     7
100
AcDbLine
 10
198.1985036030932
 20
267.7620379481175
 30
0.0
 11
198.1985036030932
 21
268.7620379481175
 31
0.0
  0
LINE
  5
32C
330
220
100
AcDbEntity
  8
02___PRT_ALL_AXES
  6
Continuous
 62
     7
100
AcDbLine
 10
208.6985036030932
 20
267.7184878851176
 30
0.0
 11
208.6985036030932
 21
260.7620379481175
 31
0.0
  0
LINE
  5
32D
330
220
100
AcDbEntity
  8
7_ALL_FEATURES
  6
Continuous
 62
     7
100
AcDbLine
 10
208.6985036030932
 20
260.4620379481175
 30
0.0
 11
208.6985036030932
 21
245.7620379481175
 31
0.0
  0
LINE
  5
32E
330
220
100
AcDbEntity
  8
3_ALL_AXES
  6
Continuous
 62
     7
100
AcDbLine
 10
208.6985036030932
 20
245.7620379481175
 30
0.0
 11
208.6985036030932
 21
260.4620379481175
 31
0.0
  0
LINE
  5
32F
330
220
100
AcDbEntity
  8
7_ALL_FEATURES
  6
Continuous
 62
     7
100
AcDbLine
 10
208.9985060964932
 20
260.7620354551175
 30
0.0
 11
208.6985061086932
 21
260.4620354431175
 31
0.0
  0
LINE
  5
330
330
220
100
AcDbEntity
  8
7_ALL_FEATURES
  6
Continuous
 62
     7
100
AcDbLine
 10
220.6985036030932
 20
245.7620379481175
 30
0.0
 11
220.6985036030932
 21
237.7620379481176
 31
0.0
  0
LINE
  5
331
330
220
100
AcDbEntity
  8
7_ALL_FEATURES
  6
Continuous
 62
     7
100
AcDbLine
 10
220.6985036030932
 20
234.7620379481176
 30
0.0
 11
220.6985036030932
 21
232.2620379481176
 31
0.0
  0
LINE
  5
332
330
220
100
AcDbEntity
  8
7_ALL_FEATURES
  6
Continuous
 62
     7
100
AcDbLine
 10
220.6985036030932
 20
229.2620379481176
 30
0.0
 11
220.6985036030932
 21
226.7620379481176
 31
0.0
  0
LINE
  5
333
330
220
100
AcDbEntity
  8
7_ALL_FEATURES
  6
Continuous
 62
     7
100
AcDbLine
 10
220.6985036030932
 20
223.7620379481176
 30
0.0
 11
220.6985036030932
 21
221.7620379481176
 31
0.0
  0
LINE
  5
334
330
220
100
AcDbEntity
  8
3_ALL_AXES
  6
Continuous
 62
     7
100
AcDbLine
 10
220.6985036030932
 20
221.7620379481176
 30
0.0
 11
220.6985036030932
 21
223.7620379481176
 31
0.0
  0
LINE
  5
335
330
220
100
AcDbEntity
  8
3_ALL_AXES
  6
Continuous
 62
     7
100
AcDbLine
 10
220.6985036030932
 20
226.7620379481176
 30
0.0
 11
220.6985036030932
 21
229.2620379481176
 31
0.0
  0
LINE
  5
336
330
220
100
AcDbEntity
  8
3_ALL_AXES
  6
Continuous
 62
     7
100
AcDbLine
 10
220.6985036030932
 20
237.7620379481176
 30
0.0
 11
220.6985036030932
 21
245.7620379481175
 31
0.0
  0
LINE
  5
337
330
220
100
AcDbEntity
  8
7_ALL_FEATURES
  6
Continuous
 62
     7
100
AcDbLine
 10
221.6985036030932
 20
220.7620379481176
 30
0.0
 11
220.6985036030932
 21
221.7620379481176
 31
0.0
  0
LINE
  5
338
330
220
100
AcDbEntity
  8
7_ALL_FEATURES
  6
Continuous
 62
     7
100
AcDbLine
 10
230.6985036030932
 20
223.7620379481176
 30
0.0
 11
230.6985036030932
 21
226.7620379481176
 31
0.0
  0
LINE
  5
339
330
220
100
AcDbEntity
  8
7_ALL_FEATURES
  6
Continuous
 62
     7
100
AcDbLine
 10
230.6985036030932
 20
229.2620379481176
 30
0.0
 11
230.6985036030932
 21
232.2620379481176
 31
0.0
  0
LINE
  5
33A
330
220
100
AcDbEntity
  8
7_ALL_FEATURES
  6
Continuous
 62
     7
100
AcDbLine
 10
230.6985036030932
 20
234.7620379481176
 30
0.0
 11
230.6985036030932
 21
237.7620379481176
 31
0.0
  0
LINE
  5
33B
330
220
100
AcDbEntity
  8
06___PRT_ALL_SURFS
  6
Continuous
 62
     7
100
AcDbLine
 10
230.8456718024932
 20
267.7620379481175
 30
0.0
 11
230.8456718024932
 21
266.7620379481175
 31
0.0
  0
LINE
  5
33C
330
220
100
AcDbEntity
  8
02___PRT_ALL_AXES
  6
Continuous
 62
     7
100
AcDbLine
 10
265.8568440062932
 20
200.7620379481176
 30
0.0
 11
275.5401631998932
 21
200.7620379481176
 31
0.0
  0
LINE
  5
33D
330
220
100
AcDbEntity
  8
02___PRT_ALL_AXES
  6
Continuous
 62
     9
100
AcDbLine
 10
261.6003876208932
 20
205.0184943337176
 30
0.0
 11
261.7151197984932
 21
205.0184943337176
 31
0.0
  0
LINE
  5
33E
330
220
100
AcDbEntity
  8
02___PRT_ALL_AXES
  6
Continuous
 62
     9
100
AcDbLine
 10
264.9594555434932
 20
205.0184943337176
 30
0.0
 11
267.4541678580932
 21
205.0184943337176
 31
0.0
  0
LINE
  5
33F
330
220
100
AcDbEntity
  8
02___PRT_ALL_AXES
  6
Continuous
 62
     9
100
AcDbLine
 10
273.9428393480932
 20
205.0184943337176
 30
0.0
 11
276.4375516628932
 21
205.0184943337176
 31
0.0
  0
LINE
  5
340
330
220
100
AcDbEntity
  8
02___PRT_ALL_AXES
  6
Continuous
 62
     9
100
AcDbLine
 10
279.6818874076932
 20
205.0184943337176
 30
0.0
 11
279.7966195852932
 21
205.0184943337176
 31
0.0
  0
LINE
  5
341
330
220
100
AcDbEntity
  8
02___PRT_ALL_AXES
  6
Continuous
 62
     7
100
AcDbLine
 10
261.6003876208932
 20
205.0451993541176
 30
0.0
 11
261.7151197984932
 21
205.0451993541176
 31
0.0
  0
LINE
  5
342
330
220
100
AcDbEntity
  8
02___PRT_ALL_AXES
  6
Continuous
 62
     7
100
AcDbLine
 10
264.9594555434932
 20
205.0451993541176
 30
0.0
 11
267.4541678580932
 21
205.0451993541176
 31
0.0
  0
LINE
  5
343
330
220
100
AcDbEntity
  8
02___PRT_ALL_AXES
  6
Continuous
 62
     7
100
AcDbLine
 10
273.9428393480932
 20
205.0451993541176
 30
0.0
 11
276.4375516628932
 21
205.0451993541176
 31
0.0
  0
LINE
  5
344
330
220
100
AcDbEntity
  8
02___PRT_ALL_AXES
  6
Continuous
 62
     7
100
AcDbLine
 10
279.6818874076932
 20
205.0451993541176
 30
0.0
 11
279.7966195852932
 21
205.0451993541176
 31
0.0
  0
LINE
  5
345
330
220
100
AcDbEntity
  8
02___PRT_ALL_AXES
  6
Continuous
 62
     7
100
AcDbLine
 10
261.6003876208932
 20
205.0451993541176
 30
0.0
 11
260.8835490268932
 21
205.7620379481176
 31
0.0
  0
LINE
  5
346
330
220
100
AcDbEntity
  8
02___PRT_ALL_AXES
  6
Continuous
 62
     7
100
AcDbLine
 10
280.5134581792932
 20
213.2620379481176
 30
0.0
 11
260.8835490268932
 21
213.2620379481176
 31
0.0
  0
LINE
  5
347
330
220
100
AcDbEntity
  8
06___PRT_ALL_SURFS
  6
Continuous
 62
     7
100
AcDbLine
 10
209.6404229162931
 20
266.7620379481175
 30
0.0
 11
208.6769657584932
 21
267.7403579857175
 31
0.0
  0
LINE
  5
348
330
220
100
AcDbEntity
  8
02___PRT_ALL_AXES
  6
Continuous
 62
     7
100
AcDbLine
 10
280.5134581792932
 20
217.2620379481176
 30
0.0
 11
260.8835490268932
 21
217.2620379481176
 31
0.0
  0
LINE
  5
349
330
220
100
AcDbEntity
  8
06___PRT_ALL_SURFS
  6
Continuous
 62
     7
100
AcDbLine
 10
230.8456718024932
 20
266.7620379481175
 30
0.0
 11
230.2028841928932
 21
267.7620379481175
 31
0.0
  0
LINE
  5
34A
330
220
100
AcDbEntity
  8
7_ALL_FEATURES
  6
Continuous
 62
     7
100
AcDbLine
 10
221.6985036030932
 20
220.7620379481176
 30
0.0
 11
319.6985036030932
 21
220.7620379481176
 31
0.0
  0
LINE
  5
34B
330
220
100
AcDbEntity
  8
7_ALL_FEATURES
  6
Continuous
 62
     7
100
AcDbLine
 10
220.6985036030932
 20
221.7620379481176
 30
0.0
 11
320.6985036030932
 21
221.7620379481176
 31
0.0
  0
LINE
  5
34C
330
220
100
AcDbEntity
  8
7_ALL_FEATURES
  6
Continuous
 62
     7
100
AcDbLine
 10
220.6985036030932
 20
223.7620379481176
 30
0.0
 11
320.6985036030932
 21
223.7620379481176
 31
0.0
  0
LINE
  5
34D
330
220
100
AcDbEntity
  8
02___PRT_ALL_AXES
  6
Continuous
 62
     7
100
AcDbLine
 10
260.8835490268932
 20
220.7620379481176
 30
0.0
 11
260.8835490268932
 21
217.2620379481176
 31
0.0
  0
LINE
  5
34E
330
220
100
AcDbEntity
  8
02___PRT_ALL_AXES
  6
Continuous
 62
     7
100
AcDbLine
 10
260.8835490268932
 20
213.2620379481176
 30
0.0
 11
260.8835490268932
 21
205.7620379481176
 31
0.0
  0
LINE
  5
34F
330
220
100
AcDbEntity
  8
02___PRT_ALL_AXES
  6
Continuous
 62
     7
100
AcDbLine
 10
261.6003876208932
 20
205.0184943337176
 30
0.0
 11
261.6003876208932
 21
205.0451993541176
 31
0.0
  0
LINE
  5
350
330
220
100
AcDbEntity
  8
02___PRT_ALL_AXES
  6
Continuous
 62
     7
100
AcDbLine
 10
261.7151197984932
 20
205.0184943337176
 30
0.0
 11
261.7151197984932
 21
205.0451993541176
 31
0.0
  0
LINE
  5
351
330
220
100
AcDbEntity
  8
02___PRT_ALL_AXES
  6
Continuous
 62
     7
100
AcDbLine
 10
263.1985036030932
 20
217.2620379481176
 30
0.0
 11
263.1985036030932
 21
213.2620379481176
 31
0.0
  0
LINE
  5
352
330
220
100
AcDbEntity
  8
02___PRT_ALL_AXES
  6
Continuous
 62
     7
100
AcDbLine
 10
264.9594555434932
 20
205.0184943337176
 30
0.0
 11
264.9594555434932
 21
205.0451993541176
 31
0.0
  0
LINE
  5
353
330
220
100
AcDbEntity
  8
02___PRT_ALL_AXES
  6
Continuous
 62
     7
100
AcDbLine
 10
265.7910263150932
 20
220.7620379481176
 30
0.0
 11
265.7910263150932
 21
217.2620379481176
 31
0.0
  0
LINE
  5
354
330
220
100
AcDbEntity
  8
02___PRT_ALL_AXES
  6
Continuous
 62
     7
100
AcDbLine
 10
265.7910263150932
 20
213.2620379481176
 30
0.0
 11
265.7910263150932
 21
205.7620379481176
 31
0.0
  0
LINE
  5
355
330
220
100
AcDbEntity
  8
7_ALL_FEATURES
  6
Continuous
 62
     7
100
AcDbLine
 10
320.6985036030932
 20
226.7620379481176
 30
0.0
 11
220.6985036030932
 21
226.7620379481176
 31
0.0
  0
LINE
  5
356
330
220
100
AcDbEntity
  8
7_ALL_FEATURES
  6
Continuous
 62
     7
100
AcDbLine
 10
220.6985036030932
 20
229.2620379481176
 30
0.0
 11
320.6985036030932
 21
229.2620379481176
 31
0.0
  0
LINE
  5
357
330
220
100
AcDbEntity
  8
02___PRT_ALL_AXES
  6
Continuous
 62
     7
100
AcDbLine
 10
267.4541678580932
 20
205.0184943337176
 30
0.0
 11
267.4541678580932
 21
205.0451993541176
 31
0.0
  0
LINE
  5
358
330
220
100
AcDbEntity
  8
7_ALL_FEATURES
  6
Continuous
 62
     7
100
AcDbLine
 10
320.6985036030932
 20
232.2620379481176
 30
0.0
 11
220.6985036030932
 21
232.2620379481176
 31
0.0
  0
LINE
  5
359
330
220
100
AcDbEntity
  8
7_ALL_FEATURES
  6
Continuous
 62
     7
100
AcDbLine
 10
220.6985036030932
 20
234.7620379481176
 30
0.0
 11
320.6985036030932
 21
234.7620379481176
 31
0.0
  0
LINE
  5
35A
330
220
100
AcDbEntity
  8
02___PRT_ALL_AXES
  6
Continuous
 62
     7
100
AcDbLine
 10
273.9428393480932
 20
205.0184943337176
 30
0.0
 11
273.9428393480932
 21
205.0451993541176
 31
0.0
  0
LINE
  5
35B
330
220
100
AcDbEntity
  8
02___PRT_ALL_AXES
  6
Continuous
 62
     7
100
AcDbLine
 10
275.6059808912932
 20
220.7620379481176
 30
0.0
 11
275.6059808912932
 21
217.2620379481176
 31
0.0
  0
LINE
  5
35C
330
220
100
AcDbEntity
  8
02___PRT_ALL_AXES
  6
Continuous
 62
     7
100
AcDbLine
 10
275.6059808912932
 20
213.2620379481176
 30
0.0
 11
275.6059808912932
 21
205.7620379481176
 31
0.0
  0
LINE
  5
35D
330
220
100
AcDbEntity
  8
02___PRT_ALL_AXES
  6
Continuous
 62
     7
100
AcDbLine
 10
276.4375516628932
 20
205.0184943337176
 30
0.0
 11
276.4375516628932
 21
205.0451993541176
 31
0.0
  0
LINE
  5
35E
330
220
100
AcDbEntity
  8
7_ALL_FEATURES
  6
Continuous
 62
     7
100
AcDbLine
 10
320.6985036030932
 20
237.7620379481176
 30
0.0
 11
220.6985036030932
 21
237.7620379481176
 31
0.0
  0
LINE
  5
35F
330
220
100
AcDbEntity
  8
02___PRT_ALL_AXES
  6
Continuous
 62
     7
100
AcDbLine
 10
278.1985036030932
 20
217.2620379481176
 30
0.0
 11
278.1985036030932
 21
213.2620379481176
 31
0.0
  0
LINE
  5
360
330
220
100
AcDbEntity
  8
02___PRT_ALL_AXES
  6
Continuous
 62
     7
100
AcDbLine
 10
279.6818874076932
 20
205.0184943337176
 30
0.0
 11
279.6818874076932
 21
205.0451993541176
 31
0.0
  0
LINE
  5
361
330
220
100
AcDbEntity
  8
02___PRT_ALL_AXES
  6
Continuous
 62
     7
100
AcDbLine
 10
279.7966195852932
 20
205.0184943337176
 30
0.0
 11
279.7966195852932
 21
205.0451993541176
 31
0.0
  0
LINE
  5
362
330
220
100
AcDbEntity
  8
02___PRT_ALL_AXES
  6
Continuous
 62
     7
100
AcDbLine
 10
280.5134581792932
 20
220.7620379481176
 30
0.0
 11
280.5134581792932
 21
217.2620379481176
 31
0.0
  0
LINE
  5
363
330
220
100
AcDbEntity
  8
02___PRT_ALL_AXES
  6
Continuous
 62
     7
100
AcDbLine
 10
280.5134581792932
 20
213.2620379481176
 30
0.0
 11
280.5134581792932
 21
205.7620379481176
 31
0.0
  0
LINE
  5
364
330
220
100
AcDbEntity
  8
3_ALL_AXES
  6
Continuous
 62
     7
100
AcDbLine
 10
208.6985036030932
 20
245.7620379481175
 30
0.0
 11
332.6985036030932
 21
245.7620379481175
 31
0.0
  0
LINE
  5
365
330
220
100
AcDbEntity
  8
06___PRT_ALL_SURFS
  6
Continuous
 62
     7
100
AcDbLine
 10
310.5513354036932
 20
266.7620379481175
 30
0.0
 11
311.1941230132932
 21
267.7620379481175
 31
0.0
  0
LINE
  5
366
330
220
100
AcDbEntity
  8
06___PRT_ALL_SURFS
  6
Continuous
 62
     7
100
AcDbLine
 10
331.7565842898932
 20
266.7620379481175
 30
0.0
 11
332.7200414478932
 21
267.7403579857175
 31
0.0
  0
LINE
  5
367
330
220
100
AcDbEntity
  8
7_ALL_FEATURES
  6
Continuous
 62
     7
100
AcDbLine
 10
332.6985036030932
 20
260.4620379481175
 30
0.0
 11
208.6985036030932
 21
260.4620379481175
 31
0.0
  0
LINE
  5
368
330
220
100
AcDbEntity
  8
02___PRT_ALL_AXES
  6
Continuous
 62
     7
100
AcDbLine
 10
332.6980270370932
 20
260.7620379481175
 30
0.0
 11
208.6989801692932
 21
260.7620379481175
 31
0.0
  0
LINE
  5
369
330
220
100
AcDbEntity
  8
02___PRT_ALL_AXES
  6
Continuous
 62
     7
100
AcDbLine
 10
279.7966195852932
 20
205.0451993541176
 30
0.0
 11
280.5134581792932
 21
205.7620379481176
 31
0.0
  0
LINE
  5
36A
330
220
100
AcDbEntity
  8
06___PRT_ALL_SURFS
  6
Continuous
 62
     7
100
AcDbLine
 10
209.6404229162931
 20
266.7620379481175
 30
0.0
 11
230.8456718024932
 21
266.7620379481175
 31
0.0
  0
LINE
  5
36B
330
220
100
AcDbEntity
  8
06___PRT_ALL_SURFS
  6
Continuous
 62
     7
100
AcDbLine
 10
310.5513354036932
 20
266.7620379481175
 30
0.0
 11
331.7565842898932
 21
266.7620379481175
 31
0.0
  0
LINE
  5
36C
330
220
100
AcDbEntity
  8
3_ALL_AXES
  6
Continuous
 62
     7
100
AcDbLine
 10
198.1985036030932
 20
267.7620379481175
 30
0.0
 11
343.1985036030932
 21
267.7620379481175
 31
0.0
  0
LINE
  5
36D
330
220
100
AcDbEntity
  8
7_ALL_FEATURES
  6
Continuous
 62
     7
100
AcDbLine
 10
198.1985036030932
 20
268.7620379481175
 30
0.0
 11
343.1985036030932
 21
268.7620379481175
 31
0.0
  0
LINE
  5
36E
330
220
100
AcDbEntity
  8
7_ALL_FEATURES
  6
Continuous
 62
     7
100
AcDbLine
 10
200.1985036030932
 20
270.7620379481175
 30
0.0
 11
341.1985036030932
 21
270.7620379481175
 31
0.0
  0
LINE
  5
36F
330
220
100
AcDbEntity
  8
06___PRT_ALL_SURFS
  6
Continuous
 62
     7
100
AcDbLine
 10
310.5513354036932
 20
267.7620379481175
 30
0.0
 11
310.5513354036932
 21
266.7620379481175
 31
0.0
  0
LINE
  5
370
330
220
100
AcDbEntity
  8
7_ALL_FEATURES
  6
Continuous
 62
     7
100
AcDbLine
 10
310.6985036030932
 20
223.7620379481176
 30
0.0
 11
310.6985036030932
 21
226.7620379481176
 31
0.0
  0
LINE
  5
371
330
220
100
AcDbEntity
  8
7_ALL_FEATURES
  6
Continuous
 62
     7
100
AcDbLine
 10
310.6985036030932
 20
229.2620379481176
 30
0.0
 11
310.6985036030932
 21
232.2620379481176
 31
0.0
  0
LINE
  5
372
330
220
100
AcDbEntity
  8
7_ALL_FEATURES
  6
Continuous
 62
     7
100
AcDbLine
 10
310.6985036030932
 20
234.7620379481176
 30
0.0
 11
310.6985036030932
 21
237.7620379481176
 31
0.0
  0
LINE
  5
373
330
220
100
AcDbEntity
  8
7_ALL_FEATURES
  6
Continuous
 62
     7
100
AcDbLine
 10
319.6985036030932
 20
220.7620379481176
 30
0.0
 11
320.6985036030932
 21
221.7620379481176
 31
0.0
  0
LINE
  5
374
330
220
100
AcDbEntity
  8
7_ALL_FEATURES
  6
Continuous
 62
     7
100
AcDbLine
 10
320.6985036030932
 20
245.7620379481175
 30
0.0
 11
320.6985036030932
 21
237.7620379481176
 31
0.0
  0
LINE
  5
375
330
220
100
AcDbEntity
  8
7_ALL_FEATURES
  6
Continuous
 62
     7
100
AcDbLine
 10
320.6985036030932
 20
234.7620379481176
 30
0.0
 11
320.6985036030932
 21
232.2620379481176
 31
0.0
  0
LINE
  5
376
330
220
100
AcDbEntity
  8
7_ALL_FEATURES
  6
Continuous
 62
     7
100
AcDbLine
 10
320.6985036030932
 20
223.7620379481176
 30
0.0
 11
320.6985036030932
 21
221.7620379481176
 31
0.0
  0
LINE
  5
377
330
220
100
AcDbEntity
  8
3_ALL_AXES
  6
Continuous
 62
     7
100
AcDbLine
 10
320.6985036030932
 20
221.7620379481176
 30
0.0
 11
320.6985036030932
 21
223.7620379481176
 31
0.0
  0
LINE
  5
378
330
220
100
AcDbEntity
  8
3_ALL_AXES
  6
Continuous
 62
     7
100
AcDbLine
 10
320.6985036030932
 20
226.7620379481176
 30
0.0
 11
320.6985036030932
 21
229.2620379481176
 31
0.0
  0
LINE
  5
379
330
220
100
AcDbEntity
  8
3_ALL_AXES
  6
Continuous
 62
     7
100
AcDbLine
 10
320.6985036030932
 20
232.2620379481176
 30
0.0
 11
320.6985036030932
 21
234.7620379481176
 31
0.0
  0
LINE
  5
37A
330
220
100
AcDbEntity
  8
3_ALL_AXES
  6
Continuous
 62
     7
100
AcDbLine
 10
320.6985036030932
 20
237.7620379481176
 30
0.0
 11
320.6985036030932
 21
245.7620379481175
 31
0.0
  0
LINE
  5
37B
330
220
100
AcDbEntity
  8
02___PRT_ALL_AXES
  6
Continuous
 62
     7
100
AcDbLine
 10
332.6985036030932
 20
267.7184878851176
 30
0.0
 11
332.6985036030932
 21
260.7620379481175
 31
0.0
  0
LINE
  5
37C
330
220
100
AcDbEntity
  8
7_ALL_FEATURES
  6
Continuous
 62
     7
100
AcDbLine
 10
332.6985036030932
 20
260.4620379481175
 30
0.0
 11
332.6985036030932
 21
245.7620379481175
 31
0.0
  0
LINE
  5
37D
330
220
100
AcDbEntity
  8
3_ALL_AXES
  6
Continuous
 62
     7
100
AcDbLine
 10
332.6985036030932
 20
245.7620379481175
 30
0.0
 11
332.6985036030932
 21
260.4620379481175
 31
0.0
  0
LINE
  5
37E
330
220
100
AcDbEntity
  8
7_ALL_FEATURES
  6
Continuous
 62
     7
100
AcDbLine
 10
332.3985011096932
 20
260.7620354551175
 30
0.0
 11
332.6985010974932
 21
260.4620354431175
 31
0.0
  0
LINE
  5
37F
330
220
100
AcDbEntity
  8
7_ALL_FEATURES
  6
Continuous
 62
     7
100
AcDbLine
 10
343.1985036030932
 20
267.7620379481175
 30
0.0
 11
343.1985036030932
 21
268.7620379481175
 31
0.0
  0
LINE
  5
380
330
220
100
AcDbEntity
  8
7_ALL_FEATURES
  6
Continuous
 62
     7
100
AcDbLine
 10
341.1985036030932
 20
270.7620379481175
 30
0.0
 11
343.1985036030932
 21
268.7620379481175
 31
0.0
  0
LINE
  5
381
330
220
100
AcDbEntity
  8
7_ALL_FEATURES
  6
Continuous
 62
     7
100
AcDbLine
 10
285.5820822005
 20
125.1820005261
 30
0.0
 11
285.576446315
 21
125.6549544001
 31
0.0
  0
LINE
  5
382
330
220
100
AcDbEntity
  8
7_ALL_FEATURES
  6
Continuous
 62
     7
100
AcDbLine
 10
286.8908658903
 20
126.4553783445
 30
0.0
 11
285.576446315
 21
125.6549544001
 31
0.0
  0
LINE
  5
383
330
220
100
AcDbEntity
  8
3_ALL_AXES
  6
Continuous
 62
     7
100
AcDbLine
 10
302.7645837433
 20
109.1338466918
 30
0.0
 11
302.7155817389
 21
113.2460110986
 31
0.0
  0
LINE
  5
384
330
220
100
AcDbEntity
  8
3_ALL_AXES
  6
Continuous
 62
     7
100
AcDbLine
 10
308.8994190426
 20
97.8544467616
 30
0.0
 11
308.8881472716
 21
98.8003545096
 31
0.0
  0
LINE
  5
385
330
220
100
AcDbEntity
  8
3_ALL_AXES
  6
Continuous
 62
     7
100
AcDbLine
 10
308.8712396151
 20
100.2192161314
 30
0.0
 11
308.8571499013
 21
101.4016008163
 31
0.0
  0
LINE
  5
386
330
220
100
AcDbEntity
  8
3_ALL_AXES
  6
Continuous
 62
     7
100
AcDbLine
 10
308.8402422447
 20
102.8204624382
 30
0.0
 11
308.8348894354
 21
103.2696610404
 31
0.0
  0
LINE
  5
387
330
220
100
AcDbEntity
  8
7_ALL_FEATURES
  6
Continuous
 62
     7
100
AcDbLine
 10
310.9214705405
 20
94.682505929
 30
0.0
 11
310.4468181329
 21
95.094299096
 31
0.0
  0
LINE
  5
388
330
220
100
AcDbEntity
  8
3_ALL_AXES
  6
Continuous
 62
     7
100
AcDbLine
 10
310.0067859086
 20
120.3219538687
 30
0.0
 11
310.002108155
 21
120.7145029437
 31
0.0
  0
LINE
  5
389
330
220
100
AcDbEntity
  8
7_ALL_FEATURES
  6
Continuous
 62
     7
100
AcDbLine
 10
315.7951305416
 20
104.1341915386
 30
0.0
 11
315.7894946561
 21
104.6071454126
 31
0.0
  0
LINE
  5
38A
330
220
100
AcDbEntity
  8
7_ALL_FEATURES
  6
Continuous
 62
     7
100
AcDbLine
 10
316.2704508288
 20
105.9881985705
 30
0.0
 11
315.7894946561
 21
104.6071454126
 31
0.0
  0
LINE
  5
38B
330
220
100
AcDbEntity
  8
3_ALL_AXES
  6
Continuous
 62
     7
100
AcDbLine
 10
285.5820822005
 20
125.1820005261
 30
0.0
 11
315.7951305416
 21
104.1341915386
 31
0.0
  0
LINE
  5
38C
330
220
100
AcDbEntity
  8
7_ALL_FEATURES
  6
Continuous
 62
     7
100
AcDbLine
 10
285.576446315
 20
125.6549544001
 30
0.0
 11
315.7894946561
 21
104.6071454126
 31
0.0
  0
LINE
  5
38D
330
220
100
AcDbEntity
  8
7_ALL_FEATURES
  6
Continuous
 62
     7
100
AcDbLine
 10
286.8908658903
 20
126.4553783445
 30
0.0
 11
316.2704508288
 21
105.9881985705
 31
0.0
  0
LINE
  5
38E
330
220
100
AcDbEntity
  8
3_ALL_AXES
  6
Continuous
 62
     7
100
AcDbLine
 10
315.7951305416
 20
104.1341915386
 30
0.0
 11
381.6947048084
 21
114.6344247738
 31
0.0
  0
LINE
  5
38F
330
220
100
AcDbEntity
  8
7_ALL_FEATURES
  6
Continuous
 62
     7
100
AcDbLine
 10
315.7894946561
 20
104.6071454126
 30
0.0
 11
381.6890689229
 21
115.1073786478
 31
0.0
  0
LINE
  5
390
330
220
100
AcDbEntity
  8
7_ALL_FEATURES
  6
Continuous
 62
     7
100
AcDbLine
 10
316.2704508288
 20
105.9881985705
 30
0.0
 11
380.3521058055
 21
116.1987701992
 31
0.0
  0
LINE
  5
391
330
220
100
AcDbEntity
  8
02___PRT_ALL_AXES
  6
Continuous
 62
     7
100
AcDbLine
 10
330.8049392188
 20
89.1469406901
 30
0.0
 11
330.8047887124
 21
89.159570933
 31
0.0
  0
LINE
  5
392
330
220
100
AcDbEntity
  8
02___PRT_ALL_AXES
  6
Continuous
 62
     7
100
AcDbLine
 10
331.1410524481
 20
89.7806799606
 30
0.0
 11
331.1472905945
 21
89.2571853815
 31
0.0
  0
LINE
  5
393
330
220
100
AcDbEntity
  8
02___PRT_ALL_AXES
  6
Continuous
 62
     7
100
AcDbLine
 10
331.9793497349
 20
88.8891165338
 30
0.0
 11
331.9791992285
 21
88.9017467767
 31
0.0
  0
LINE
  5
394
330
220
100
AcDbEntity
  8
02___PRT_ALL_AXES
  6
Continuous
 62
     7
100
AcDbLine
 10
335.2092416785
 20
88.8251053078
 30
0.0
 11
335.2090911721
 21
88.8377355507
 31
0.0
  0
LINE
  5
395
330
220
100
AcDbEntity
  8
02___PRT_ALL_AXES
  6
Continuous
 62
     7
100
AcDbLine
 10
336.025270959
 20
89.8022348946
 30
0.0
 11
336.0329197656
 21
89.1603601259
 31
0.0
  0
LINE
  5
396
330
220
100
AcDbEntity
  8
02___PRT_ALL_AXES
  6
Continuous
 62
     7
100
AcDbLine
 10
336.5184370036
 20
89.0337084196
 30
0.0
 11
336.5182864972
 21
89.0463386625
 31
0.0
  0
LINE
  5
397
330
220
100
AcDbEntity
  8
7_ALL_FEATURES
  6
Continuous
 62
     7
100
AcDbLine
 10
350.972520867
 20
136.6659499732
 30
0.0
 11
286.8908658903
 21
126.4553783445
 31
0.0
  0
LINE
  5
398
330
220
100
AcDbEntity
  8
3_ALL_AXES
  6
Continuous
 62
     7
100
AcDbLine
 10
357.2520849556
 20
120.9979636534
 30
0.0
 11
357.2487537746
 21
121.277510671
 31
0.0
  0
LINE
  5
399
330
220
100
AcDbEntity
  8
3_ALL_AXES
  6
Continuous
 62
     7
100
AcDbLine
 10
358.8958694337
 20
98.4502221345
 30
0.0
 11
358.8845976627
 21
99.3961298824
 31
0.0
  0
LINE
  5
39A
330
220
100
AcDbEntity
  8
3_ALL_AXES
  6
Continuous
 62
     7
100
AcDbLine
 10
358.8676900061
 20
100.8149915042
 30
0.0
 11
358.8536002923
 21
101.9973761891
 31
0.0
  0
LINE
  5
39B
330
220
100
AcDbEntity
  8
3_ALL_AXES
  6
Continuous
 62
     7
100
AcDbLine
 10
358.8366926358
 20
103.416237811
 30
0.0
 11
358.8312549322
 21
103.8725605911
 31
0.0
  0
LINE
  5
39C
330
220
100
AcDbEntity
  8
7_ALL_FEATURES
  6
Continuous
 62
     7
100
AcDbLine
 10
356.9499773178
 20
95.2309978834
 30
0.0
 11
357.4146821913
 21
95.6539847637
 31
0.0
  0
LINE
  5
39D
330
220
100
AcDbEntity
  8
3_ALL_AXES
  6
Continuous
 62
     7
100
AcDbLine
 10
364.7601822282
 20
109.8726081541
 30
0.0
 11
364.7356391657
 21
111.9322199921
 31
0.0
  0
LINE
  5
39E
330
220
100
AcDbEntity
  8
7_ALL_FEATURES
  6
Continuous
 62
     7
100
AcDbLine
 10
380.3521058055
 20
116.1987701992
 30
0.0
 11
350.972520867
 21
136.6659499732
 31
0.0
  0
LINE
  5
39F
330
220
100
AcDbEntity
  8
7_ALL_FEATURES
  6
Continuous
 62
     7
100
AcDbLine
 10
380.3521058055
 20
116.1987701992
 30
0.0
 11
381.6890689229
 21
115.1073786478
 31
0.0
  0
LINE
  5
3A0
330
220
100
AcDbEntity
  8
7_ALL_FEATURES
  6
Continuous
 62
     7
100
AcDbLine
 10
381.6947048084
 20
114.6344247738
 30
0.0
 11
381.6890689229
 21
115.1073786478
 31
0.0
  0
CIRCLE
  5
3A1
330
220
100
AcDbEntity
  8
3_ALL_AXES
  6
Continuous
 62
     7
100
AcDbCircle
 10
98.7561487343117
 20
117.0040922541668
 30
0.0
 40
47.5
  0
CIRCLE
  5
3A2
330
220
100
AcDbEntity
  8
7_ALL_FEATURES
  6
Continuous
 62
     7
100
AcDbCircle
 10
98.7561487343117
 20
117.0040922541668
 30
0.0
 40
47.25
  0
CIRCLE
  5
3A3
330
220
100
AcDbEntity
  8
7_ALL_FEATURES
  6
Continuous
 62
     7
100
AcDbCircle
 10
98.75614873411169
 20
117.0040922541668
 30
0.0
 40
46.7499955882
  0
CIRCLE
  5
3A4
330
220
100
AcDbEntity
  8
3_ALL_AXES
  6
Continuous
 62
     7
100
AcDbCircle
 10
127.7561487343117
 20
167.2335656735669
 30
0.0
 40
5.5
  0
CIRCLE
  5
3A5
330
220
100
AcDbEntity
  8
3_ALL_AXES
  6
Continuous
 62
     7
100
AcDbCircle
 10
127.7561487343117
 20
66.77461883456687
 30
0.0
 40
5.5
  0
CIRCLE
  5
3A6
330
220
100
AcDbEntity
  8
3_ALL_AXES
  6
Continuous
 62
     7
100
AcDbCircle
 10
40.75614873431169
 20
117.0040922541668
 30
0.0
 40
5.5
  0
CIRCLE
  5
3A7
330
220
100
AcDbEntity
  8
3_ALL_AXES
  6
Continuous
 62
     7
100
AcDbCircle
 10
40.75614873431169
 20
117.0040922541668
 30
0.0
 40
5.45
  0
CIRCLE
  5
3A8
330
220
100
AcDbEntity
  8
3_ALL_AXES
  6
Continuous
 62
     7
100
AcDbCircle
 10
127.7561487343117
 20
167.2335656735669
 30
0.0
 40
5.45
  0
CIRCLE
  5
3A9
330
220
100
AcDbEntity
  8
3_ALL_AXES
  6
Continuous
 62
     7
100
AcDbCircle
 10
127.7561487343117
 20
66.77461883456687
 30
0.0
 40
5.45
  0
CIRCLE
  5
3AA
330
220
100
AcDbEntity
  8
3_ALL_AXES
  6
Continuous
 62
     7
100
AcDbCircle
 10
40.75614873431169
 20
117.0040922541668
 30
0.0
 40
2.75
  0
CIRCLE
  5
3AB
330
220
100
AcDbEntity
  8
3_ALL_AXES
  6
Continuous
 62
     7
100
AcDbCircle
 10
127.7561487343117
 20
167.2335656735669
 30
0.0
 40
2.75
  0
CIRCLE
  5
3AC
330
220
100
AcDbEntity
  8
3_ALL_AXES
  6
Continuous
 62
     7
100
AcDbCircle
 10
127.7561487343117
 20
66.77461883456687
 30
0.0
 40
2.75
  0
ARC
  5
3AD
330
220
100
AcDbEntity
  8
02___PRT_ALL_AXES
  6
Continuous
 62
     7
100
AcDbCircle
 10
103.5978083309116
 20
205.0184943337176
 30
0.0
 40
4.2564563854
100
AcDbArc
 50
270.0
 51
329.2832126074995
  0
ARC
  5
3AE
330
220
100
AcDbEntity
  8
02___PRT_ALL_AXES
  6
Continuous
 62
     7
100
AcDbCircle
 10
93.91448913751165
 20
205.0184943337176
 30
0.0
 40
4.2564563854
100
AcDbArc
 50
210.7167873925005
 51
270.0
  0
ARC
  5
3AF
330
220
100
AcDbEntity
  8
02___PRT_ALL_AXES
  6
Continuous
 62
     7
100
AcDbCircle
 10
264.5855336208932
 20
209.0694639709176
 30
0.0
 40
4.9430740656
100
AcDbArc
 50
233.6422316279001
 51
234.5006250003001
  0
ARC
  5
3B0
330
220
100
AcDbEntity
  8
02___PRT_ALL_AXES
  6
Continuous
 62
     7
100
AcDbCircle
 10
276.8114794140932
 20
209.0694559277176
 30
0.0
 40
4.9430641326
100
AcDbArc
 50
305.4993741335999
 51
306.3576671246002
  0
ARC
  5
3B1
330
220
100
AcDbEntity
  8
02___PRT_ALL_AXES
  6
Continuous
 62
     7
100
AcDbCircle
 10
265.8568440062932
 20
205.0184943337176
 30
0.0
 40
4.2564563854
100
AcDbArc
 50
180.0
 51
270.0
  0
ARC
  5
3B2
330
220
100
AcDbEntity
  8
02___PRT_ALL_AXES
  6
Continuous
 62
     7
100
AcDbCircle
 10
275.5401631998932
 20
205.0184943337176
 30
0.0
 40
4.2564563854
100
AcDbArc
 50
270.0
 51
0.0
  0
ARC
  5
3B3
330
220
100
AcDbEntity
  8
3_ALL_AXES
  6
Continuous
 62
     7
100
AcDbCircle
 10
332.7090625196
 20
71.8318644623
 30
0.0
 40
57.1015061366
100
AcDbArc
 50
98.9265510497
 51
99.0531471796
  0
ARC
  5
3B4
330
220
100
AcDbEntity
  8
7_ALL_FEATURES
  6
Continuous
 62
     7
100
AcDbCircle
 10
334.5814933663
 20
169.5643368108
 30
0.0
 40
55.813230106
100
AcDbArc
 50
279.0531259398
 51
279.2110117103001
  0
ARC
  5
3B5
330
220
100
AcDbEntity
  8
3_ALL_AXES
  6
Continuous
 62
     7
100
AcDbCircle
 10
326.5970819172
 20
150.4450273665
 30
0.0
 40
50.4934312964
100
AcDbArc
 50
255.3977048666
 51
257.3983872847
  0
ARC
  5
3B6
330
220
100
AcDbEntity
  8
02___PRT_ALL_AXES
  6
Continuous
 62
     9
100
AcDbCircle
 10
334.0060646724
 20
100.8093266017
 30
0.0
 40
12.0444673992
100
AcDbArc
 50
275.7330999306
 51
278.9880129728
  0
ARC
  5
3B7
330
220
100
AcDbEntity
  8
3_ALL_AXES
  6
Continuous
 62
     7
100
AcDbCircle
 10
351.2746844825
 20
118.903774586
 30
0.0
 40
7.0557141229
100
AcDbArc
 50
47.52087163609999
 51
50.08008814839999
  0
ARC
  5
3B8
330
220
100
AcDbEntity
  8
7_ALL_FEATURES
  6
Continuous
 62
     7
100
AcDbCircle
 10
316.0626462074
 20
118.6988926711
 30
0.0
 40
6.5820753029
100
AcDbArc
 50
132.2870838921
 51
134.3291328303
  0
ARC
  5
3B9
330
220
100
AcDbEntity
  8
7_ALL_FEATURES
  6
Continuous
 62
     7
100
AcDbCircle
 10
351.2396162326
 20
119.1218187911
 30
0.0
 40
6.5781554404
100
AcDbArc
 50
46.16217386530001
 51
49.07263960499999
  0
ARC
  5
3BA
330
220
100
AcDbEntity
  8
7_ALL_FEATURES
  6
Continuous
 62
     7
100
AcDbCircle
 10
315.8145439808
 20
118.9537765442
 30
0.0
 40
6.2263786862
100
AcDbArc
 50
134.3349365148
 51
135.1134749817
  0
ARC
  5
3BB
330
220
100
AcDbEntity
  8
3_ALL_AXES
  6
Continuous
 62
     7
100
AcDbCircle
 10
312.3960632091
 20
121.0752979732
 30
0.0
 40
2.5230588452
100
AcDbArc
 50
180.6990725036
 51
188.5208227782
  0
ARC
  5
3BC
330
220
100
AcDbEntity
  8
3_ALL_AXES
  6
Continuous
 62
     7
100
AcDbCircle
 10
354.8473730916
 20
121.5808406208
 30
0.0
 40
2.522570775
100
AcDbArc
 50
352.2974160309001
 51
0.6540041043
  0
ARC
  5
3BD
330
220
100
AcDbEntity
  8
7_ALL_FEATURES
  6
Continuous
 62
     7
100
AcDbCircle
 10
354.7392879954
 20
121.2485114268
 30
0.0
 40
2.5096135518
100
AcDbArc
 50
352.4999008304
 51
0.662959942
  0
ARC
  5
3BE
330
220
100
AcDbEntity
  8
02___PRT_ALL_AXES
  6
Continuous
 62
     7
100
AcDbCircle
 10
331.76289028
 20
90.1838577061
 30
0.0
 40
2.3153912133
100
AcDbArc
 50
200.5377366005
 51
201.4846827564
  0
ARC
  5
3BF
330
220
100
AcDbEntity
  8
02___PRT_ALL_AXES
  6
Continuous
 62
     7
100
AcDbCircle
 10
331.752446993
 20
90.1819724919
 30
0.0
 40
2.3049510907
100
AcDbArc
 50
190.6911307602
 51
200.5849256062
  0
ARC
  5
3C0
330
220
100
AcDbEntity
  8
02___PRT_ALL_AXES
  6
Continuous
 62
     7
100
AcDbCircle
 10
331.6174558425
 20
90.1547753991
 30
0.0
 40
2.1672583782
100
AcDbArc
 50
189.5667592907
 51
190.6466590914
  0
ARC
  5
3C1
330
220
100
AcDbEntity
  8
02___PRT_ALL_AXES
  6
Continuous
 62
     7
100
AcDbCircle
 10
331.5819223988
 20
90.148785599
 30
0.0
 40
2.1312236265
100
AcDbArc
 50
188.663011871
 51
189.5667335564
  0
SPLINE
  5
3C2
330
220
100
AcDbEntity
  8
02___PRT_ALL_AXES
  6
Continuous
 62
     7
100
AcDbSpline
210
0.0
220
0.0
230
1.0
 70
     8
 71
     3
 72
     9
 73
     5
 74
     0
 42
0.000000001
 43
0.0000001
 40
0.0
 40
0.0
 40
0.0
 40
0.0
 40
0.2487419215
 40
1.0
 40
1.0
 40
1.0
 40
1.0
 10
105.8158259077117
 20
205.0451993541176
 30
0.0
 10
105.9392287793117
 20
205.0960116661176
 30
0.0
 10
106.4311943783117
 20
205.3103431909176
 30
0.0
 10
106.9070850165116
 20
205.5605059167175
 30
0.0
 10
107.2561487343117
 20
205.7620379481176
 30
0.0
  0
SPLINE
  5
3C3
330
220
100
AcDbEntity
  8
02___PRT_ALL_AXES
  6
Continuous
 62
     7
100
AcDbSpline
210
0.0
220
0.0
230
1.0
 70
     8
 71
     3
 72
    19
 73
    15
 74
     0
 42
0.000000001
 43
0.0000001
 40
0.0
 40
0.0
 40
0.0
 40
0.0
 40
0.0679785409
 40
0.1342854818
 40
0.1983938441
 40
0.2606331787
 40
0.3812346686
 40
0.4998615428
 40
0.6185201017
 40
0.7391776997
 40
0.801460969
 40
0.8656242454
 40
0.9319792387
 40
1.0
 40
1.0
 40
1.0
 40
1.0
 10
100.1964715607116
 20
205.0184943337176
 30
0.0
 10
100.1964715607116
 20
204.8404189609176
 30
0.0
 10
100.2513434079117
 20
204.4863969065175
 30
0.0
 10
100.4784628105116
 20
204.0120069421176
 30
0.0
 10
100.8069246721116
 20
203.6226639433175
 30
0.0
 10
101.3224784729117
 20
203.2256605255176
 30
0.0
 10
102.0654984875117
 20
202.9190966147175
 30
0.0
 10
103.0051244203117
 20
202.8049834713175
 30
0.0
 10
103.9449747921117
 20
202.9185641587176
 30
0.0
 10
104.6884678885116
 20
203.2248955263175
 30
0.0
 10
105.2045705127117
 20
203.6218589171175
 30
0.0
 10
105.5334382807117
 20
204.0113752629176
 30
0.0
 10
105.7608780483116
 20
204.4860444571175
 30
0.0
 10
105.8158259077117
 20
204.8403083611176
 30
0.0
 10
105.8158259077117
 20
205.0184943337176
 30
0.0
  0
SPLINE
  5
3C4
330
220
100
AcDbEntity
  8
02___PRT_ALL_AXES
  6
Continuous
 62
     7
100
AcDbSpline
210
0.0
220
0.0
230
1.0
 70
     8
 71
     3
 72
     9
 73
     5
 74
     0
 42
0.000000001
 43
0.0000001
 40
0.0
 40
0.0
 40
0.0
 40
0.0
 40
0.2513562251
 40
1.0
 40
1.0
 40
1.0
 40
1.0
 10
98.75614873431167
 20
205.7620379481176
 30
0.0
 10
98.87293211351164
 20
205.6946130325176
 30
0.0
 10
99.34106728851165
 20
205.4326277143176
 30
0.0
 10
99.82508401391166
 20
205.1981217269176
 30
0.0
 10
100.1964715607116
 20
205.0451993541176
 30
0.0
  0
SPLINE
  5
3C5
330
220
100
AcDbEntity
  8
02___PRT_ALL_AXES
  6
Continuous
 62
     7
100
AcDbSpline
210
0.0
220
0.0
230
1.0
 70
     8
 71
     3
 72
     9
 73
     5
 74
     0
 42
0.000000001
 43
0.0000001
 40
0.0
 40
0.0
 40
0.0
 40
0.0
 40
0.2513562251
 40
1.0
 40
1.0
 40
1.0
 40
1.0
 10
90.25614873431167
 20
205.7620379481176
 30
0.0
 10
90.37293211351164
 20
205.6946130325176
 30
0.0
 10
90.84106728851165
 20
205.4326277143176
 30
0.0
 10
91.32508401391166
 20
205.1981217269176
 30
0.0
 10
91.69647156071164
 20
205.0451993541176
 30
0.0
  0
SPLINE
  5
3C6
330
220
100
AcDbEntity
  8
02___PRT_ALL_AXES
  6
Continuous
 62
     7
100
AcDbSpline
210
0.0
220
0.0
230
1.0
 70
     8
 71
     3
 72
     9
 73
     5
 74
     0
 42
0.000000001
 43
0.0000001
 40
0.0
 40
0.0
 40
0.0
 40
0.0
 40
0.2487419215
 40
1.0
 40
1.0
 40
1.0
 40
1.0
 10
97.31582590771166
 20
205.0451993541176
 30
0.0
 10
97.43922877931166
 20
205.0960116661176
 30
0.0
 10
97.93119437831166
 20
205.3103431909176
 30
0.0
 10
98.40708501651164
 20
205.5605059167175
 30
0.0
 10
98.75614873431167
 20
205.7620379481176
 30
0.0
  0
SPLINE
  5
3C7
330
220
100
AcDbEntity
  8
02___PRT_ALL_AXES
  6
Continuous
 62
     7
100
AcDbSpline
210
0.0
220
0.0
230
1.0
 70
     8
 71
     3
 72
    19
 73
    15
 74
     0
 42
0.000000001
 43
0.0000001
 40
0.0
 40
0.0
 40
0.0
 40
0.0
 40
0.0679950228
 40
0.1343185368
 40
0.1984442238
 40
0.2607004275
 40
0.3813349733
 40
0.4999906576
 40
0.6186424657
 40
0.7392776354
 40
0.8015360431
 40
0.8656654115
 40
0.9319956439
 40
1.0
 40
1.0
 40
1.0
 40
1.0
 10
91.69647156071164
 20
205.0184943337176
 30
0.0
 10
91.69647156071164
 20
204.8403758263175
 30
0.0
 10
91.75136876991166
 20
204.4862651095175
 30
0.0
 10
91.97860072011164
 20
204.0117782025176
 30
0.0
 10
92.30720782631164
 20
203.6223802623176
 30
0.0
 10
92.82298015091166
 20
203.2253682521176
 30
0.0
 10
93.56625957151167
 20
202.9188811385176
 30
0.0
 10
94.50606441431165
 20
202.8049729259176
 30
0.0
 10
95.44587431331166
 20
202.9188399485176
 30
0.0
 10
96.18916886571165
 20
203.2252825357176
 30
0.0
 10
96.70497733871164
 20
203.6222747193175
 30
0.0
 10
97.03363578231165
 20
204.0116733803176
 30
0.0
 10
97.26091132351166
 20
204.4861985939175
 30
0.0
 10
97.31582590771166
 20
204.8403513769176
 30
0.0
 10
97.31582590771166
 20
205.0184943337176
 30
0.0
  0
SPLINE
  5
3C8
330
220
100
AcDbEntity
  8
02___PRT_ALL_AXES
  6
Continuous
 62
     7
100
AcDbSpline
210
0.0
220
0.0
230
1.0
 70
     8
 71
     3
 72
     9
 73
     5
 74
     0
 42
0.000000001
 43
0.0000001
 40
0.0
 40
0.0
 40
0.0
 40
0.0
 40
0.2583236894
 40
1.0
 40
1.0
 40
1.0
 40
1.0
 10
275.6059808912932
 20
205.7620379481176
 30
0.0
 10
275.6728676858932
 20
205.6951511535175
 30
0.0
 10
275.9357077076932
 20
205.4402968053176
 30
0.0
 10
276.2164392814932
 20
205.2028941569176
 30
0.0
 10
276.4375516628932
 20
205.0451993541176
 30
0.0
  0
LINE
  5
3C9
330
220
100
AcDbEntity
  8
02___PRT_ALL_AXES
  6
Continuous
 62
     7
100
AcDbLine
 10
279.7418466160932
 20
205.0886480849176
 30
0.0
 11
279.7547837502932
 21
205.0982018825176
 31
0.0
  0
SPLINE
  5
3CA
330
220
100
AcDbEntity
  8
02___PRT_ALL_AXES
  6
Continuous
 62
     7
100
AcDbSpline
210
0.0
220
0.0
230
1.0
 70
     8
 71
     3
 72
     9
 73
     5
 74
     0
 42
0.000000001
 43
0.0000001
 40
0.0
 40
0.0
 40
0.0
 40
0.0
 40
0.2423815515
 40
1.0
 40
1.0
 40
1.0
 40
1.0
 10
279.7547837502932
 20
205.0982018825176
 30
0.0
 10
279.8202621868932
 20
205.1467162157176
 30
0.0
 10
280.0856124456932
 20
205.3533508813176
 30
0.0
 10
280.3333411036932
 20
205.5819208725176
 30
0.0
 10
280.5134581792932
 20
205.7620379481176
 30
0.0
  0
SPLINE
  5
3CB
330
220
100
AcDbEntity
  8
02___PRT_ALL_AXES
  6
Continuous
 62
     7
100
AcDbSpline
210
0.0
220
0.0
230
1.0
 70
     8
 71
     3
 72
    15
 73
    11
 74
     0
 42
0.000000001
 43
0.0000001
 40
0.0
 40
0.0
 40
0.0
 40
0.0
 40
0.1698233794
 40
0.3037062744
 40
0.4084943142
 40
0.4999929868
 40
0.591487662
 40
0.6962729263
 40
0.8301577331
 40
1.0
 40
1.0
 40
1.0
 40
1.0
 10
276.4375516628932
 20
205.0184943337176
 30
0.0
 10
276.4375516628932
 20
204.6802509179176
 30
0.0
 10
276.5369740458932
 20
204.0685846069176
 30
0.0
 10
276.9462610792932
 20
203.3440018581176
 30
0.0
 10
277.4826629960932
 20
202.9312265301176
 30
0.0
 10
278.0596675424932
 20
202.8014819897176
 30
0.0
 10
278.6366759506932
 20
202.9311789045175
 30
0.0
 10
279.1731026734932
 20
203.3439076655176
 30
0.0
 10
279.5824483076932
 20
204.0685025487176
 30
0.0
 10
279.6818874076932
 20
204.6802132991176
 30
0.0
 10
279.6818874076932
 20
205.0184943337176
 30
0.0
  0
SPLINE
  5
3CC
330
220
100
AcDbEntity
  8
02___PRT_ALL_AXES
  6
Continuous
 62
     7
100
AcDbSpline
210
0.0
220
0.0
230
1.0
 70
     8
 71
     3
 72
     9
 73
     5
 74
     0
 42
0.000000001
 43
0.0000001
 40
0.0
 40
0.0
 40
0.0
 40
0.0
 40
0.2576422386
 40
1.0
 40
1.0
 40
1.0
 40
1.0
 10
260.8835490268932
 20
205.7620379481176
 30
0.0
 10
260.9457707706932
 20
205.6998162043176
 30
0.0
 10
261.1906787440932
 20
205.4618311063176
 30
0.0
 10
261.4509578970932
 20
205.2389487687176
 30
0.0
 10
261.6551534958932
 20
205.0886533071176
 30
0.0
  0
SPLINE
  5
3CD
330
220
100
AcDbEntity
  8
02___PRT_ALL_AXES
  6
Continuous
 62
     7
100
AcDbSpline
210
0.0
220
0.0
230
1.0
 70
     8
 71
     3
 72
     8
 73
     4
 74
     0
 42
0.000000001
 43
0.0000001
 40
0.0
 40
0.0
 40
0.0
 40
0.0
 40
1.0
 40
1.0
 40
1.0
 40
1.0
 10
265.7910263150932
 20
205.7620379481176
 30
0.0
 10
266.3309767128932
 20
205.4920627491176
 30
0.0
 10
266.8855556318932
 20
205.2479631983176
 30
0.0
 10
267.4541678580932
 20
205.0451993541176
 30
0.0
  0
SPLINE
  5
3CE
330
220
100
AcDbEntity
  8
02___PRT_ALL_AXES
  6
Continuous
 62
     7
100
AcDbSpline
210
0.0
220
0.0
230
1.0
 70
     8
 71
     3
 72
     8
 73
     4
 74
     0
 42
0.000000001
 43
0.0000001
 40
0.0
 40
0.0
 40
0.0
 40
0.0
 40
1.0
 40
1.0
 40
1.0
 40
1.0
 10
273.9428393480932
 20
205.0451993541176
 30
0.0
 10
274.5114515742932
 20
205.2479631983176
 30
0.0
 10
275.0660304932932
 20
205.4920627491176
 30
0.0
 10
275.6059808912932
 20
205.7620379481176
 30
0.0
  0
SPLINE
  5
3CF
330
220
100
AcDbEntity
  8
02___PRT_ALL_AXES
  6
Continuous
 62
     7
100
AcDbSpline
210
0.0
220
0.0
230
1.0
 70
     8
 71
     3
 72
    19
 73
    15
 74
     0
 42
0.000000001
 43
0.0000001
 40
0.0
 40
0.0
 40
0.0
 40
0.0
 40
0.062436642
 40
0.124920765
 40
0.1874589243
 40
0.2500365367
 40
0.3749524978
 40
0.5000064554
 40
0.625060361
 40
0.7499765953
 40
0.8125520516
 40
0.8750875024
 40
0.9375682879
 40
1.0
 40
1.0
 40
1.0
 40
1.0
 10
267.4541678580932
 20
205.0184943337176
 30
0.0
 10
267.4541678580932
 20
204.8396629065176
 30
0.0
 10
267.5197501638932
 20
204.4790795051176
 30
0.0
 10
267.7859050872932
 20
204.0040009403176
 30
0.0
 10
268.1660030958932
 20
203.6170776131175
 30
0.0
 10
268.7661743928932
 20
203.2193921435176
 30
0.0
 10
269.6227410580932
 20
202.9175369463176
 30
0.0
 10
270.6985596108932
 20
202.8052928689175
 30
0.0
 10
271.7743751642932
 20
202.9175647763176
 30
0.0
 10
272.6309313104932
 20
203.2194366915176
 30
0.0
 10
273.2310763156932
 20
203.6171384939176
 30
0.0
 10
273.6111430090932
 20
204.0040589831175
 30
0.0
 10
273.8772675034932
 20
204.4791176935175
 30
0.0
 10
273.9428393480932
 20
204.8396770267175
 30
0.0
 10
273.9428393480932
 20
205.0184943337176
 30
0.0
  0
SPLINE
  5
3D0
330
220
100
AcDbEntity
  8
02___PRT_ALL_AXES
  6
Continuous
 62
     7
100
AcDbSpline
210
0.0
220
0.0
230
1.0
 70
     8
 71
     3
 72
     9
 73
     5
 74
     0
 42
0.000000001
 43
0.0000001
 40
0.0
 40
0.0
 40
0.0
 40
0.0
 40
0.2415458876
 40
1.0
 40
1.0
 40
1.0
 40
1.0
 10
264.9594555434932
 20
205.0451993541176
 30
0.0
 10
265.0314743520932
 20
205.0965623387175
 30
0.0
 10
265.3237774886932
 20
205.3174260923176
 30
0.0
 10
265.5946210654932
 20
205.5656326985176
 30
0.0
 10
265.7910263150932
 20
205.7620379481176
 30
0.0
  0
SPLINE
  5
3D1
330
220
100
AcDbEntity
  8
02___PRT_ALL_AXES
  6
Continuous
 62
     7
100
AcDbSpline
210
0.0
220
0.0
230
1.0
 70
     8
 71
     3
 72
    15
 73
    11
 74
     0
 42
0.000000001
 43
0.0000001
 40
0.0
 40
0.0
 40
0.0
 40
0.0
 40
0.169784681
 40
0.303643026
 40
0.4084145982
 40
0.4998965225
 40
0.5913899755
 40
0.6961795107
 40
0.8301103001
 40
1.0
 40
1.0
 40
1.0
 40
1.0
 10
261.7151197984932
 20
205.0184943337176
 30
0.0
 10
261.7151197984932
 20
204.6803276913176
 30
0.0
 10
261.8145000554932
 20
204.0687921773176
 30
0.0
 10
262.2236031544932
 20
203.3443060397175
 30
0.0
 10
262.7597883696932
 20
202.9314623287175
 30
0.0
 10
263.3366541140932
 20
202.8014924675176
 30
0.0
 10
263.9137108346932
 20
202.9308795863176
 30
0.0
 10
264.4503622864932
 20
203.3435099055176
 30
0.0
 10
264.8599478364932
 20
204.0682148961176
 30
0.0
 10
264.9594555434932
 20
204.6801185211175
 30
0.0
 10
264.9594555434932
 20
205.0184943337176
 30
0.0
  0
SPLINE
  5
3D2
330
220
100
AcDbEntity
  8
02___PRT_ALL_AXES
  6
Continuous
 62
     7
100
AcDbSpline
 70
     0
 71
     3
 72
    14
 73
    10
 74
     0
 42
0.000000001
 43
0.0000001
 40
0.0
 40
0.0
 40
0.0
 40
0.0
 40
0.1289186088
 40
0.2526778638
 40
0.4919638523
 40
0.614287053
 40
0.7403398682
 40
0.8693345781
 40
1.0
 40
1.0
 40
1.0
 40
1.0
 10
335.3357263408
 20
87.4288924079
 30
0.0
 10
335.521060251
 20
87.4584229368
 30
0.0
 10
335.8826066144
 20
87.5291860158
 30
0.0
 10
336.5716623394
 20
87.7246655339
 30
0.0
 10
337.2229451529
 20
88.0229701094
 30
0.0
 10
337.7809694089
 20
88.4676934104
 30
0.0
 10
338.1385820711
 20
88.8900903644
 30
0.0
 10
338.4017864341
 20
89.3913213738
 30
0.0
 10
338.4961897686
 20
89.7617265542
 30
0.0
 10
338.5208212397
 20
89.9503397297
 30
0.0
  0
SPLINE
  5
3D3
330
220
100
AcDbEntity
  8
02___PRT_ALL_AXES
  6
Continuous
 62
     7
100
AcDbSpline
 70
     0
 71
     3
 72
    18
 73
    14
 74
     0
 42
0.000000001
 43
0.0000001
 40
0.0
 40
0.0
 40
0.0
 40
0.0
 40
0.063500107
 40
0.1264702329
 40
0.1885277043
 40
0.2493034426
 40
0.3086367035
 40
0.3668613063
 40
0.4834179086
 40
0.6059453652
 40
0.7358825943
 40
0.8692522395
 40
1.0
 40
1.0
 40
1.0
 40
1.0
 10
329.4736667999
 20
89.8270779656
 30
0.0
 10
329.4972524258
 20
89.6811694262
 30
0.0
 10
329.571472734
 20
89.3942506117
 30
0.0
 10
329.7576917893
 20
88.9944200885
 30
0.0
 10
330.0071468487
 20
88.6385276467
 30
0.0
 10
330.305232351
 20
88.3345506698
 30
0.0
 10
330.637513274
 20
88.0835438123
 30
0.0
 10
331.111996714
 20
87.8131012057
 30
0.0
 10
331.7649037022
 20
87.5710220696
 30
0.0
 10
332.6079261433
 20
87.3962025355
 30
0.0
 10
333.5038581331
 20
87.313615155
 30
0.0
 10
334.4223041057
 20
87.3185216495
 30
0.0
 10
335.0351896776
 20
87.3810058305
 30
0.0
 10
335.3357263408
 20
87.4288924079
 30
0.0
  0
SPLINE
  5
3D4
330
220
100
AcDbEntity
  8
02___PRT_ALL_AXES
  6
Continuous
 62
     7
100
AcDbSpline
 70
     0
 71
     3
 72
    20
 73
    16
 74
     0
 42
0.000000001
 43
0.0000001
 40
0.0
 40
0.0
 40
0.0
 40
0.0
 40
0.0744688001
 40
0.137796676
 40
0.1914748326
 40
0.2395063947
 40
0.2856649823
 40
0.3324836092
 40
0.3814123538
 40
0.4332770593
 40
0.5477631458
 40
0.6804066273
 40
0.8344710152
 40
0.9178501629
 40
1.0
 40
1.0
 40
1.0
 40
1.0
 10
336.5184370036
 20
89.0337084196
 30
0.0
 10
336.519386296
 20
88.9540454231
 30
0.0
 10
336.5360883659
 20
88.805952519
 30
0.0
 10
336.6116585924
 20
88.6126098576
 30
0.0
 10
336.7248922769
 20
88.473086648
 30
0.0
 10
336.8613675081
 20
88.3878164964
 30
0.0
 10
337.0092795701
 20
88.3494418814
 30
0.0
 10
337.162368493
 20
88.3492170172
 30
0.0
 10
337.3179608546
 20
88.3809853796
 30
0.0
 10
337.5336092593
 20
88.464181593
 30
0.0
 10
337.8033499461
 20
88.6435146363
 30
0.0
 10
338.0959898796
 20
88.9624387837
 30
0.0
 10
338.2862775045
 20
89.3159350072
 30
0.0
 10
338.3796356416
 20
89.6460637454
 30
0.0
 10
338.3973585994
 20
89.8236954639
 30
0.0
 10
338.3963113928
 20
89.9115752495
 30
0.0
  0
SPLINE
  5
3D5
330
220
100
AcDbEntity
  8
02___PRT_ALL_AXES
  6
Continuous
 62
     7
100
AcDbSpline
 70
     0
 71
     3
 72
     9
 73
     5
 74
     0
 42
0.000000001
 43
0.0000001
 40
0.0
 40
0.0
 40
0.0
 40
0.0
 40
0.2506317379
 40
1.0
 40
1.0
 40
1.0
 40
1.0
 10
336.0329197656
 20
89.1603601259
 30
0.0
 10
336.0723219638
 20
89.1467169227
 30
0.0
 10
336.230679492
 20
89.0957794973
 30
0.0
 10
336.3944237656
 20
89.0605179919
 30
0.0
 10
336.5182864972
 20
89.0463386625
 30
0.0
  0
SPLINE
  5
3D6
330
220
100
AcDbEntity
  8
02___PRT_ALL_AXES
  6
Continuous
 62
     7
100
AcDbSpline
 70
     0
 71
     3
 72
     9
 73
     5
 74
     0
 42
0.000000001
 43
0.0000001
 40
0.0
 40
0.0
 40
0.0
 40
0.0
 40
0.7497991628
 40
1.0
 40
1.0
 40
1.0
 40
1.0
 10
331.1472905945
 20
89.2571853815
 30
0.0
 10
331.3502271641
 20
89.1573200047
 30
0.0
 10
331.6257894111
 20
89.0334638402
 30
0.0
 10
331.9081238818
 20
88.9271341732
 30
0.0
 10
331.9791992285
 20
88.9017467767
 30
0.0
  0
SPLINE
  5
3D7
330
220
100
AcDbEntity
  8
02___PRT_ALL_AXES
  6
Continuous
 62
     7
100
AcDbSpline
 70
     0
 71
     3
 72
     9
 73
     5
 74
     0
 42
0.000000001
 43
0.0000001
 40
0.0
 40
0.0
 40
0.0
 40
0.0
 40
0.2507261683
 40
1.0
 40
1.0
 40
1.0
 40
1.0
 10
335.2090911721
 20
88.8377355507
 30
0.0
 10
335.2795355307
 20
88.8602980626
 30
0.0
 10
335.5588952475
 20
88.9552790247
 30
0.0
 10
335.8319324367
 20
89.0683396069
 30
0.0
 10
336.0329197656
 20
89.1603601259
 30
0.0
  0
SPLINE
  5
3D8
330
220
100
AcDbEntity
  8
02___PRT_ALL_AXES
  6
Continuous
 62
     7
100
AcDbSpline
 70
     0
 71
     3
 72
    20
 73
    16
 74
     0
 42
0.000000001
 43
0.0000001
 40
0.0
 40
0.0
 40
0.0
 40
0.0
 40
0.0607949003
 40
0.1227710782
 40
0.1857535953
 40
0.2493531711
 40
0.3132558798
 40
0.3772527834
 40
0.5048657301
 40
0.6316468877
 40
0.7567641564
 40
0.8185602869
 40
0.879579841
 40
0.9398871779
 40
1.0
 40
1.0
 40
1.0
 40
1.0
 10
331.9793497349
 20
88.8891165338
 30
0.0
 10
331.9803648176
 20
88.8039325322
 30
0.0
 10
332.0159407246
 20
88.6310274495
 30
0.0
 10
332.1514787874
 20
88.4045484952
 30
0.0
 10
332.3424553912
 20
88.2186575449
 30
0.0
 10
332.5679818739
 20
88.0733788234
 30
0.0
 10
332.8143638005
 20
87.9647750768
 30
0.0
 10
333.1586221594
 20
87.8637282518
 30
0.0
 10
333.6051951354
 20
87.8104151281
 30
0.0
 10
334.1384081157
 20
87.8523798061
 30
0.0
 10
334.5637380426
 20
87.985867824
 30
0.0
 10
334.8615627816
 20
88.1683879514
 30
0.0
 10
335.0489385824
 20
88.3474248591
 30
0.0
 10
335.1796245644
 20
88.570235269
 30
0.0
 10
335.2102453726
 20
88.7408770138
 30
0.0
 10
335.2092416785
 20
88.8251053078
 30
0.0
  0
SPLINE
  5
3D9
330
220
100
AcDbEntity
  8
02___PRT_ALL_AXES
  6
Continuous
 62
     7
100
AcDbSpline
 70
     0
 71
     3
 72
     9
 73
     5
 74
     0
 42
0.000000001
 43
0.0000001
 40
0.0
 40
0.0
 40
0.0
 40
0.0
 40
0.2480457817
 40
1.0
 40
1.0
 40
1.0
 40
1.0
 10
330.8047887124
 20
89.159570933
 30
0.0
 10
330.8341146728
 20
89.1629099321
 30
0.0
 10
330.9517265069
 20
89.1818510854
 30
0.0
 10
331.0655208177
 20
89.2208571789
 30
0.0
 10
331.1472905945
 20
89.2571853815
 30
0.0
  0
SPLINE
  5
3DA
330
220
100
AcDbEntity
  8
02___PRT_ALL_AXES
  6
Continuous
 62
     7
100
AcDbSpline
 70
     0
 71
     3
 72
     9
 73
     5
 74
     0
 42
0.000000001
 43
0.0000001
 40
0.0
 40
0.0
 40
0.0
 40
0.0
 40
0.2664959564
 40
1.0
 40
1.0
 40
1.0
 40
1.0
 10
329.6083828355
 20
89.3358399339
 30
0.0
 10
329.6200811936
 20
89.3061194007
 30
0.0
 10
329.6662864946
 20
89.1955237522
 30
0.0
 10
329.721321627
 20
89.0885771988
 30
0.0
 10
329.7666783748
 20
89.0132696812
 30
0.0
  0
SPLINE
  5
3DB
330
220
100
AcDbEntity
  8
02___PRT_ALL_AXES
  6
Continuous
 62
     7
100
AcDbSpline
 70
     0
 71
     3
 72
    20
 73
    16
 74
     0
 42
0.000000001
 43
0.0000001
 40
0.0
 40
0.0
 40
0.0
 40
0.0
 40
0.1537766052
 40
0.28438687
 40
0.3951083096
 40
0.4442632977
 40
0.49013746
 40
0.5339407586
 40
0.5775917846
 40
0.6238445218
 40
0.6760894858
 40
0.7378259271
 40
0.811947109
 40
0.8997665651
 40
1.0
 40
1.0
 40
1.0
 40
1.0
 10
329.7666783748
 20
89.0132696812
 30
0.0
 10
329.8123495719
 20
88.9374400715
 30
0.0
 10
329.9064612399
 20
88.8025392875
 30
0.0
 10
330.0654761819
 20
88.6385919101
 30
0.0
 10
330.2047747085
 20
88.5428050361
 30
0.0
 10
330.3150397257
 20
88.4982873804
 30
0.0
 10
330.393725648
 20
88.481670054
 30
0.0
 10
330.4711905646
 20
88.4822720586
 30
0.0
 10
330.5463818166
 20
88.5027257499
 30
0.0
 10
330.617167165
 20
88.5458775065
 30
0.0
 10
330.680826467
 20
88.6140003403
 30
0.0
 10
330.7347075302
 20
88.7088613619
 30
0.0
 10
330.7759239524
 20
88.8315219845
 30
0.0
 10
330.8012920426
 20
88.9807856216
 30
0.0
 10
330.8056267332
 20
89.0892456618
 30
0.0
 10
330.8049392188
 20
89.1469406901
 30
0.0
  0
SPLINE
  5
3DC
330
220
100
AcDbEntity
  8
02___PRT_ALL_AXES
  6
Continuous
 62
     7
100
AcDbSpline
 70
     0
 71
     3
 72
     9
 73
     5
 74
     0
 42
0.000000001
 43
0.0000001
 40
0.0
 40
0.0
 40
0.0
 40
0.0
 40
0.4758275962
 40
1.0
 40
1.0
 40
1.0
 40
1.0
 10
330.8047887124
 20
89.159570933
 30
0.0
 10
330.9871851008
 20
89.1034347701
 30
0.0
 10
331.3762467006
 20
89.0038737773
 30
0.0
 10
331.7712757361
 20
88.9327964897
 30
0.0
 10
331.9791992285
 20
88.9017467767
 30
0.0
  0
SPLINE
  5
3DD
330
220
100
AcDbEntity
  8
02___PRT_ALL_AXES
  6
Continuous
 62
     7
100
AcDbSpline
 70
     0
 71
     3
 72
     9
 73
     5
 74
     0
 42
0.000000001
 43
0.0000001
 40
0.0
 40
0.0
 40
0.0
 40
0.0
 40
0.515817116
 40
1.0
 40
1.0
 40
1.0
 40
1.0
 10
335.2090911721
 20
88.8377355507
 30
0.0
 10
335.4359904527
 20
88.8605897893
 30
0.0
 10
335.8747904397
 20
88.9166302127
 30
0.0
 10
336.3095469974
 20
88.9989025603
 30
0.0
 10
336.5182864972
 20
89.0463386625
 30
0.0
  0
SPLINE
  5
3DE
330
220
100
AcDbEntity
  8
02___PRT_ALL_AXES
  6
Continuous
 62
     9
100
AcDbSpline
 70
     0
 71
     3
 72
     9
 73
     5
 74
     0
 42
0.000000001
 43
0.0000001
 40
0.0
 40
0.0
 40
0.0
 40
0.0
 40
0.2426768632
 40
1.0
 40
1.0
 40
1.0
 40
1.0
 10
336.5184370036
 20
89.0337084196
 30
0.0
 10
336.4677755577
 20
89.0221955937
 30
0.0
 10
336.2585910937
 20
88.9766276409
 30
0.0
 10
336.0478563126
 20
88.9382641918
 30
0.0
 10
335.8877456088
 20
88.9127526502
 30
0.0
  0
SPLINE
  5
3DF
330
220
100
AcDbEntity
  8
02___PRT_ALL_AXES
  6
Continuous
 62
     9
100
AcDbSpline
 70
     0
 71
     3
 72
     9
 73
     5
 74
     0
 42
0.000000001
 43
0.0000001
 40
0.0
 40
0.0
 40
0.0
 40
0.0
 40
0.4758275962
 40
1.0
 40
1.0
 40
1.0
 40
1.0
 10
330.8049392188
 20
89.1469406901
 30
0.0
 10
330.9873356072
 20
89.0908045272
 30
0.0
 10
331.376397207
 20
88.9912435344
 30
0.0
 10
331.7714262425
 20
88.9201662468
 30
0.0
 10
331.9793497349
 20
88.8891165338
 30
0.0
  0
SPLINE
  5
3E0
330
220
100
AcDbEntity
  8
7_ALL_FEATURES
  6
Continuous
 62
     7
100
AcDbSpline
 70
     0
 71
     3
 72
    18
 73
    14
 74
     0
 42
0.000000001
 43
0.0000001
 40
0.0
 40
0.0
 40
0.0
 40
0.0
 40
0.1407397185
 40
0.2873834054
 40
0.4344180441
 40
0.5762989169
 40
0.7077802091
 40
0.7681641287
 40
0.82429524
 40
0.8757677091
 40
0.9222824834
 40
0.9636812621
 40
1.0
 40
1.0
 40
1.0
 40
1.0
 10
323.8815095081
 20
128.0185874292
 30
0.0
 10
325.3897715824
 20
128.2589092188
 30
0.0
 10
328.4901026076
 20
128.6259575675
 30
0.0
 10
333.201790502
 20
128.8587521
 30
0.0
 10
337.9314032335
 20
128.7814035006
 30
0.0
 10
342.4808228098
 20
128.397370046
 30
0.0
 10
346.0613984977
 20
127.8216453125
 30
0.0
 10
348.6825338055
 20
127.2070145605
 30
0.0
 10
350.4337226343
 20
126.6968365603
 30
0.0
 10
352.0085122629
 20
126.1299703983
 30
0.0
 10
353.3911596242
 20
125.512128105
 30
0.0
 10
354.5677501959
 20
124.8497381651
 30
0.0
 10
355.2512692954
 20
124.3501571017
 30
0.0
 10
355.5489769194
 20
124.0918831236
 30
0.0
  0
SPLINE
  5
3E1
330
220
100
AcDbEntity
  8
7_ALL_FEATURES
  6
Continuous
 62
     7
100
AcDbSpline
 70
     0
 71
     3
 72
    11
 73
     7
 74
     0
 42
0.000000001
 43
0.0000001
 40
0.0
 40
0.0
 40
0.0
 40
0.0
 40
0.2194644484
 40
0.4524820981
 40
0.7101206737
 40
1.0
 40
1.0
 40
1.0
 40
1.0
 10
310.0021283773
 20
120.7144646929
 30
0.0
 10
309.9994352622
 20
120.9395184041
 30
0.0
 10
310.0588046604
 20
121.406375389
 30
0.0
 10
310.3348671348
 20
122.0873308236
 30
0.0
 10
310.7894980418
 20
122.7520175634
 30
0.0
 10
311.1820280562
 20
123.1568858306
 30
0.0
 10
311.4018832772
 20
123.3569882309
 30
0.0
  0
SPLINE
  5
3E2
330
220
100
AcDbEntity
  8
7_ALL_FEATURES
  6
Continuous
 62
     7
100
AcDbSpline
 70
     0
 71
     3
 72
    11
 73
     7
 74
     0
 42
0.000000001
 43
0.0000001
 40
0.0
 40
0.0
 40
0.0
 40
0.0
 40
0.2898786471
 40
0.5475139582
 40
0.7805352118
 40
1.0
 40
1.0
 40
1.0
 40
1.0
 10
355.7864657745
 20
123.8858454175
 30
0.0
 10
356.0110047135
 20
123.6910361748
 30
0.0
 10
356.4130691049
 20
123.2956758613
 30
0.0
 10
356.883338265
 20
122.6420142416
 30
0.0
 10
357.175604079
 20
121.9678883708
 30
0.0
 10
357.2460405604
 20
121.5025923386
 30
0.0
 10
357.2487335502
 20
121.2775491001
 30
0.0
  0
SPLINE
  5
3E3
330
220
100
AcDbEntity
  8
7_ALL_FEATURES
  6
Continuous
 62
     7
100
AcDbSpline
 70
     0
 71
     3
 72
    13
 73
     9
 74
     0
 42
0.000000001
 43
0.0000001
 40
0.0
 40
0.0
 40
0.0
 40
0.0
 40
0.0864244956
 40
0.1845378984
 40
0.2944445645
 40
0.4158245268
 40
0.6901311233
 40
1.0
 40
1.0
 40
1.0
 40
1.0
 10
311.6339247321
 20
123.5681987189
 30
0.0
 10
311.914615166
 20
123.8237017468
 30
0.0
 10
312.5581448257
 20
124.3211838237
 30
0.0
 10
313.667295637
 20
124.9897843658
 30
0.0
 10
314.9704137271
 20
125.621964615
 30
0.0
 10
317.0358396697
 20
126.4414476601
 30
0.0
 10
320.0171641101
 20
127.3098507244
 30
0.0
 10
322.5375626914
 20
127.8044471236
 30
0.0
 10
323.8815095081
 20
128.0185874292
 30
0.0
  0
SPLINE
  5
3E4
330
220
100
AcDbEntity
  8
7_ALL_FEATURES
  6
Continuous
 62
     7
100
AcDbSpline
 70
     0
 71
     3
 72
     9
 73
     5
 74
     0
 42
0.000000001
 43
0.0000001
 40
0.0
 40
0.0
 40
0.0
 40
0.0
 40
0.2532714209
 40
1.0
 40
1.0
 40
1.0
 40
1.0
 10
310.0881822507
 20
120.0909972014
 30
0.0
 10
310.0745531517
 20
120.1424327181
 30
0.0
 10
310.0267385844
 20
120.3470512956
 30
0.0
 10
310.0040055842
 20
120.5575934269
 30
0.0
 10
310.0021283773
 20
120.7144646929
 30
0.0
  0
SPLINE
  5
3E5
330
220
100
AcDbEntity
  8
7_ALL_FEATURES
  6
Continuous
 62
     7
100
AcDbSpline
 70
     0
 71
     3
 72
    25
 73
    21
 74
     0
 42
0.000000001
 43
0.0000001
 40
0.0
 40
0.0
 40
0.0
 40
0.0
 40
0.1698060712
 40
0.3457861632
 40
0.4320149571
 40
0.514910653
 40
0.5929749414
 40
0.6648572884
 40
0.7294172639
 40
0.7858085311
 40
0.8336129736
 40
0.873088698
 40
0.8901315627
 40
0.9057626411
 40
0.9204463522
 40
0.9347609638
 40
0.9493362862
 40
0.9647650024
 40
0.9815342644
 40
1.0
 40
1.0
 40
1.0
 40
1.0
 10
343.3637165419
 20
114.4463795649
 30
0.0
 10
341.2216329328
 20
114.1050666225
 30
0.0
 10
336.8187566148
 20
113.6561066691
 30
0.0
 10
331.2924856058
 20
113.6038300454
 30
0.0
 10
326.8909003921
 20
113.8749032626
 30
0.0
 10
323.7515954471
 20
114.2279151725
 30
0.0
 10
320.8171816222
 20
114.7239121594
 30
0.0
 10
318.1478078245
 20
115.3523129745
 30
0.0
 10
315.7976173081
 20
116.0994474493
 30
0.0
 10
313.8117798607
 20
116.9504161311
 30
0.0
 10
312.2275942194
 20
117.8882052408
 30
0.0
 10
311.2147040481
 20
118.7758033684
 30
0.0
 10
310.6686584764
 20
119.5228964127
 30
0.0
 10
310.3995108257
 20
120.0686493648
 30
0.0
 10
310.2542899342
 20
120.6244669493
 30
0.0
 10
310.2364054747
 20
121.1855903092
 30
0.0
 10
310.3463257128
 20
121.745526758
 30
0.0
 10
310.5810617778
 20
122.2990143373
 30
0.0
 10
310.9367535676
 20
122.8429624232
 30
0.0
 10
311.2366619459
 20
123.1806331148
 30
0.0
 10
311.4031184006
 20
123.3477628772
 30
0.0
  0
SPLINE
  5
3E6
330
220
100
AcDbEntity
  8
7_ALL_FEATURES
  6
Continuous
 62
     7
100
AcDbSpline
 70
     0
 71
     3
 72
    22
 73
    18
 74
     0
 42
0.000000001
 43
0.0000001
 40
0.0
 40
0.0
 40
0.0
 40
0.0
 40
0.0466761893
 40
0.088167028
 40
0.126133372
 40
0.1628433346
 40
0.200832512
 40
0.242364278
 40
0.2650255431
 40
0.2891361363
 40
0.3420889977
 40
0.4018015477
 40
0.4684603022
 40
0.5420028166
 40
0.6221825878
 40
0.8007511409
 40
1.0
 40
1.0
 40
1.0
 40
1.0
 10
355.7957751114
 20
123.8666628633
 30
0.0
 10
356.0063265203
 20
123.6641437391
 30
0.0
 10
356.3781668325
 20
123.2522046727
 30
0.0
 10
356.7866669896
 20
122.5694747182
 30
0.0
 10
356.9999643671
 20
121.8653120043
 30
0.0
 10
357.0075524935
 20
121.1503949376
 30
0.0
 10
356.8092875838
 20
120.4415597991
 30
0.0
 10
356.4903332197
 20
119.881062966
 30
0.0
 10
356.1515263461
 20
119.4438119371
 30
0.0
 10
355.7275923653
 20
118.9847045064
 30
0.0
 10
355.0751344531
 20
118.4260221561
 30
0.0
 10
354.1414804211
 20
117.7997990484
 30
0.0
 10
353.0405780711
 20
117.2020006493
 30
0.0
 10
351.7810167365
 20
116.6371422537
 30
0.0
 10
349.8321833871
 20
115.9076510247
 30
0.0
 10
347.0691997799
 20
115.1264438523
 30
0.0
 10
344.7465594678
 20
114.6704115726
 30
0.0
 10
343.5155675116
 20
114.4707893298
 30
0.0
  0
SPLINE
  5
3E7
330
220
100
AcDbEntity
  8
02___PRT_ALL_AXES
  6
Continuous
 62
     7
100
AcDbSpline
 70
     0
 71
     3
 72
    13
 73
     9
 74
     0
 42
0.000000001
 43
0.0000001
 40
0.0
 40
0.0
 40
0.0
 40
0.0
 40
0.096719381
 40
0.2045786235
 40
0.3223490705
 40
0.4485084609
 40
0.7188020644
 40
1.0
 40
1.0
 40
1.0
 40
1.0
 10
358.8156134679
 20
110.9839290132
 30
0.0
 10
357.9877374008
 20
110.6030306819
 30
0.0
 10
356.1939711974
 20
109.8891339023
 30
0.0
 10
353.291464746
 20
108.9873874486
 30
0.0
 10
350.0677411266
 20
108.2079131704
 30
0.0
 10
345.3009531149
 20
107.3297485725
 30
0.0
 10
338.9441935223
 20
106.6393430725
 30
0.0
 10
333.743052193
 20
106.5092707517
 30
0.0
 10
331.0939439666
 20
106.5528975977
 30
0.0
  0
SPLINE
  5
3E8
330
220
100
AcDbEntity
  8
7_ALL_FEATURES
  6
Continuous
 62
     7
100
AcDbSpline
 70
     0
 71
     3
 72
     9
 73
     5
 74
     0
 42
0.000000001
 43
0.0000001
 40
0.0
 40
0.0
 40
0.0
 40
0.0
 40
0.2536562888
 40
1.0
 40
1.0
 40
1.0
 40
1.0
 10
308.9730585551
 20
99.5007975841
 30
0.0
 10
308.9583314857
 20
99.4428935868
 30
0.0
 10
308.9073370716
 20
99.2128897099
 30
0.0
 10
308.8860540044
 20
98.9762020005
 30
0.0
 10
308.8881466462
 20
98.8004169455
 30
0.0
  0
SPLINE
  5
3E9
330
220
100
AcDbEntity
  8
7_ALL_FEATURES
  6
Continuous
 62
     7
100
AcDbSpline
 70
     0
 71
     3
 72
     9
 73
     5
 74
     0
 42
0.000000001
 43
0.0000001
 40
0.0
 40
0.0
 40
0.0
 40
0.0
 40
0.2536562888
 40
1.0
 40
1.0
 40
1.0
 40
1.0
 10
308.9420611848
 20
102.1020438909
 30
0.0
 10
308.9273341154
 20
102.0441398936
 30
0.0
 10
308.8763397012
 20
101.8141360166
 30
0.0
 10
308.8550566341
 20
101.5774483073
 30
0.0
 10
308.8571492758
 20
101.4016632522
 30
0.0
  0
SPLINE
  5
3EA
330
220
100
AcDbEntity
  8
7_ALL_FEATURES
  6
Continuous
 62
     7
100
AcDbSpline
 70
     0
 71
     3
 72
    20
 73
    16
 74
     0
 42
0.000000001
 43
0.0000001
 40
0.0
 40
0.0
 40
0.0
 40
0.0
 40
0.1569197407
 40
0.320211886
 40
0.4808448585
 40
0.6300033314
 40
0.6978057481
 40
0.7599468551
 40
0.8157705597
 40
0.864838451
 40
0.9070231066
 40
0.9426723756
 40
0.9728908855
 40
0.9866603874
 40
1.0
 40
1.0
 40
1.0
 40
1.0
 10
344.287757342
 20
93.2592386497
 30
0.0
 10
342.3212974549
 20
92.9459090464
 30
0.0
 10
338.2760186968
 20
92.5018509345
 30
0.0
 10
332.1706207378
 20
92.3294203891
 30
0.0
 10
326.1689408997
 20
92.6375965531
 30
0.0
 10
321.4141574827
 20
93.2949424609
 30
0.0
 10
317.956045703
 20
94.0685617929
 30
0.0
 10
315.6909850489
 20
94.7284310154
 30
0.0
 10
313.7048059258
 20
95.4758153522
 30
0.0
 10
312.0259922348
 20
96.299484006
 30
0.0
 10
310.6768942869
 20
97.1896305947
 30
0.0
 10
309.673851306
 20
98.1373030988
 30
0.0
 10
309.1256925779
 20
99.0065861217
 30
0.0
 10
308.9111371042
 20
99.7055776932
 30
0.0
 10
308.873253999
 20
100.0500147529
 30
0.0
 10
308.8712389896
 20
100.2192785673
 30
0.0
  0
SPLINE
  5
3EB
330
220
100
AcDbEntity
  8
7_ALL_FEATURES
  6
Continuous
 62
     7
100
AcDbSpline
 70
     0
 71
     3
 72
    17
 73
    13
 74
     0
 42
0.000000001
 43
0.0000001
 40
0.0
 40
0.0
 40
0.0
 40
0.0
 40
0.140514472
 40
0.2869168841
 40
0.433746843
 40
0.5755048978
 40
0.7069835914
 40
0.8235994092
 40
0.8752004482
 40
0.9218797705
 40
0.963471341
 40
1.0
 40
1.0
 40
1.0
 40
1.0
 10
344.2257626013
 20
98.4617312632
 30
0.0
 10
342.618318162
 20
98.205606065
 30
0.0
 10
339.3142730624
 20
97.8139724322
 30
0.0
 10
334.2925354315
 20
97.5641136114
 30
0.0
 10
329.2505475586
 20
97.6437884067
 30
0.0
 10
324.3971803646
 20
98.0490995189
 30
0.0
 10
319.9333757405
 20
98.7622730694
 30
0.0
 10
316.560849553
 20
99.6169535688
 30
0.0
 10
314.2143973453
 20
100.45344026
 30
0.0
 10
312.7308683747
 20
101.1096635259
 30
0.0
 10
311.4655923669
 20
101.8134558536
 30
0.0
 10
310.7285104646
 20
102.3442400218
 30
0.0
 10
310.4064751819
 20
102.6187358037
 30
0.0
  0
SPLINE
  5
3EC
330
220
100
AcDbEntity
  8
7_ALL_FEATURES
  6
Continuous
 62
     7
100
AcDbSpline
 70
     0
 71
     3
 72
    20
 73
    16
 74
     0
 42
0.000000001
 43
0.0000001
 40
0.0
 40
0.0
 40
0.0
 40
0.0
 40
0.1569197407
 40
0.320211886
 40
0.4808448585
 40
0.6300033314
 40
0.6978057481
 40
0.7599468551
 40
0.8157705597
 40
0.864838451
 40
0.9070231066
 40
0.9426723756
 40
0.9728908855
 40
0.9866603874
 40
1.0
 40
1.0
 40
1.0
 40
1.0
 10
344.2567599716
 20
95.8604849565
 30
0.0
 10
342.2903000845
 20
95.5471553532
 30
0.0
 10
338.2450213264
 20
95.1030972413
 30
0.0
 10
332.1396233675
 20
94.9306666958
 30
0.0
 10
326.1379435294
 20
95.2388428598
 30
0.0
 10
321.3831601123
 20
95.8961887677
 30
0.0
 10
317.9250483326
 20
96.6698080996
 30
0.0
 10
315.6599876786
 20
97.3296773222
 30
0.0
 10
313.6738085555
 20
98.0770616589
 30
0.0
 10
311.9949948645
 20
98.9007303127
 30
0.0
 10
310.6458969166
 20
99.7908769014
 30
0.0
 10
309.6428539357
 20
100.7385494055
 30
0.0
 10
309.0946952075
 20
101.6078324284
 30
0.0
 10
308.8801397339
 20
102.306824
 30
0.0
 10
308.8422566286
 20
102.6512610597
 30
0.0
 10
308.8402416193
 20
102.8205248741
 30
0.0
  0
SPLINE
  5
3ED
330
220
100
AcDbEntity
  8
7_ALL_FEATURES
  6
Continuous
 62
     7
100
AcDbSpline
 70
     0
 71
     3
 72
    13
 73
     9
 74
     0
 42
0.000000001
 43
0.0000001
 40
0.0
 40
0.0
 40
0.0
 40
0.0
 40
0.0864304189
 40
0.1845438779
 40
0.2944514959
 40
0.4158349159
 40
0.6901284089
 40
1.0
 40
1.0
 40
1.0
 40
1.0
 10
356.9497068606
 20
95.2307534449
 30
0.0
 10
356.6554900184
 20
94.962963418
 30
0.0
 10
355.9809106056
 20
94.441666767
 30
0.0
 10
354.8184193025
 20
93.74091102
 30
0.0
 10
353.4526078577
 20
93.0783852176
 30
0.0
 10
351.2878908147
 20
92.2196264144
 30
0.0
 10
348.1632971751
 20
91.3094319688
 30
0.0
 10
345.5217728176
 20
90.7911092377
 30
0.0
 10
344.1132068044
 20
90.5666727094
 30
0.0
  0
SPLINE
  5
3EE
330
220
100
AcDbEntity
  8
7_ALL_FEATURES
  6
Continuous
 62
     7
100
AcDbSpline
 70
     0
 71
     3
 72
    17
 73
    13
 74
     0
 42
0.000000001
 43
0.0000001
 40
0.0
 40
0.0
 40
0.0
 40
0.0
 40
0.0363187141
 40
0.0777185312
 40
0.1242353414
 40
0.1757088882
 40
0.2921859901
 40
0.4236721124
 40
0.5655584397
 40
0.7126001717
 40
0.8592480942
 40
1.0
 40
1.0
 40
1.0
 40
1.0
 10
310.9215486868
 20
94.6824746487
 30
0.0
 10
311.2335695294
 20
94.4117774506
 30
0.0
 10
311.9499284869
 20
93.888111703
 30
0.0
 10
313.1831319451
 20
93.1938577229
 30
0.0
 10
314.6323005599
 20
92.5462217626
 30
0.0
 10
316.9292052258
 20
91.7198704199
 30
0.0
 10
320.2362062566
 20
90.8752084144
 30
0.0
 10
324.6181003033
 20
90.1695025908
 30
0.0
 10
329.3870053317
 20
89.7671902051
 30
0.0
 10
334.3441030385
 20
89.6860860574
 30
0.0
 10
339.2826793556
 20
89.930041441
 30
0.0
 10
342.5322776332
 20
90.3147723715
 30
0.0
 10
344.1132068044
 20
90.5666727094
 30
0.0
  0
SPLINE
  5
3EF
330
220
100
AcDbEntity
  8
3_ALL_AXES
  6
Continuous
 62
     7
100
AcDbSpline
 70
     0
 71
     3
 72
    15
 73
    11
 74
     0
 42
0.000000001
 43
0.0000001
 40
0.0
 40
0.0
 40
0.0
 40
0.0
 40
0.0780300975
 40
0.1633119203
 40
0.2612182818
 40
0.374874421
 40
0.5056877703
 40
0.6539146903
 40
0.8190388617
 40
1.0
 40
1.0
 40
1.0
 40
1.0
 10
302.7645911493
 20
109.1337324817
 30
0.0
 10
302.7689915597
 20
108.7649988968
 30
0.0
 10
302.9152171686
 20
107.9902199609
 30
0.0
 10
303.5137466876
 20
106.8936259473
 30
0.0
 10
304.4637257358
 20
105.8481993365
 30
0.0
 10
305.7488672916
 20
104.855364494
 30
0.0
 10
307.3560585315
 20
103.9195537358
 30
0.0
 10
309.2691653327
 20
103.0491364795
 30
0.0
 10
311.4675802212
 20
102.2534103194
 30
0.0
 10
313.0397476724
 20
101.7983536127
 30
0.0
 10
313.8672777706
 20
101.5825807385
 30
0.0
  0
SPLINE
  5
3F0
330
220
100
AcDbEntity
  8
3_ALL_AXES
  6
Continuous
 62
     7
100
AcDbSpline
 70
     0
 71
     3
 72
    12
 73
     8
 74
     0
 42
0.000000001
 43
0.0000001
 40
0.0
 40
0.0
 40
0.0
 40
0.0
 40
0.1128630788
 40
0.2330015427
 40
0.4877812216
 40
0.7488388351
 40
1.0
 40
1.0
 40
1.0
 40
1.0
 10
315.5808941293
 20
101.1679514518
 30
0.0
 10
316.7286399178
 20
100.9106570766
 30
0.0
 10
319.1154797341
 20
100.4550547446
 30
0.0
 10
324.1543041963
 20
99.769393332
 30
0.0
 10
330.7793450746
 20
99.3529182977
 30
0.0
 10
338.7790344774
 20
99.5229978893
 30
0.0
 10
344.0961328307
 20
100.0915994456
 30
0.0
 10
346.6810657247
 20
100.5034746145
 30
0.0
  0
SPLINE
  5
3F1
330
220
100
AcDbEntity
  8
7_ALL_FEATURES
  6
Continuous
 62
     7
100
AcDbSpline
 70
     0
 71
     3
 72
    11
 73
     7
 74
     0
 42
0.000000001
 43
0.0000001
 40
0.0
 40
0.0
 40
0.0
 40
0.0
 40
0.2194640108
 40
0.4524839806
 40
0.7101129618
 40
1.0
 40
1.0
 40
1.0
 40
1.0
 10
308.8994457939
 20
97.8544470807
 30
0.0
 10
308.9023043681
 20
97.6163022457
 30
0.0
 10
308.9768183059
 20
97.1239143354
 30
0.0
 10
309.2861214578
 20
96.4105596347
 30
0.0
 10
309.7837085732
 20
95.71879391
 30
0.0
 10
310.2092338572
 20
95.3004584152
 30
0.0
 10
310.4468554708
 20
95.0943039649
 30
0.0
  0
SPLINE
  5
3F2
330
220
100
AcDbEntity
  8
3_ALL_AXES
  6
Continuous
 62
     7
100
AcDbSpline
 70
     0
 71
     3
 72
    15
 73
    11
 74
     0
 42
0.000000001
 43
0.0000001
 40
0.0
 40
0.0
 40
0.0
 40
0.0
 40
0.0780207833
 40
0.1632948614
 40
0.2611968103
 40
0.3748522063
 40
0.5056681311
 40
0.6539002275
 40
0.8190311857
 40
1.0
 40
1.0
 40
1.0
 40
1.0
 10
364.7601748223
 20
109.8727223643
 30
0.0
 10
364.7645764323
 20
109.5038882611
 30
0.0
 10
364.6368466088
 20
108.7256100961
 30
0.0
 10
364.0643536616
 20
107.614754248
 30
0.0
 10
363.1391214471
 20
106.5467121162
 30
0.0
 10
361.8773965094
 20
105.5232904932
 30
0.0
 10
360.2921956072
 20
104.5492379942
 30
0.0
 10
358.399462041
 20
103.6333137535
 30
0.0
 10
356.2195939399
 20
102.7853144528
 30
0.0
 10
354.6579851384
 20
102.2928815304
 30
0.0
 10
353.8354467574
 20
102.0574452716
 30
0.0
  0
SPLINE
  5
3F3
330
220
100
AcDbEntity
  8
3_ALL_AXES
  6
Continuous
 62
     7
100
AcDbSpline
 70
     0
 71
     3
 72
     9
 73
     5
 74
     0
 42
0.000000001
 43
0.0000001
 40
0.0
 40
0.0
 40
0.0
 40
0.0
 40
0.4813701237
 40
1.0
 40
1.0
 40
1.0
 40
1.0
 10
353.8354467574
 20
102.0574452716
 30
0.0
 10
352.7055583392
 20
101.7340358014
 30
0.0
 10
350.3334164644
 20
101.1479143785
 30
0.0
 10
347.9315235387
 20
100.702718674
 30
0.0
 10
346.6810657247
 20
100.5034746145
 30
0.0
  0
SPLINE
  5
3F4
330
220
100
AcDbEntity
  8
7_ALL_FEATURES
  6
Continuous
 62
     7
100
AcDbSpline
 70
     0
 71
     3
 72
    11
 73
     7
 74
     0
 42
0.000000001
 43
0.0000001
 40
0.0
 40
0.0
 40
0.0
 40
0.0
 40
0.2194655172
 40
0.4524842795
 40
0.7101233964
 40
1.0
 40
1.0
 40
1.0
 40
1.0
 10
358.8958426824
 20
98.4502218154
 30
0.0
 10
358.8987012538
 20
98.2120772049
 30
0.0
 10
358.8358446265
 20
97.7180663071
 30
0.0
 10
358.5437397912
 20
96.9975004978
 30
0.0
 10
358.0626640384
 20
96.2941525796
 30
0.0
 10
357.6473076336
 20
95.8657386054
 30
0.0
 10
357.4146804462
 20
95.6539849491
 30
0.0
  0
SPLINE
  5
3F5
330
220
100
AcDbEntity
  8
7_ALL_FEATURES
  6
Continuous
 62
     7
100
AcDbSpline
 70
     0
 71
     3
 72
     9
 73
     5
 74
     0
 42
0.000000001
 43
0.0000001
 40
0.0
 40
0.0
 40
0.0
 40
0.0
 40
0.2476854329
 40
1.0
 40
1.0
 40
1.0
 40
1.0
 10
358.8845982881
 20
99.3960674465
 30
0.0
 10
358.8838797041
 20
99.4564295796
 30
0.0
 10
358.8726113908
 20
99.699990901
 30
0.0
 10
358.8272313788
 20
99.9417479619
 30
0.0
 10
358.7763241267
 20
100.1178949324
 30
0.0
  0
SPLINE
  5
3F6
330
220
100
AcDbEntity
  8
7_ALL_FEATURES
  6
Continuous
 62
     7
100
AcDbSpline
 70
     0
 71
     3
 72
    17
 73
    13
 74
     0
 42
0.000000001
 43
0.0000001
 40
0.0
 40
0.0
 40
0.0
 40
0.0
 40
0.0336092208
 40
0.0686308449
 40
0.1062945051
 40
0.1475430898
 40
0.2430567503
 40
0.3580538638
 40
0.4928078008
 40
0.6461843495
 40
0.8161400359
 40
1.0
 40
1.0
 40
1.0
 40
1.0
 10
358.8676906315
 20
100.8149290683
 30
0.0
 10
358.8700039195
 20
100.6206094052
 30
0.0
 10
358.8298152986
 20
100.2220064144
 30
0.0
 10
358.6381120571
 20
99.633857118
 30
0.0
 10
358.3182233775
 20
99.0540858355
 30
0.0
 10
357.6950473618
 20
98.2567647693
 30
0.0
 10
356.5767208328
 20
97.3045015988
 30
0.0
 10
354.8536830827
 20
96.2855145566
 30
0.0
 10
352.7136118219
 20
95.3500817366
 30
0.0
 10
350.196471339
 20
94.5166306697
 30
0.0
 10
347.3500841089
 20
93.8016454465
 30
0.0
 10
345.3376190117
 20
93.4265203434
 30
0.0
 10
344.287757342
 20
93.2592386497
 30
0.0
  0
SPLINE
  5
3F7
330
220
100
AcDbEntity
  8
7_ALL_FEATURES
  6
Continuous
 62
     7
100
AcDbSpline
 70
     0
 71
     3
 72
     9
 73
     5
 74
     0
 42
0.000000001
 43
0.0000001
 40
0.0
 40
0.0
 40
0.0
 40
0.0
 40
0.2476854329
 40
1.0
 40
1.0
 40
1.0
 40
1.0
 10
358.8536009177
 20
101.9973137532
 30
0.0
 10
358.8528823338
 20
102.0576758863
 30
0.0
 10
358.8416140205
 20
102.3012372077
 30
0.0
 10
358.7962340084
 20
102.5429942687
 30
0.0
 10
358.7453267563
 20
102.7191412392
 30
0.0
  0
SPLINE
  5
3F8
330
220
100
AcDbEntity
  8
7_ALL_FEATURES
  6
Continuous
 62
     7
100
AcDbSpline
 70
     0
 71
     3
 72
    17
 73
    13
 74
     0
 42
0.000000001
 43
0.0000001
 40
0.0
 40
0.0
 40
0.0
 40
0.0
 40
0.0336092208
 40
0.0686308449
 40
0.1062945051
 40
0.1475430898
 40
0.2430567503
 40
0.3580538638
 40
0.4928078008
 40
0.6461843495
 40
0.8161400359
 40
1.0
 40
1.0
 40
1.0
 40
1.0
 10
358.8366932612
 20
103.4161753751
 30
0.0
 10
358.8390065491
 20
103.221855712
 30
0.0
 10
358.7988179283
 20
102.8232527212
 30
0.0
 10
358.6071146867
 20
102.2351034247
 30
0.0
 10
358.2872260072
 20
101.6553321423
 30
0.0
 10
357.6640499915
 20
100.8580110761
 30
0.0
 10
356.5457234624
 20
99.9057479056
 30
0.0
 10
354.8226857123
 20
98.8867608634
 30
0.0
 10
352.6826144515
 20
97.9513280433
 30
0.0
 10
350.1654739687
 20
97.1178769764
 30
0.0
 10
347.3190867385
 20
96.4028917532
 30
0.0
 10
345.3066216413
 20
96.0277666502
 30
0.0
 10
344.2567599716
 20
95.8604849565
 30
0.0
  0
SPLINE
  5
3F9
330
220
100
AcDbEntity
  8
7_ALL_FEATURES
  6
Continuous
 62
     7
100
AcDbSpline
 70
     0
 71
     3
 72
    13
 73
     9
 74
     0
 42
0.000000001
 43
0.0000001
 40
0.0
 40
0.0
 40
0.0
 40
0.0
 40
0.0865856497
 40
0.1848214017
 40
0.294802018
 40
0.4162030953
 40
0.6903971155
 40
1.0
 40
1.0
 40
1.0
 40
1.0
 10
357.3048898998
 20
103.2034783074
 30
0.0
 10
357.0037238512
 20
102.9312978389
 30
0.0
 10
356.3142497235
 20
102.4014096357
 30
0.0
 10
355.1274844068
 20
101.6890796655
 30
0.0
 10
353.7346506313
 20
101.015606897
 30
0.0
 10
351.5291767447
 20
100.1427596952
 30
0.0
 10
348.347962206
 20
99.2174824963
 30
0.0
 10
345.6591757115
 20
98.6901268507
 30
0.0
 10
344.2257626013
 20
98.4617312632
 30
0.0
  0
SPLINE
  5
3FA
330
220
100
AcDbEntity
  8
7_ALL_FEATURES
  6
Continuous
 62
     7
100
AcDbSpline
 70
     0
 71
     3
 72
     9
 73
     5
 74
     0
 42
0.000000001
 43
0.0000001
 40
0.0
 40
0.0
 40
0.0
 40
0.0
 40
0.2438437352
 40
1.0
 40
1.0
 40
1.0
 40
1.0
 10
357.4146804462
 20
95.6539849491
 30
0.0
 10
357.3799691458
 20
95.6223882777
 30
0.0
 10
357.2363904631
 20
95.4941630993
 30
0.0
 10
357.0880863823
 20
95.3712559046
 30
0.0
 10
356.9738179253
 20
95.2810938961
 30
0.0
  0
SPLINE
  5
3FB
330
220
100
AcDbEntity
  8
7_ALL_FEATURES
  6
Continuous
 62
     7
100
AcDbSpline
 70
     0
 71
     3
 72
    13
 73
     9
 74
     0
 42
0.000000001
 43
0.0000001
 40
0.0
 40
0.0
 40
0.0
 40
0.0
 40
0.0898046262
 40
0.1904495322
 40
0.30186061
 40
0.4236671356
 40
0.6957362837
 40
1.0
 40
1.0
 40
1.0
 40
1.0
 10
356.9738179253
 20
95.2810938961
 30
0.0
 10
356.6562138497
 20
95.030492618
 30
0.0
 10
355.947401469
 20
94.5432685819
 30
0.0
 10
354.7555575384
 20
93.8853454406
 30
0.0
 10
353.384495016
 20
93.2637655085
 30
0.0
 10
351.2529573244
 20
92.461333985
 30
0.0
 10
348.2208707941
 20
91.6053975365
 30
0.0
 10
345.6695552469
 20
91.1101506388
 30
0.0
 10
344.3159367696
 20
90.89446928
 30
0.0
  0
SPLINE
  5
3FC
330
220
100
AcDbEntity
  8
7_ALL_FEATURES
  6
Continuous
 62
     7
100
AcDbSpline
 70
     0
 71
     3
 72
     9
 73
     5
 74
     0
 42
0.000000001
 43
0.0000001
 40
0.0
 40
0.0
 40
0.0
 40
0.0
 40
0.2434503692
 40
1.0
 40
1.0
 40
1.0
 40
1.0
 10
310.4468554708
 20
95.0943039649
 30
0.0
 10
310.4847225498
 20
95.0614514531
 30
0.0
 10
310.6416280913
 20
94.9280800803
 30
0.0
 10
310.8037565099
 20
94.8008875936
 30
0.0
 10
310.9287293851
 20
94.7078691011
 30
0.0
  0
SPLINE
  5
3FD
330
220
100
AcDbEntity
  8
7_ALL_FEATURES
  6
Continuous
 62
     7
100
AcDbSpline
 70
     0
 71
     3
 72
    17
 73
    13
 74
     0
 42
0.000000001
 43
0.0000001
 40
0.0
 40
0.0
 40
0.0
 40
0.0
 40
0.0382398949
 40
0.0813737623
 40
0.1293465268
 40
0.1819496318
 40
0.2996506044
 40
0.4310460083
 40
0.5717673432
 40
0.7169181393
 40
0.8613555927
 40
1.0
 40
1.0
 40
1.0
 40
1.0
 10
310.9287293851
 20
94.7078691011
 30
0.0
 10
311.278442038
 20
94.4475746675
 30
0.0
 10
312.0617331889
 20
93.9457246771
 30
0.0
 10
313.3792511868
 20
93.2796054886
 30
0.0
 10
314.8979881971
 20
92.6609582602
 30
0.0
 10
317.2616502507
 20
91.8782662385
 30
0.0
 10
320.6142462929
 20
91.0819713152
 30
0.0
 10
325.0133508949
 20
90.4241154283
 30
0.0
 10
329.760223651
 20
90.0601957429
 30
0.0
 10
334.6689977699
 20
90.0052883164
 30
0.0
 10
339.5474287593
 20
90.2618673997
 30
0.0
 10
342.7550267425
 20
90.6457587302
 30
0.0
 10
344.3159367696
 20
90.89446928
 30
0.0
  0
SPLINE
  5
3FE
330
220
100
AcDbEntity
  8
7_ALL_FEATURES
  6
Continuous
 62
     7
100
AcDbSpline
 70
     0
 71
     3
 72
     9
 73
     5
 74
     0
 42
0.000000001
 43
0.0000001
 40
0.0
 40
0.0
 40
0.0
 40
0.0
 40
0.4905059615
 40
1.0
 40
1.0
 40
1.0
 40
1.0
 10
346.5982182076
 20
107.4558965617
 30
0.0
 10
343.943987287
 20
107.0329796651
 30
0.0
 10
338.4855245228
 20
106.456624413
 30
0.0
 10
332.9994742667
 20
106.3575601245
 30
0.0
 10
330.2086510873
 20
106.4297805602
 30
0.0
  0
SPLINE
  5
3FF
330
220
100
AcDbEntity
  8
7_ALL_FEATURES
  6
Continuous
 62
     7
100
AcDbSpline
 70
     0
 71
     3
 72
    16
 73
    12
 74
     0
 42
0.000000001
 43
0.0000001
 40
0.0
 40
0.0
 40
0.0
 40
0.0
 40
0.1758296451
 40
0.3399536955
 40
0.490209248
 40
0.6248890204
 40
0.7428273512
 40
0.7954070467
 40
0.8437664034
 40
0.9284725615
 40
1.0
 40
1.0
 40
1.0
 40
1.0
 10
344.3046649985
 20
91.8403770279
 30
0.0
 10
345.2554490977
 20
91.9918720096
 30
0.0
 10
347.0871770786
 20
92.3287055921
 30
0.0
 10
349.6978179332
 20
92.9591414559
 30
0.0
 10
352.0480285679
 20
93.6892155648
 30
0.0
 10
354.0996806739
 20
94.5065543531
 30
0.0
 10
355.5875618997
 20
95.2766003572
 30
0.0
 10
356.5907397301
 20
95.9345000899
 30
0.0
 10
357.3942735997
 20
96.5583042925
 30
0.0
 10
358.1879692435
 20
97.3602530167
 30
0.0
 10
358.6165153692
 20
98.1202878222
 30
0.0
 10
358.739961754
 20
98.4919822273
 30
0.0
  0
SPLINE
  5
400
330
220
100
AcDbEntity
  8
7_ALL_FEATURES
  6
Continuous
 62
     7
100
AcDbSpline
 70
     0
 71
     3
 72
     9
 73
     5
 74
     0
 42
0.000000001
 43
0.0000001
 40
0.0
 40
0.0
 40
0.0
 40
0.0
 40
0.255994745
 40
1.0
 40
1.0
 40
1.0
 40
1.0
 10
358.739961754
 20
98.4919822273
 30
0.0
 10
358.7646506863
 20
98.5663200708
 30
0.0
 10
358.850003445
 20
98.8602313262
 30
0.0
 10
358.8873082158
 20
99.1684294442
 30
0.0
 10
358.8845982881
 20
99.3960674465
 30
0.0
  0
SPLINE
  5
401
330
220
100
AcDbEntity
  8
7_ALL_FEATURES
  6
Continuous
 62
     7
100
AcDbSpline
 70
     0
 71
     3
 72
     9
 73
     5
 74
     0
 42
0.000000001
 43
0.0000001
 40
0.0
 40
0.0
 40
0.0
 40
0.0
 40
0.2464063855
 40
1.0
 40
1.0
 40
1.0
 40
1.0
 10
308.8881466462
 20
98.8004169455
 30
0.0
 10
308.8890469635
 20
98.7247889405
 30
0.0
 10
308.9058790034
 20
98.4180820742
 30
0.0
 10
308.9768910723
 20
98.1150105124
 30
0.0
 10
309.0552016999
 20
97.8973575524
 30
0.0
  0
SPLINE
  5
402
330
220
100
AcDbEntity
  8
7_ALL_FEATURES
  6
Continuous
 62
     7
100
AcDbSpline
 70
     0
 71
     3
 72
    18
 73
    14
 74
     0
 42
0.000000001
 43
0.0000001
 40
0.0
 40
0.0
 40
0.0
 40
0.0
 40
0.0616063683
 40
0.1008411462
 40
0.1463321924
 40
0.1980724948
 40
0.2557668132
 40
0.3189183571
 40
0.3868822456
 40
0.5340955467
 40
0.6904887917
 40
0.8483837203
 40
1.0
 40
1.0
 40
1.0
 40
1.0
 10
309.0552016999
 20
97.8973575524
 30
0.0
 10
309.3133502353
 20
97.1798713742
 30
0.0
 10
310.1666191581
 20
96.1757649589
 30
0.0
 10
311.6351894561
 20
95.1268161599
 30
0.0
 10
313.1300590936
 20
94.3255996472
 30
0.0
 10
314.9035699801
 20
93.5928796906
 30
0.0
 10
316.9375760791
 20
92.9334577929
 30
0.0
 10
319.2038369798
 20
92.3577945733
 30
0.0
 10
322.5858239178
 20
91.6948184289
 30
0.0
 10
327.1583735595
 20
91.143786352
 30
0.0
 10
332.8712054856
 20
90.9145755782
 30
0.0
 10
338.6393921018
 20
91.1161669774
 30
0.0
 10
342.4514590323
 20
91.5450929521
 30
0.0
 10
344.3046649985
 20
91.8403770279
 30
0.0
  0
SPLINE
  5
403
330
220
100
AcDbEntity
  8
7_ALL_FEATURES
  6
Continuous
 62
     7
100
AcDbSpline
 70
     0
 71
     3
 72
    17
 73
    13
 74
     0
 42
0.000000001
 43
0.0000001
 40
0.0
 40
0.0
 40
0.0
 40
0.0
 40
0.1838599641
 40
0.3538156505
 40
0.5071921992
 40
0.6419461362
 40
0.7569432497
 40
0.8524569102
 40
0.8937054949
 40
0.9313691551
 40
0.9663907792
 40
1.0
 40
1.0
 40
1.0
 40
1.0
 10
344.2736676282
 20
94.4416233346
 30
0.0
 10
345.3235292979
 20
94.6089050283
 30
0.0
 10
347.3359943951
 20
94.9840301314
 30
0.0
 10
350.1823816253
 20
95.6990153546
 30
0.0
 10
352.6995221081
 20
96.5324664215
 30
0.0
 10
354.8395933689
 20
97.4678992415
 30
0.0
 10
356.562631119
 20
98.4868862837
 30
0.0
 10
357.680957648
 20
99.4391494542
 30
0.0
 10
358.3041336637
 20
100.2364705204
 30
0.0
 10
358.6240223433
 20
100.8162418029
 30
0.0
 10
358.8157255848
 20
101.4043910993
 30
0.0
 10
358.8559142057
 20
101.8029940901
 30
0.0
 10
358.8536009177
 20
101.9973137532
 30
0.0
  0
SPLINE
  5
404
330
220
100
AcDbEntity
  8
7_ALL_FEATURES
  6
Continuous
 62
     7
100
AcDbSpline
 70
     0
 71
     3
 72
     9
 73
     5
 74
     0
 42
0.000000001
 43
0.0000001
 40
0.0
 40
0.0
 40
0.0
 40
0.0
 40
0.4901586929
 40
1.0
 40
1.0
 40
1.0
 40
1.0
 10
308.8571492758
 20
101.4016632522
 30
0.0
 10
308.8594084606
 20
101.2118883359
 30
0.0
 10
308.9067518218
 20
100.8241625962
 30
0.0
 10
309.0336770334
 20
100.4553925847
 30
0.0
 10
309.1144094791
 20
100.2752461043
 30
0.0
  0
SPLINE
  5
405
330
220
100
AcDbEntity
  8
7_ALL_FEATURES
  6
Continuous
 62
     7
100
AcDbSpline
 70
     0
 71
     3
 72
    19
 73
    15
 74
     0
 42
0.000000001
 43
0.0000001
 40
0.0
 40
0.0
 40
0.0
 40
0.0
 40
0.029365252
 40
0.0636515245
 40
0.1037597773
 40
0.1500033395
 40
0.2023152943
 40
0.2603741273
 40
0.3236769466
 40
0.3915860276
 40
0.5381483516
 40
0.6933528738
 40
0.8497972767
 40
1.0
 40
1.0
 40
1.0
 40
1.0
 10
309.1144094791
 20
100.2752461043
 30
0.0
 10
309.2621644568
 20
99.9455454619
 30
0.0
 10
309.7006322203
 20
99.2829034375
 30
0.0
 10
310.6339725177
 20
98.4019623211
 30
0.0
 10
311.8690114044
 20
97.569638603
 30
0.0
 10
313.3919476404
 20
96.7939006253
 30
0.0
 10
315.1851789539
 20
96.0826634359
 30
0.0
 10
317.2263789593
 20
95.4452543562
 30
0.0
 10
319.4892482545
 20
94.8900598456
 30
0.0
 10
322.8483981617
 20
94.2537366431
 30
0.0
 10
327.3725418513
 20
93.7281863962
 30
0.0
 10
333.0113159298
 20
93.5176895706
 30
0.0
 10
338.6947970583
 20
93.7258791538
 30
0.0
 10
342.4486720806
 20
94.1508342193
 30
0.0
 10
344.2736676282
 20
94.4416233346
 30
0.0
  0
SPLINE
  5
406
330
220
100
AcDbEntity
  8
7_ALL_FEATURES
  6
Continuous
 62
     7
100
AcDbSpline
 70
     0
 71
     3
 72
     9
 73
     5
 74
     0
 42
0.000000001
 43
0.0000001
 40
0.0
 40
0.0
 40
0.0
 40
0.0
 40
0.2467442401
 40
1.0
 40
1.0
 40
1.0
 40
1.0
 10
308.9596800064
 20
103.1983132024
 30
0.0
 10
308.9683559005
 20
103.171306263
 30
0.0
 10
309.0050842553
 20
103.0623607562
 30
0.0
 10
309.0479978578
 20
102.9555158151
 30
0.0
 10
309.0834121087
 20
102.8764924111
 30
0.0
  0
SPLINE
  5
407
330
220
100
AcDbEntity
  8
7_ALL_FEATURES
  6
Continuous
 62
     7
100
AcDbSpline
 70
     0
 71
     3
 72
    19
 73
    15
 74
     0
 42
0.000000001
 43
0.0000001
 40
0.0
 40
0.0
 40
0.0
 40
0.0
 40
0.029365252
 40
0.0636515245
 40
0.1037597773
 40
0.1500033395
 40
0.2023152943
 40
0.2603741273
 40
0.3236769466
 40
0.3915860276
 40
0.5381483516
 40
0.6933528738
 40
0.8497972767
 40
1.0
 40
1.0
 40
1.0
 40
1.0
 10
309.0834121087
 20
102.8764924111
 30
0.0
 10
309.2311670865
 20
102.5467917686
 30
0.0
 10
309.6696348499
 20
101.8841497443
 30
0.0
 10
310.6029751474
 20
101.0032086278
 30
0.0
 10
311.8380140341
 20
100.1708849097
 30
0.0
 10
313.36095027
 20
99.3951469321
 30
0.0
 10
315.1541815835
 20
98.6839097427
 30
0.0
 10
317.1953815889
 20
98.0465006629
 30
0.0
 10
319.4582508842
 20
97.4913061523
 30
0.0
 10
322.8174007913
 20
96.8549829499
 30
0.0
 10
327.341544481
 20
96.3294327029
 30
0.0
 10
332.9803185595
 20
96.1189358774
 30
0.0
 10
338.663799688
 20
96.3271254605
 30
0.0
 10
342.4176747102
 20
96.752080526
 30
0.0
 10
344.2426702579
 20
97.0428696414
 30
0.0
  0
SPLINE
  5
408
330
220
100
AcDbEntity
  8
7_ALL_FEATURES
  6
Continuous
 62
     7
100
AcDbSpline
 70
     0
 71
     3
 72
    15
 73
    11
 74
     0
 42
0.000000001
 43
0.0000001
 40
0.0
 40
0.0
 40
0.0
 40
0.0
 40
0.1769151258
 40
0.3418962262
 40
0.4927290904
 40
0.6276694139
 40
0.7455461708
 40
0.7979862884
 40
0.8461470894
 40
1.0
 40
1.0
 40
1.0
 40
1.0
 10
344.2426702579
 20
97.0428696414
 30
0.0
 10
345.2033016951
 20
97.1959336673
 30
0.0
 10
347.0530894639
 20
97.5365450962
 30
0.0
 10
349.6875489038
 20
98.1752675237
 30
0.0
 10
352.055090977
 20
98.915340399
 30
0.0
 10
354.1169821166
 20
99.7445031482
 30
0.0
 10
355.6067561047
 20
100.5250373971
 30
0.0
 10
356.6081436966
 20
101.1940914203
 30
0.0
 10
357.6994397051
 20
102.0578154518
 30
0.0
 10
358.4645861383
 20
102.973141978
 30
0.0
 10
358.7061278991
 20
103.7838695246
 30
0.0
  0
SPLINE
  5
409
330
220
100
AcDbEntity
  8
7_ALL_FEATURES
  6
Continuous
 62
     7
100
AcDbSpline
 70
     0
 71
     3
 72
    11
 73
     7
 74
     0
 42
0.000000001
 43
0.0000001
 40
0.0
 40
0.0
 40
0.0
 40
0.0
 40
0.2130112353
 40
0.4527883165
 40
0.7163703256
 40
1.0
 40
1.0
 40
1.0
 40
1.0
 10
359.2836123933
 20
111.0624858488
 30
0.0
 10
358.4387118657
 20
110.6519919946
 30
0.0
 10
356.5912612017
 20
109.884462283
 30
0.0
 10
353.5798871437
 20
108.921282538
 30
0.0
 10
350.207574002
 20
108.0919514885
 30
0.0
 10
347.833392979
 20
107.6527054709
 30
0.0
 10
346.5982182076
 20
107.4558965617
 30
0.0
  0
SPLINE
  5
40A
330
220
100
AcDbEntity
  8
3_ALL_AXES
  6
Continuous
 62
     7
100
AcDbSpline
 70
     0
 71
     3
 72
     9
 73
     5
 74
     0
 42
0.000000001
 43
0.0000001
 40
0.0
 40
0.0
 40
0.0
 40
0.0
 40
0.4357792066
 40
1.0
 40
1.0
 40
1.0
 40
1.0
 10
333.5854885316
 20
130.6856878455
 30
0.0
 10
333.5862442773
 20
130.619490978
 30
0.0
 10
333.646531459
 20
130.4687969063
 30
0.0
 10
333.7653250031
 20
130.3690060605
 30
0.0
 10
333.8356547217
 20
130.3200111208
 30
0.0
  0
SPLINE
  5
40B
330
220
100
AcDbEntity
  8
3_ALL_AXES
  6
Continuous
 62
     7
100
AcDbSpline
 70
     0
 71
     3
 72
    15
 73
    11
 74
     0
 42
0.000000001
 43
0.0000001
 40
0.0
 40
0.0
 40
0.0
 40
0.0
 40
0.0930841569
 40
0.2144096374
 40
0.356529025
 40
0.5089923368
 40
0.6601167832
 40
0.7983707563
 40
0.9138140941
 40
1.0
 40
1.0
 40
1.0
 40
1.0
 10
333.8356547217
 20
130.3200111208
 30
0.0
 10
333.9696316868
 20
130.2266765609
 30
0.0
 10
334.3189258739
 20
130.0732828323
 30
0.0
 10
334.926797795
 20
129.9232604574
 30
0.0
 10
335.652759755
 20
129.8345115784
 30
0.0
 10
336.4354349366
 20
129.8159217242
 30
0.0
 10
337.2096634271
 20
129.8692290301
 30
0.0
 10
337.9116167037
 20
129.9896944569
 30
0.0
 10
338.4818504098
 20
130.1652500228
 30
0.0
 10
338.7998966558
 20
130.3352574981
 30
0.0
 10
338.9131584326
 20
130.4353962237
 30
0.0
  0
SPLINE
  5
40C
330
220
100
AcDbEntity
  8
3_ALL_AXES
  6
Continuous
 62
     7
100
AcDbSpline
 70
     0
 71
     3
 72
     9
 73
     5
 74
     0
 42
0.000000001
 43
0.0000001
 40
0.0
 40
0.0
 40
0.0
 40
0.0
 40
0.2639906447
 40
1.0
 40
1.0
 40
1.0
 40
1.0
 10
338.9131584326
 20
130.4353962237
 30
0.0
 10
338.9214551526
 20
130.4427316461
 30
0.0
 10
338.9523280838
 20
130.4711286049
 30
0.0
 10
338.9809022843
 20
130.5021097794
 30
0.0
 10
338.9998791128
 20
130.5264653477
 30
0.0
  0
SPLINE
  5
40D
330
220
100
AcDbEntity
  8
3_ALL_AXES
  6
Continuous
 62
     7
100
AcDbSpline
 70
     0
 71
     3
 72
     9
 73
     5
 74
     0
 42
0.000000001
 43
0.0000001
 40
0.0
 40
0.0
 40
0.0
 40
0.0
 40
0.2765419597
 40
1.0
 40
1.0
 40
1.0
 40
1.0
 10
338.9998791128
 20
130.5264653477
 30
0.0
 10
339.013622012
 20
130.5441034963
 30
0.0
 10
339.0595583081
 20
130.6104411504
 30
0.0
 10
339.0857667419
 20
130.6924117879
 30
0.0
 10
339.0850989596
 20
130.7509038139
 30
0.0
  0
SPLINE
  5
40E
330
220
100
AcDbEntity
  8
3_ALL_AXES
  6
Continuous
 62
     7
100
AcDbSpline
 70
     0
 71
     3
 72
    15
 73
    11
 74
     0
 42
0.000000001
 43
0.0000001
 40
0.0
 40
0.0
 40
0.0
 40
0.0
 40
0.0930841569
 40
0.2144096374
 40
0.356529025
 40
0.5089923368
 40
0.6601167832
 40
0.7983707563
 40
0.9138140941
 40
1.0
 40
1.0
 40
1.0
 40
1.0
 10
354.767868633
 20
115.7376612991
 30
0.0
 10
354.9018455981
 20
115.6443267392
 30
0.0
 10
355.2511397852
 20
115.4909330106
 30
0.0
 10
355.8590117063
 20
115.3409106357
 30
0.0
 10
356.5849736664
 20
115.2521617567
 30
0.0
 10
357.3676488479
 20
115.2335719025
 30
0.0
 10
358.1418773384
 20
115.2868792084
 30
0.0
 10
358.843830615
 20
115.4073446352
 30
0.0
 10
359.4140643211
 20
115.5829002011
 30
0.0
 10
359.7321105672
 20
115.7529076763
 30
0.0
 10
359.8453723439
 20
115.853046402
 30
0.0
  0
SPLINE
  5
40F
330
220
100
AcDbEntity
  8
3_ALL_AXES
  6
Continuous
 62
     7
100
AcDbSpline
 70
     0
 71
     3
 72
     9
 73
     5
 74
     0
 42
0.000000001
 43
0.0000001
 40
0.0
 40
0.0
 40
0.0
 40
0.0
 40
0.2639906447
 40
1.0
 40
1.0
 40
1.0
 40
1.0
 10
359.8453723439
 20
115.853046402
 30
0.0
 10
359.853669064
 20
115.8603818244
 30
0.0
 10
359.8845419951
 20
115.8887787832
 30
0.0
 10
359.9131161956
 20
115.9197599576
 30
0.0
 10
359.9320930241
 20
115.9441155259
 30
0.0
  0
SPLINE
  5
410
330
220
100
AcDbEntity
  8
3_ALL_AXES
  6
Continuous
 62
     7
100
AcDbSpline
 70
     0
 71
     3
 72
     9
 73
     5
 74
     0
 42
0.000000001
 43
0.0000001
 40
0.0
 40
0.0
 40
0.0
 40
0.0
 40
0.2765419597
 40
1.0
 40
1.0
 40
1.0
 40
1.0
 10
359.9320930241
 20
115.9441155259
 30
0.0
 10
359.9458359233
 20
115.9617536746
 30
0.0
 10
359.9917722195
 20
116.0280913287
 30
0.0
 10
360.0179806532
 20
116.1100619662
 30
0.0
 10
360.0173128709
 20
116.1685539922
 30
0.0
  0
SPLINE
  5
411
330
220
100
AcDbEntity
  8
3_ALL_AXES
  6
Continuous
 62
     7
100
AcDbSpline
 70
     0
 71
     3
 72
    18
 73
    14
 74
     0
 42
0.000000001
 43
0.0000001
 40
0.0
 40
0.0
 40
0.0
 40
0.0
 40
0.1496632028
 40
0.3055495679
 40
0.4603024208
 40
0.6066281929
 40
0.7378546677
 40
0.7960717846
 40
0.8486256154
 40
0.8951849431
 40
0.9356615833
 40
0.9703254901
 40
1.0
 40
1.0
 40
1.0
 40
1.0
 10
343.5188637527
 20
114.4321023621
 30
0.0
 10
341.7961339293
 20
114.1576079493
 30
0.0
 10
338.2527001229
 20
113.7554624806
 30
0.0
 10
332.88675971
 20
113.5552500885
 30
0.0
 10
327.5586032554
 20
113.7477376217
 30
0.0
 10
322.5473998263
 20
114.3221374488
 30
0.0
 10
318.7071075696
 20
115.1188646408
 30
0.0
 10
316.0089591215
 20
115.9480003857
 30
0.0
 10
314.2985357194
 20
116.6150135716
 30
0.0
 10
312.8403770435
 20
117.3430932228
 30
0.0
 10
311.6512531267
 20
118.1248403484
 30
0.0
 10
310.7443622042
 20
118.9524685508
 30
0.0
 10
310.309132352
 20
119.575694515
 30
0.0
 10
310.1582273081
 20
119.8869228412
 30
0.0
  0
SPLINE
  5
412
330
220
100
AcDbEntity
  8
3_ALL_AXES
  6
Continuous
 62
     7
100
AcDbSpline
 70
     0
 71
     3
 72
     9
 73
     5
 74
     0
 42
0.000000001
 43
0.0000001
 40
0.0
 40
0.0
 40
0.0
 40
0.0
 40
0.2586093687
 40
1.0
 40
1.0
 40
1.0
 40
1.0
 10
310.1582273081
 20
119.8869228412
 30
0.0
 10
310.126031762
 20
119.9533233117
 30
0.0
 10
310.0102394665
 20
120.2141430216
 30
0.0
 10
309.9321552344
 20
120.4922320647
 30
0.0
 10
309.900853685
 20
120.7014592822
 30
0.0
  0
SPLINE
  5
413
330
220
100
AcDbEntity
  8
3_ALL_AXES
  6
Continuous
 62
     7
100
AcDbSpline
 70
     0
 71
     3
 72
    15
 73
    11
 74
     0
 42
0.000000001
 43
0.0000001
 40
0.0
 40
0.0
 40
0.0
 40
0.0
 40
0.0930841569
 40
0.2144096374
 40
0.356529025
 40
0.5089923368
 40
0.6601167832
 40
0.7983707563
 40
0.9138140941
 40
1.0
 40
1.0
 40
1.0
 40
1.0
 10
304.7620171173
 20
116.7286962688
 30
0.0
 10
304.8959940824
 20
116.6353617089
 30
0.0
 10
305.2452882695
 20
116.4819679803
 30
0.0
 10
305.8531601906
 20
116.3319456054
 30
0.0
 10
306.5791221506
 20
116.2431967264
 30
0.0
 10
307.3617973322
 20
116.2246068722
 30
0.0
 10
308.1360258227
 20
116.2779141781
 30
0.0
 10
308.8379790993
 20
116.398379605
 30
0.0
 10
309.4082128054
 20
116.5739351708
 30
0.0
 10
309.7262590514
 20
116.7439426461
 30
0.0
 10
309.8395208282
 20
116.8440813718
 30
0.0
  0
SPLINE
  5
414
330
220
100
AcDbEntity
  8
3_ALL_AXES
  6
Continuous
 62
     7
100
AcDbSpline
 70
     0
 71
     3
 72
     9
 73
     5
 74
     0
 42
0.000000001
 43
0.0000001
 40
0.0
 40
0.0
 40
0.0
 40
0.0
 40
0.2639906447
 40
1.0
 40
1.0
 40
1.0
 40
1.0
 10
309.8395208282
 20
116.8440813718
 30
0.0
 10
309.8478175482
 20
116.8514167941
 30
0.0
 10
309.8786904794
 20
116.879813753
 30
0.0
 10
309.9072646799
 20
116.9107949274
 30
0.0
 10
309.9262415084
 20
116.9351504957
 30
0.0
  0
SPLINE
  5
415
330
220
100
AcDbEntity
  8
3_ALL_AXES
  6
Continuous
 62
     7
100
AcDbSpline
 70
     0
 71
     3
 72
     9
 73
     5
 74
     0
 42
0.000000001
 43
0.0000001
 40
0.0
 40
0.0
 40
0.0
 40
0.0
 40
0.2765419597
 40
1.0
 40
1.0
 40
1.0
 40
1.0
 10
309.9262415084
 20
116.9351504957
 30
0.0
 10
309.9399844076
 20
116.9527886443
 30
0.0
 10
309.9859207037
 20
117.0191262985
 30
0.0
 10
310.0121291375
 20
117.101096936
 30
0.0
 10
310.0114613552
 20
117.159588962
 30
0.0
  0
SPLINE
  5
416
330
220
100
AcDbEntity
  8
3_ALL_AXES
  6
Continuous
 62
     7
100
AcDbSpline
 70
     0
 71
     3
 72
     9
 73
     5
 74
     0
 42
0.000000001
 43
0.0000001
 40
0.0
 40
0.0
 40
0.0
 40
0.0
 40
0.4357792066
 40
1.0
 40
1.0
 40
1.0
 40
1.0
 10
354.5177024429
 20
116.1033380238
 30
0.0
 10
354.5184581886
 20
116.0371411563
 30
0.0
 10
354.5787453703
 20
115.8864470846
 30
0.0
 10
354.6975389144
 20
115.7866562388
 30
0.0
 10
354.767868633
 20
115.7376612991
 30
0.0
  0
SPLINE
  5
417
330
220
100
AcDbEntity
  8
3_ALL_AXES
  6
Continuous
 62
     7
100
AcDbSpline
 70
     0
 71
     3
 72
     9
 73
     5
 74
     0
 42
0.000000001
 43
0.0000001
 40
0.0
 40
0.0
 40
0.0
 40
0.0
 40
0.243052764
 40
1.0
 40
1.0
 40
1.0
 40
1.0
 10
357.3471831043
 20
121.2427382466
 30
0.0
 10
357.3377557767
 20
121.1729200014
 30
0.0
 10
357.2871820185
 20
120.887288488
 30
0.0
 10
357.1897672542
 20
120.6107024809
 30
0.0
 10
357.0965037682
 20
120.4121001512
 30
0.0
  0
SPLINE
  5
418
330
220
100
AcDbEntity
  8
3_ALL_AXES
  6
Continuous
 62
     7
100
AcDbSpline
 70
     0
 71
     3
 72
    14
 73
    10
 74
     0
 42
0.000000001
 43
0.0000001
 40
0.0
 40
0.0
 40
0.0
 40
0.0
 40
0.0737792217
 40
0.1610262928
 40
0.2638061777
 40
0.3826303666
 40
0.517027985
 40
0.6658500535
 40
1.0
 40
1.0
 40
1.0
 40
1.0
 10
357.0965037682
 20
120.4121001512
 30
0.0
 10
356.9371934706
 20
120.0728527397
 30
0.0
 10
356.4630583958
 20
119.3912589613
 30
0.0
 10
355.4638095039
 20
118.488228617
 30
0.0
 10
354.1431985751
 20
117.6317443233
 30
0.0
 10
352.517786638
 20
116.8320706208
 30
0.0
 10
350.6091356812
 20
116.0989015877
 30
0.0
 10
347.6055857755
 20
115.1898561487
 30
0.0
 10
345.1951676346
 20
114.6991994099
 30
0.0
 10
343.5188637527
 20
114.4321023621
 30
0.0
  0
SPLINE
  5
419
330
220
100
AcDbEntity
  8
3_ALL_AXES
  6
Continuous
 62
     7
100
AcDbSpline
 70
     0
 71
     3
 72
     9
 73
     5
 74
     0
 42
0.000000001
 43
0.0000001
 40
0.0
 40
0.0
 40
0.0
 40
0.0
 40
0.4357792066
 40
1.0
 40
1.0
 40
1.0
 40
1.0
 10
304.5118509272
 20
117.0943729935
 30
0.0
 10
304.5126066729
 20
117.028176126
 30
0.0
 10
304.5728938546
 20
116.8774820543
 30
0.0
 10
304.6916873987
 20
116.7776912086
 30
0.0
 10
304.7620171173
 20
116.7286962688
 30
0.0
  0
SPLINE
  5
41A
330
220
100
AcDbEntity
  8
3_ALL_AXES
  6
Continuous
 62
     7
100
AcDbSpline
 70
     0
 71
     3
 72
     9
 73
     5
 74
     0
 42
0.000000001
 43
0.0000001
 40
0.0
 40
0.0
 40
0.0
 40
0.0
 40
0.2705573265
 40
1.0
 40
1.0
 40
1.0
 40
1.0
 10
309.7669310506
 20
117.0523118127
 30
0.0
 10
309.7817681604
 20
117.0419755948
 30
0.0
 10
309.8356225858
 20
117.0024369402
 30
0.0
 10
309.8855330264
 20
116.957097578
 30
0.0
 10
309.9173557475
 20
116.9201645027
 30
0.0
  0
SPLINE
  5
41B
330
220
100
AcDbEntity
  8
3_ALL_AXES
  6
Continuous
 62
     7
100
AcDbSpline
 70
     0
 71
     3
 72
     9
 73
     5
 74
     0
 42
0.000000001
 43
0.0000001
 40
0.0
 40
0.0
 40
0.0
 40
0.0
 40
0.5002043328
 40
1.0
 40
1.0
 40
1.0
 40
1.0
 10
358.0607249605
 20
115.3014696306
 30
0.0
 10
357.8033653594
 20
115.3560954281
 30
0.0
 10
357.2745076669
 20
115.3934400652
 30
0.0
 10
356.7467162501
 20
115.3430137724
 30
0.0
 10
356.4910200273
 20
115.2819864986
 30
0.0
  0
SPLINE
  5
41C
330
220
100
AcDbEntity
  8
3_ALL_AXES
  6
Continuous
 62
     7
100
AcDbSpline
 70
     0
 71
     3
 72
     9
 73
     5
 74
     0
 42
0.000000001
 43
0.0000001
 40
0.0
 40
0.0
 40
0.0
 40
0.0
 40
0.2728078244
 40
1.0
 40
1.0
 40
1.0
 40
1.0
 10
359.7500585752
 20
116.0576560729
 30
0.0
 10
359.7662305128
 20
116.0463899521
 30
0.0
 10
359.8243285584
 20
116.0035129576
 30
0.0
 10
359.8777603346
 20
115.9536623105
 30
0.0
 10
359.9107430153
 20
115.9127690174
 30
0.0
  0
SPLINE
  5
41D
330
220
100
AcDbEntity
  8
3_ALL_AXES
  6
Continuous
 62
     7
100
AcDbSpline
 70
     0
 71
     3
 72
    15
 73
    11
 74
     0
 42
0.000000001
 43
0.0000001
 40
0.0
 40
0.0
 40
0.0
 40
0.0
 40
0.0936121689
 40
0.2158044101
 40
0.3588897383
 40
0.5121331356
 40
0.6635611736
 40
0.8014125367
 40
0.915649559
 40
1.0
 40
1.0
 40
1.0
 40
1.0
 10
359.7500585752
 20
116.0576560729
 30
0.0
 10
359.615839081
 20
116.1511595898
 30
0.0
 10
359.2652811796
 20
116.3043670452
 30
0.0
 10
358.6554235801
 20
116.4534577029
 30
0.0
 10
357.9274552098
 20
116.5405160866
 30
0.0
 10
357.1441242035
 20
116.5566730416
 30
0.0
 10
356.3719013944
 20
116.5003989757
 30
0.0
 10
355.675431655
 20
116.3767385298
 30
0.0
 10
355.1149066253
 20
116.1985343384
 30
0.0
 10
354.8050271354
 20
116.0258463543
 30
0.0
 10
354.6980957448
 20
115.9244032785
 30
0.0
  0
SPLINE
  5
41E
330
220
100
AcDbEntity
  8
3_ALL_AXES
  6
Continuous
 62
     7
100
AcDbSpline
 70
     0
 71
     3
 72
     9
 73
     5
 74
     0
 42
0.000000001
 43
0.0000001
 40
0.0
 40
0.0
 40
0.0
 40
0.0
 40
0.2608656594
 40
1.0
 40
1.0
 40
1.0
 40
1.0
 10
354.6980957448
 20
115.9244032785
 30
0.0
 10
354.6920249136
 20
115.9186440361
 30
0.0
 10
354.6691168465
 20
115.8961905127
 30
0.0
 10
354.6477161231
 20
115.8721668815
 30
0.0
 10
354.6331175889
 20
115.8534842267
 30
0.0
  0
SPLINE
  5
41F
330
220
100
AcDbEntity
  8
3_ALL_AXES
  6
Continuous
 62
     7
100
AcDbSpline
 70
     0
 71
     3
 72
    15
 73
    11
 74
     0
 42
0.000000001
 43
0.0000001
 40
0.0
 40
0.0
 40
0.0
 40
0.0
 40
0.0933265817
 40
0.2150555391
 40
0.3576224638
 40
0.5104489164
 40
0.6617159441
 40
0.7997846764
 40
0.9146690889
 40
1.0
 40
1.0
 40
1.0
 40
1.0
 10
359.7727825663
 20
116.061276843
 30
0.0
 10
359.6381228912
 20
116.1550870103
 30
0.0
 10
359.2867458476
 20
116.3090472312
 30
0.0
 10
358.6753515556
 20
116.4592856709
 30
0.0
 10
357.9453420927
 20
116.5476196763
 30
0.0
 10
357.1590074875
 20
116.5651544866
 30
0.0
 10
356.3823948574
 20
116.5102275494
 30
0.0
 10
355.6799876462
 20
116.3877523965
 30
0.0
 10
355.1118556117
 20
116.210183482
 30
0.0
 10
354.7962389072
 20
116.0382245954
 30
0.0
 10
354.6854506346
 20
115.9370207983
 30
0.0
  0
SPLINE
  5
420
330
220
100
AcDbEntity
  8
3_ALL_AXES
  6
Continuous
 62
     7
100
AcDbSpline
 70
     0
 71
     3
 72
     9
 73
     5
 74
     0
 42
0.000000001
 43
0.0000001
 40
0.0
 40
0.0
 40
0.0
 40
0.0
 40
0.2605961162
 40
1.0
 40
1.0
 40
1.0
 40
1.0
 10
354.6854506346
 20
115.9370207983
 30
0.0
 10
354.6792678055
 20
115.9313728559
 30
0.0
 10
354.6558793756
 20
115.9093370753
 30
0.0
 10
354.6338865422
 20
115.8857915344
 30
0.0
 10
354.6187456694
 20
115.8674799389
 30
0.0
  0
SPLINE
  5
421
330
220
100
AcDbEntity
  8
3_ALL_AXES
  6
Continuous
 62
     7
100
AcDbSpline
 70
     0
 71
     3
 72
     9
 73
     5
 74
     0
 42
0.000000001
 43
0.0000001
 40
0.0
 40
0.0
 40
0.0
 40
0.0
 40
0.2705573265
 40
1.0
 40
1.0
 40
1.0
 40
1.0
 10
359.7727825663
 20
116.061276843
 30
0.0
 10
359.7876196761
 20
116.050940625
 30
0.0
 10
359.8414741016
 20
116.0114019704
 30
0.0
 10
359.8913845421
 20
115.9660626083
 30
0.0
 10
359.9232072632
 20
115.9291295329
 30
0.0
  0
SPLINE
  5
422
330
220
100
AcDbEntity
  8
3_ALL_AXES
  6
Continuous
 62
     7
100
AcDbSpline
 70
     0
 71
     3
 72
     9
 73
     5
 74
     0
 42
0.000000001
 43
0.0000001
 40
0.0
 40
0.0
 40
0.0
 40
0.0
 40
0.5002043328
 40
1.0
 40
1.0
 40
1.0
 40
1.0
 10
337.1285110492
 20
129.8838194523
 30
0.0
 10
336.8711514481
 20
129.9384452498
 30
0.0
 10
336.3422937556
 20
129.975789887
 30
0.0
 10
335.8145023388
 20
129.9253635941
 30
0.0
 10
335.5588061159
 20
129.8643363203
 30
0.0
  0
SPLINE
  5
423
330
220
100
AcDbEntity
  8
3_ALL_AXES
  6
Continuous
 62
     7
100
AcDbSpline
 70
     0
 71
     3
 72
     9
 73
     5
 74
     0
 42
0.000000001
 43
0.0000001
 40
0.0
 40
0.0
 40
0.0
 40
0.0
 40
0.2728078244
 40
1.0
 40
1.0
 40
1.0
 40
1.0
 10
338.8178446639
 20
130.6400058946
 30
0.0
 10
338.8340166015
 20
130.6287397738
 30
0.0
 10
338.8921146471
 20
130.5858627793
 30
0.0
 10
338.9455464233
 20
130.5360121322
 30
0.0
 10
338.978529104
 20
130.4951188391
 30
0.0
  0
SPLINE
  5
424
330
220
100
AcDbEntity
  8
3_ALL_AXES
  6
Continuous
 62
     7
100
AcDbSpline
 70
     0
 71
     3
 72
    15
 73
    11
 74
     0
 42
0.000000001
 43
0.0000001
 40
0.0
 40
0.0
 40
0.0
 40
0.0
 40
0.0936121689
 40
0.2158044101
 40
0.3588897383
 40
0.5121331356
 40
0.6635611736
 40
0.8014125367
 40
0.915649559
 40
1.0
 40
1.0
 40
1.0
 40
1.0
 10
338.8178446639
 20
130.6400058946
 30
0.0
 10
338.6836251697
 20
130.7335094115
 30
0.0
 10
338.3330672683
 20
130.8867168669
 30
0.0
 10
337.7232096688
 20
131.0358075246
 30
0.0
 10
336.9952412985
 20
131.1228659084
 30
0.0
 10
336.2119102922
 20
131.1390228633
 30
0.0
 10
335.4396874831
 20
131.0827487974
 30
0.0
 10
334.7432177437
 20
130.9590883516
 30
0.0
 10
334.182692714
 20
130.7808841601
 30
0.0
 10
333.8728132241
 20
130.608196176
 30
0.0
 10
333.7658818335
 20
130.5067531002
 30
0.0
  0
SPLINE
  5
425
330
220
100
AcDbEntity
  8
3_ALL_AXES
  6
Continuous
 62
     7
100
AcDbSpline
 70
     0
 71
     3
 72
     9
 73
     5
 74
     0
 42
0.000000001
 43
0.0000001
 40
0.0
 40
0.0
 40
0.0
 40
0.0
 40
0.2608656594
 40
1.0
 40
1.0
 40
1.0
 40
1.0
 10
333.7658818335
 20
130.5067531002
 30
0.0
 10
333.7598110023
 20
130.5009938579
 30
0.0
 10
333.7369029352
 20
130.4785403344
 30
0.0
 10
333.7155022118
 20
130.4545167032
 30
0.0
 10
333.7009036776
 20
130.4358340485
 30
0.0
  0
SPLINE
  5
426
330
220
100
AcDbEntity
  8
3_ALL_AXES
  6
Continuous
 62
     7
100
AcDbSpline
 70
     0
 71
     3
 72
    15
 73
    11
 74
     0
 42
0.000000001
 43
0.0000001
 40
0.0
 40
0.0
 40
0.0
 40
0.0
 40
0.0933265817
 40
0.2150555391
 40
0.3576224638
 40
0.5104489164
 40
0.6617159441
 40
0.7997846764
 40
0.9146690889
 40
1.0
 40
1.0
 40
1.0
 40
1.0
 10
338.840568655
 20
130.6436266647
 30
0.0
 10
338.7059089799
 20
130.737436832
 30
0.0
 10
338.3545319363
 20
130.8913970529
 30
0.0
 10
337.7431376443
 20
131.0416354926
 30
0.0
 10
337.0131281814
 20
131.129969498
 30
0.0
 10
336.2267935762
 20
131.1475043083
 30
0.0
 10
335.4501809461
 20
131.0925773711
 30
0.0
 10
334.7477737349
 20
130.9701022182
 30
0.0
 10
334.1796417004
 20
130.7925333037
 30
0.0
 10
333.8640249959
 20
130.6205744171
 30
0.0
 10
333.7532367233
 20
130.51937062
 30
0.0
  0
SPLINE
  5
427
330
220
100
AcDbEntity
  8
3_ALL_AXES
  6
Continuous
 62
     7
100
AcDbSpline
 70
     0
 71
     3
 72
     9
 73
     5
 74
     0
 42
0.000000001
 43
0.0000001
 40
0.0
 40
0.0
 40
0.0
 40
0.0
 40
0.2605961162
 40
1.0
 40
1.0
 40
1.0
 40
1.0
 10
333.7532367233
 20
130.51937062
 30
0.0
 10
333.7470538942
 20
130.5137226776
 30
0.0
 10
333.7236654643
 20
130.491686897
 30
0.0
 10
333.7016726309
 20
130.4681413561
 30
0.0
 10
333.6865317581
 20
130.4498297607
 30
0.0
  0
SPLINE
  5
428
330
220
100
AcDbEntity
  8
3_ALL_AXES
  6
Continuous
 62
     7
100
AcDbSpline
 70
     0
 71
     3
 72
     9
 73
     5
 74
     0
 42
0.000000001
 43
0.0000001
 40
0.0
 40
0.0
 40
0.0
 40
0.0
 40
0.2705573265
 40
1.0
 40
1.0
 40
1.0
 40
1.0
 10
338.840568655
 20
130.6436266647
 30
0.0
 10
338.8554057648
 20
130.6332904467
 30
0.0
 10
338.9092601902
 20
130.5937517921
 30
0.0
 10
338.9591706308
 20
130.54841243
 30
0.0
 10
338.9909933519
 20
130.5114793546
 30
0.0
  0
SPLINE
  5
429
330
220
100
AcDbEntity
  8
3_ALL_AXES
  6
Continuous
 62
     7
100
AcDbSpline
 70
     0
 71
     3
 72
    19
 73
    15
 74
     0
 42
0.000000001
 43
0.0000001
 40
0.0
 40
0.0
 40
0.0
 40
0.0
 40
0.0467277303
 40
0.1028515376
 40
0.2392974888
 40
0.3978061279
 40
0.5625882086
 40
0.7168777215
 40
0.785286073
 40
0.8457220455
 40
0.8971077631
 40
0.9390563861
 40
0.97235912
 40
1.0
 40
1.0
 40
1.0
 40
1.0
 10
338.8349327695
 20
131.1165805386
 30
0.0
 10
338.7629446392
 20
131.1667308048
 30
0.0
 10
338.5920154788
 20
131.2590940413
 30
0.0
 10
338.1707089968
 20
131.417301211
 30
0.0
 10
337.5220763365
 20
131.5526642489
 30
0.0
 10
336.660393243
 20
131.6235878304
 30
0.0
 10
335.7623281786
 20
131.6006660925
 30
0.0
 10
335.0392451497
 20
131.5031427935
 30
0.0
 10
334.5227460262
 20
131.3751291528
 30
0.0
 10
334.2022471117
 20
131.2648655532
 30
0.0
 10
333.9410345275
 20
131.1397539393
 30
0.0
 10
333.7452412742
 20
131.0023348963
 30
0.0
 10
333.6174548336
 20
130.8529806282
 30
0.0
 10
333.5848960737
 20
130.7375820927
 30
0.0
 10
333.5854885316
 20
130.6856878455
 30
0.0
  0
SPLINE
  5
42A
330
220
100
AcDbEntity
  8
3_ALL_AXES
  6
Continuous
 62
     7
100
AcDbSpline
 70
     0
 71
     3
 72
    17
 73
    13
 74
     0
 42
0.000000001
 43
0.0000001
 40
0.0
 40
0.0
 40
0.0
 40
0.0
 40
0.1405420242
 40
0.2868039677
 40
0.4334166921
 40
0.5749627997
 40
0.7063179919
 40
0.8229670791
 40
0.8746557705
 40
0.9214738067
 40
0.9632504889
 40
1.0
 40
1.0
 40
1.0
 40
1.0
 10
323.848724968
 20
128.2417609481
 30
0.0
 10
325.3677755367
 20
128.4803613626
 30
0.0
 10
328.4877601798
 20
128.8447646472
 30
0.0
 10
333.2273743918
 20
129.0751178221
 30
0.0
 10
337.9831677138
 20
128.996754035
 30
0.0
 10
342.5609646899
 20
128.6132921916
 30
0.0
 10
346.7738581662
 20
127.9413479911
 30
0.0
 10
349.9598484017
 20
127.1374228766
 30
0.0
 10
352.1803762228
 20
126.3511542989
 30
0.0
 10
353.5876143971
 20
125.7340555902
 30
0.0
 10
354.7909378067
 20
125.0721067521
 30
0.0
 10
355.4941371354
 20
124.5731871216
 30
0.0
 10
355.802450564
 20
124.3150993864
 30
0.0
  0
SPLINE
  5
42B
330
220
100
AcDbEntity
  8
3_ALL_AXES
  6
Continuous
 62
     7
100
AcDbSpline
 70
     0
 71
     3
 72
    11
 73
     7
 74
     0
 42
0.000000001
 43
0.0000001
 40
0.0
 40
0.0
 40
0.0
 40
0.0
 40
0.2870754726
 40
0.5440282883
 40
0.778227236
 40
1.0
 40
1.0
 40
1.0
 40
1.0
 10
356.0395605507
 20
124.1075287922
 30
0.0
 10
356.2445660741
 20
123.9195576174
 30
0.0
 10
356.6116250244
 20
123.5381664072
 30
0.0
 10
357.0387371743
 20
122.9115342403
 30
0.0
 10
357.3035471398
 20
122.2673723307
 30
0.0
 10
357.3672378227
 20
121.8244868145
 30
0.0
 10
357.3697795338
 20
121.6096339426
 30
0.0
  0
SPLINE
  5
42C
330
220
100
AcDbEntity
  8
3_ALL_AXES
  6
Continuous
 62
     7
100
AcDbSpline
 70
     0
 71
     3
 72
    19
 73
    15
 74
     0
 42
0.000000001
 43
0.0000001
 40
0.0
 40
0.0
 40
0.0
 40
0.0
 40
0.0467277303
 40
0.1028515376
 40
0.2392974888
 40
0.3978061279
 40
0.5625882086
 40
0.7168777215
 40
0.785286073
 40
0.8457220455
 40
0.8971077631
 40
0.9390563861
 40
0.97235912
 40
1.0
 40
1.0
 40
1.0
 40
1.0
 10
309.7612951651
 20
117.5252656867
 30
0.0
 10
309.6893070347
 20
117.5754159529
 30
0.0
 10
309.5183778744
 20
117.6677791893
 30
0.0
 10
309.0970713924
 20
117.825986359
 30
0.0
 10
308.448438732
 20
117.9613493969
 30
0.0
 10
307.5867556386
 20
118.0322729785
 30
0.0
 10
306.6886905742
 20
118.0093512406
 30
0.0
 10
305.9656075453
 20
117.9118279416
 30
0.0
 10
305.4491084218
 20
117.7838143008
 30
0.0
 10
305.1286095073
 20
117.6735507012
 30
0.0
 10
304.8673969231
 20
117.5484390873
 30
0.0
 10
304.6716036698
 20
117.4110200443
 30
0.0
 10
304.5438172292
 20
117.2616657762
 30
0.0
 10
304.5112584693
 20
117.1462672408
 30
0.0
 10
304.5118509272
 20
117.0943729935
 30
0.0
  0
SPLINE
  5
42D
330
220
100
AcDbEntity
  8
3_ALL_AXES
  6
Continuous
 62
     7
100
AcDbSpline
 70
     0
 71
     3
 72
     9
 73
     5
 74
     0
 42
0.000000001
 43
0.0000001
 40
0.0
 40
0.0
 40
0.0
 40
0.0
 40
0.4357792066
 40
1.0
 40
1.0
 40
1.0
 40
1.0
 10
360.0173128709
 20
116.1685539922
 30
0.0
 10
360.0165571252
 20
116.2347508597
 30
0.0
 10
359.9562699435
 20
116.3854449314
 30
0.0
 10
359.8374763994
 20
116.4852357772
 30
0.0
 10
359.7671466808
 20
116.5342307169
 30
0.0
  0
SPLINE
  5
42E
330
220
100
AcDbEntity
  8
3_ALL_AXES
  6
Continuous
 62
     7
100
AcDbSpline
 70
     0
 71
     3
 72
    19
 73
    15
 74
     0
 42
0.000000001
 43
0.0000001
 40
0.0
 40
0.0
 40
0.0
 40
0.0
 40
0.0467277303
 40
0.1028515376
 40
0.2392974888
 40
0.3978061279
 40
0.5625882086
 40
0.7168777215
 40
0.785286073
 40
0.8457220455
 40
0.8971077631
 40
0.9390563861
 40
0.97235912
 40
1.0
 40
1.0
 40
1.0
 40
1.0
 10
359.7671466808
 20
116.5342307169
 30
0.0
 10
359.6951585505
 20
116.5843809831
 30
0.0
 10
359.5242293902
 20
116.6767442196
 30
0.0
 10
359.1029229081
 20
116.8349513893
 30
0.0
 10
358.4542902478
 20
116.9703144272
 30
0.0
 10
357.5926071544
 20
117.0412380087
 30
0.0
 10
356.6945420899
 20
117.0183162708
 30
0.0
 10
355.971459061
 20
116.9207929718
 30
0.0
 10
355.4549599375
 20
116.7927793311
 30
0.0
 10
355.134461023
 20
116.6825157315
 30
0.0
 10
354.8732484388
 20
116.5574041176
 30
0.0
 10
354.6774551855
 20
116.4199850746
 30
0.0
 10
354.5496687449
 20
116.2706308065
 30
0.0
 10
354.5171099851
 20
116.155232271
 30
0.0
 10
354.5177024429
 20
116.1033380238
 30
0.0
  0
SPLINE
  5
42F
330
220
100
AcDbEntity
  8
3_ALL_AXES
  6
Continuous
 62
     7
100
AcDbSpline
 70
     0
 71
     3
 72
    17
 73
    13
 74
     0
 42
0.000000001
 43
0.0000001
 40
0.0
 40
0.0
 40
0.0
 40
0.0
 40
0.0336087607
 40
0.0686318459
 40
0.1062950809
 40
0.1475469333
 40
0.2430631327
 40
0.358060857
 40
0.4928164604
 40
0.646186787
 40
0.8161491427
 40
1.0
 40
1.0
 40
1.0
 40
1.0
 10
309.873192162
 20
121.044514601
 30
0.0
 10
309.8710083784
 20
121.2291115753
 30
0.0
 10
309.909185606
 20
121.6077884287
 30
0.0
 10
310.0914830677
 20
122.1664573566
 30
0.0
 10
310.3953185323
 20
122.7172767163
 30
0.0
 10
310.9875216959
 20
123.4746078547
 30
0.0
 10
312.049901448
 20
124.3792547773
 30
0.0
 10
313.6868180649
 20
125.347233566
 30
0.0
 10
315.7198277714
 20
126.235824879
 30
0.0
 10
318.1110631093
 20
127.0276023194
 30
0.0
 10
320.8150315227
 20
127.7067698174
 30
0.0
 10
322.726812214
 20
128.0631401813
 30
0.0
 10
323.7241079431
 20
128.2220461815
 30
0.0
  0
SPLINE
  5
430
330
220
100
AcDbEntity
  8
3_ALL_AXES
  6
Continuous
 62
     7
100
AcDbSpline
 70
     0
 71
     3
 72
     9
 73
     5
 74
     0
 42
0.000000001
 43
0.0000001
 40
0.0
 40
0.0
 40
0.0
 40
0.0
 40
0.4357792066
 40
1.0
 40
1.0
 40
1.0
 40
1.0
 10
310.0114613552
 20
117.159588962
 30
0.0
 10
310.0107056095
 20
117.2257858295
 30
0.0
 10
309.9504184278
 20
117.3764799012
 30
0.0
 10
309.8316248837
 20
117.476270747
 30
0.0
 10
309.7612951651
 20
117.5252656867
 30
0.0
  0
SPLINE
  5
431
330
220
100
AcDbEntity
  8
3_ALL_AXES
  6
Continuous
 62
     7
100
AcDbSpline
 70
     0
 71
     3
 72
     9
 73
     5
 74
     0
 42
0.000000001
 43
0.0000001
 40
0.0
 40
0.0
 40
0.0
 40
0.0
 40
0.4357792066
 40
1.0
 40
1.0
 40
1.0
 40
1.0
 10
339.0850989596
 20
130.7509038139
 30
0.0
 10
339.0843432139
 20
130.8171006815
 30
0.0
 10
339.0240560322
 20
130.9677947531
 30
0.0
 10
338.9052624881
 20
131.0675855989
 30
0.0
 10
338.8349327695
 20
131.1165805386
 30
0.0
  0
SPLINE
  5
432
330
220
100
AcDbEntity
  8
3_ALL_AXES
  6
Continuous
 62
     7
100
AcDbSpline
 70
     0
 71
     3
 72
     9
 73
     5
 74
     0
 42
0.000000001
 43
0.0000001
 40
0.0
 40
0.0
 40
0.0
 40
0.0
 40
0.5002043328
 40
1.0
 40
1.0
 40
1.0
 40
1.0
 10
308.0548734448
 20
116.2925046004
 30
0.0
 10
307.7975138436
 20
116.3471303978
 30
0.0
 10
307.2686561512
 20
116.384475035
 30
0.0
 10
306.7408647344
 20
116.3340487421
 30
0.0
 10
306.4851685115
 20
116.2730214684
 30
0.0
  0
SPLINE
  5
433
330
220
100
AcDbEntity
  8
3_ALL_AXES
  6
Continuous
 62
     7
100
AcDbSpline
 70
     0
 71
     3
 72
     9
 73
     5
 74
     0
 42
0.000000001
 43
0.0000001
 40
0.0
 40
0.0
 40
0.0
 40
0.0
 40
0.2728078244
 40
1.0
 40
1.0
 40
1.0
 40
1.0
 10
309.7442070595
 20
117.0486910426
 30
0.0
 10
309.7603789971
 20
117.0374249218
 30
0.0
 10
309.8184770427
 20
116.9945479274
 30
0.0
 10
309.8719088189
 20
116.9446972803
 30
0.0
 10
309.9048914996
 20
116.9038039872
 30
0.0
  0
SPLINE
  5
434
330
220
100
AcDbEntity
  8
3_ALL_AXES
  6
Continuous
 62
     7
100
AcDbSpline
 70
     0
 71
     3
 72
    15
 73
    11
 74
     0
 42
0.000000001
 43
0.0000001
 40
0.0
 40
0.0
 40
0.0
 40
0.0
 40
0.0936121689
 40
0.2158044101
 40
0.3588897383
 40
0.5121331356
 40
0.6635611736
 40
0.8014125367
 40
0.915649559
 40
1.0
 40
1.0
 40
1.0
 40
1.0
 10
309.7442070595
 20
117.0486910426
 30
0.0
 10
309.6099875653
 20
117.1421945596
 30
0.0
 10
309.2594296639
 20
117.2954020149
 30
0.0
 10
308.6495720644
 20
117.4444926726
 30
0.0
 10
307.9216036941
 20
117.5315510564
 30
0.0
 10
307.1382726878
 20
117.5477080113
 30
0.0
 10
306.3660498787
 20
117.4914339455
 30
0.0
 10
305.6695801393
 20
117.3677734996
 30
0.0
 10
305.1090551096
 20
117.1895693082
 30
0.0
 10
304.7991756196
 20
117.0168813241
 30
0.0
 10
304.6922442291
 20
116.9154382482
 30
0.0
  0
SPLINE
  5
435
330
220
100
AcDbEntity
  8
3_ALL_AXES
  6
Continuous
 62
     7
100
AcDbSpline
 70
     0
 71
     3
 72
     9
 73
     5
 74
     0
 42
0.000000001
 43
0.0000001
 40
0.0
 40
0.0
 40
0.0
 40
0.0
 40
0.2608656594
 40
1.0
 40
1.0
 40
1.0
 40
1.0
 10
304.6922442291
 20
116.9154382482
 30
0.0
 10
304.6861733979
 20
116.9096790059
 30
0.0
 10
304.6632653308
 20
116.8872254825
 30
0.0
 10
304.6418646074
 20
116.8632018512
 30
0.0
 10
304.6272660732
 20
116.8445191965
 30
0.0
  0
SPLINE
  5
436
330
220
100
AcDbEntity
  8
3_ALL_AXES
  6
Continuous
 62
     7
100
AcDbSpline
 70
     0
 71
     3
 72
    15
 73
    11
 74
     0
 42
0.000000001
 43
0.0000001
 40
0.0
 40
0.0
 40
0.0
 40
0.0
 40
0.0933265817
 40
0.2150555391
 40
0.3576224638
 40
0.5104489164
 40
0.6617159441
 40
0.7997846764
 40
0.9146690889
 40
1.0
 40
1.0
 40
1.0
 40
1.0
 10
309.7669310506
 20
117.0523118127
 30
0.0
 10
309.6322713755
 20
117.14612198
 30
0.0
 10
309.2808943319
 20
117.300082201
 30
0.0
 10
308.6695000399
 20
117.4503206406
 30
0.0
 10
307.939490577
 20
117.538654646
 30
0.0
 10
307.1531559717
 20
117.5561894563
 30
0.0
 10
306.3765433417
 20
117.5012625191
 30
0.0
 10
305.6741361305
 20
117.3787873663
 30
0.0
 10
305.106004096
 20
117.2012184518
 30
0.0
 10
304.7903873914
 20
117.0292595651
 30
0.0
 10
304.6795991189
 20
116.928055768
 30
0.0
  0
SPLINE
  5
437
330
220
100
AcDbEntity
  8
3_ALL_AXES
  6
Continuous
 62
     7
100
AcDbSpline
 70
     0
 71
     3
 72
     9
 73
     5
 74
     0
 42
0.000000001
 43
0.0000001
 40
0.0
 40
0.0
 40
0.0
 40
0.0
 40
0.2605961162
 40
1.0
 40
1.0
 40
1.0
 40
1.0
 10
304.6795991189
 20
116.928055768
 30
0.0
 10
304.6734162898
 20
116.9224078256
 30
0.0
 10
304.6500278599
 20
116.900372045
 30
0.0
 10
304.6280350265
 20
116.8768265041
 30
0.0
 10
304.6128941537
 20
116.8585149087
 30
0.0
  0
ENDSEC
  0
SECTION
  2
OBJECTS
  0
DICTIONARY
  5
C
330
0
100
AcDbDictionary
281
     1
  3
ACAD_DETAILVIEWSTYLE
350
4AE
  3
ACAD_GROUP
350
D
  3
ACAD_IMAGE_VARS
350
481
  3
ACAD_LAYOUT
350
1A
  3
ACAD_MATERIAL
350
47B
  3
ACAD_MLEADERSTYLE
350
4AC
  3
ACAD_MLINESTYLE
350
17
  3
ACAD_PLOTSETTINGS
350
19
  3
ACAD_PLOTSTYLENAME
350
E
  3
ACAD_SCALELIST
350
43D
  3
ACAD_SECTIONVIEWSTYLE
350
4AF
  3
ACAD_TABLESTYLE
350
45F
  3
ACAD_VISUALSTYLE
350
462
  3
ACDB_RECOMPOSE_DATA
350
4B5
  3
AcDbVariableDictionary
350
4A6
  3
APPDATA
350
47F
  0
SUN
  5
480
330
1F4
100
AcDbSun
 90
        1
290
     0
 63
     7
421
 16777215
 40
1.0
291
     1
 91
  2455826
 92
 54000000
292
     0
 70
     2
 71
   256
280
     1
  0
DICTIONARY
  5
4AE
102
{ACAD_REACTORS
330
C
102
}
330
C
100
AcDbDictionary
281
     1
  0
DICTIONARY
  5
D
102
{ACAD_REACTORS
330
C
102
}
330
C
100
AcDbDictionary
281
     1
  0
RASTERVARIABLES
  5
481
102
{ACAD_REACTORS
330
C
102
}
330
C
100
AcDbRasterVariables
 90
        0
 70
     1
 71
     1
 72
     1
  0
DICTIONARY
  5
1A
102
{ACAD_REACTORS
330
C
102
}
330
C
100
AcDbDictionary
281
     1
  3
Layout1
350
43A
  3
Model
350
439
  0
DICTIONARY
  5
47B
102
{ACAD_REACTORS
330
C
102
}
330
C
100
AcDbDictionary
281
     1
  3
ByBlock
350
47D
  3
ByLayer
350
47C
  3
Global
350
47E
  0
DICTIONARY
  5
4AC
102
{ACAD_REACTORS
330
C
102
}
330
C
100
AcDbDictionary
281
     1
  3
Standard
350
4B1
  0
DICTIONARY
  5
17
102
{ACAD_REACTORS
330
C
102
}
330
C
100
AcDbDictionary
281
     1
  3
Standard
350
18
  0
DICTIONARY
  5
19
102
{ACAD_REACTORS
330
C
102
}
330
C
100
AcDbDictionary
281
     1
  0
ACDBDICTIONARYWDFLT
  5
E
102
{ACAD_REACTORS
330
C
102
}
330
C
100
AcDbDictionary
281
     1
  3
Normal
350
F
100
AcDbDictionaryWithDefault
340
F
  0
DICTIONARY
  5
43D
102
{ACAD_REACTORS
330
C
102
}
330
C
100
AcDbDictionary
281
     1
  3
A0
350
43E
  3
A1
350
43F
  3
A2
350
440
  3
A3
350
441
  3
A4
350
442
  3
A5
350
443
  3
A6
350
444
  3
A7
350
445
  3
A8
350
446
  3
A9
350
447
  3
B0
350
448
  3
B1
350
449
  3
B2
350
44A
  3
B3
350
44B
  3
B4
350
44C
  3
B5
350
44D
  3
B6
350
44E
  3
B7
350
44F
  3
B8
350
450
  3
B9
350
451
  3
C0
350
452
  3
C1
350
453
  3
C2
350
454
  3
C3
350
455
  3
C4
350
456
  3
C5
350
457
  3
C6
350
458
  3
C7
350
459
  3
C8
350
45A
  3
C9
350
45B
  3
D0
350
45C
  3
D1
350
45D
  3
D2
350
45E
  0
DICTIONARY
  5
4AF
102
{ACAD_REACTORS
330
C
102
}
330
C
100
AcDbDictionary
281
     1
  0
DICTIONARY
  5
45F
102
{ACAD_REACTORS
330
C
102
}
330
C
100
AcDbDictionary
281
     1
  3
Standard
350
460
  0
DICTIONARY
  5
462
102
{ACAD_REACTORS
330
C
102
}
330
C
100
AcDbDictionary
281
     1
  3
2dWireframe
350
467
  3
Basic
350
46A
  3
Brighten
350
46E
  3
ColorChange
350
472
  3
Conceptual
350
46C
  3
Dim
350
46D
  3
EdgeColorOff
350
475
  3
Facepattern
350
471
  3
Flat
350
463
  3
FlatWithEdges
350
464
  3
Gouraud
350
465
  3
GouraudWithEdges
350
466
  3
Hidden
350
469
  3
JitterOff
350
473
  3
Linepattern
350
470
  3
OverhangOff
350
474
  3
Realistic
350
46B
  3
Shaded
350
47A
  3
Shaded with edges
350
479
  3
Shades of Gray
350
476
  3
Sketchy
350
477
  3
Thicken
350
46F
  3
Wireframe
350
468
  3
X-Ray
350
478
  0
XRECORD
  5
4B5
102
{ACAD_REACTORS
330
C
102
}
330
C
100
AcDbXrecord
280
     1
 90
        1
330
460
  0
DICTIONARY
  5
4A6
102
{ACAD_REACTORS
330
C
102
}
330
C
100
AcDbDictionary
281
     1
  3
CANNOSCALE
350
4A7
  3
CMLEADERSTYLE
350
4B6
  3
CTABLESTYLE
350
4AB
  3
MSLTSCALE
350
4AD
  3
XCLIPFRAME
350
4B7
  0
DICTIONARY
  5
47F
102
{ACAD_REACTORS
330
C
102
}
330
C
100
AcDbDictionary
281
     1
  0
LAYOUT
  5
43A
102
{ACAD_REACTORS
330
1A
102
}
330
1A
100
AcDbPlotSettings
  1

  2
none_device
  4
ISO_A3_(420.00_x_297.00_MM)
  6

 40
0.0
 41
0.0
 42
0.0
 43
0.0
 44
420.0
 45
297.0
 46
0.0
 47
0.0
 48
0.0
 49
0.0
140
0.0
141
0.0
142
1.0
143
1.0
 70
     0
 72
     1
 73
     0
 74
     0
  7

 75
     0
 76
     0
 77
     2
 78
   300
147
1.0
148
0.0
149
0.0
100
AcDbLayout
  1
Layout1
 70
     0
 71
     1
 10
0.0
 20
0.0
 11
420.0
 21
297.0
 12
0.0
 22
0.0
 32
0.0
 14
0.0
 24
0.0
 34
0.0
 15
0.0
 25
0.0
 35
0.0
146
0.0
 13
0.0
 23
0.0
 33
0.0
 16
1.0
 26
0.0
 36
0.0
 17
0.0
 27
1.0
 37
0.0
 76
     0
330
221
  0
LAYOUT
  5
439
102
{ACAD_REACTORS
330
1A
102
}
330
1A
100
AcDbPlotSettings
  1

  2
none_device
  4
ISO_A3_(420.00_x_297.00_MM)
  6

 40
0.0
 41
0.0
 42
0.0
 43
0.0
 44
420.0
 45
297.0
 46
0.0
 47
0.0
 48
0.0
 49
0.0
140
0.0
141
0.0
142
1.0
143
1.0
 70
  1024
 72
     1
 73
     0
 74
     0
  7

 75
     0
 76
     0
 77
     2
 78
   300
147
1.0
148
0.0
149
0.0
100
AcDbLayout
  1
Model
 70
     0
 71
     0
 10
0.0
 20
0.0
 11
420.0
 21
297.0
 12
0.0
 22
0.0
 32
0.0
 14
0.0
 24
0.0
 34
0.0
 15
0.0
 25
0.0
 35
0.0
146
0.0
 13
0.0
 23
0.0
 33
0.0
 16
1.0
 26
0.0
 36
0.0
 17
0.0
 27
1.0
 37
0.0
 76
     0
330
220
331
1F4
  0
MATERIAL
  5
47D
102
{ACAD_REACTORS
330
47B
102
}
330
47B
100
AcDbMaterial
  1
ByBlock
 72
     1
 94
      127
  0
MATERIAL
  5
47C
102
{ACAD_REACTORS
330
47B
102
}
330
47B
100
AcDbMaterial
  1
ByLayer
 72
     1
 94
      127
  0
MATERIAL
  5
47E
102
{ACAD_REACTORS
330
47B
102
}
330
47B
100
AcDbMaterial
  1
Global
 72
     1
 94
      127
  0
MLEADERSTYLE
  5
4B1
102
{ACAD_REACTORS
330
4AC
102
}
330
4AC
100
AcDbMLeaderStyle
170
     2
171
     1
172
     0
 90
        2
 40
0.0
 41
0.0
173
     1
 91
-1056964608
340
14
 92
       -2
290
     1
 42
2.0
291
     1
 43
8.0
  3
Standard
341
0
 44
4.0
300

342
11
174
     1
178
     1
175
     1
176
     0
 93
-1056964608
 45
4.0
292
     0
297
     0
 46
4.0
343
0
 94
-1056964608
 47
1.0
 49
1.0
140
1.0
293
     1
141
0.0
294
     1
177
     0
142
1.0
295
     0
296
     0
143
3.75
1001
ACAD_MLEADERVER
1070
     2
  0
MLINESTYLE
  5
18
102
{ACAD_REACTORS
330
17
102
}
330
17
100
AcDbMlineStyle
  2
STANDARD
 70
     0
  3

 62
   256
 51
90.0
 52
90.0
 71
     2
 49
0.5
 62
   256
  6
BYLAYER
 49
-0.5
 62
   256
  6
BYLAYER
  0
ACDBPLACEHOLDER
  5
F
102
{ACAD_REACTORS
330
E
102
}
330
E
  0
SCALE
  5
43E
102
{ACAD_REACTORS
330
43D
102
}
330
43D
100
AcDbScale
 70
     0
300
1:1
140
1.0
141
1.0
290
     1
  0
SCALE
  5
43F
102
{ACAD_REACTORS
330
43D
102
}
330
43D
100
AcDbScale
 70
     0
300
1:2
140
1.0
141
2.0
290
     0
  0
SCALE
  5
440
102
{ACAD_REACTORS
330
43D
102
}
330
43D
100
AcDbScale
 70
     0
300
1:4
140
1.0
141
4.0
290
     0
  0
SCALE
  5
441
102
{ACAD_REACTORS
330
43D
102
}
330
43D
100
AcDbScale
 70
     0
300
1:5
140
1.0
141
5.0
290
     0
  0
SCALE
  5
442
102
{ACAD_REACTORS
330
43D
102
}
330
43D
100
AcDbScale
 70
     0
300
1:8
140
1.0
141
8.0
290
     0
  0
SCALE
  5
443
102
{ACAD_REACTORS
330
43D
102
}
330
43D
100
AcDbScale
 70
     0
300
1:10
140
1.0
141
10.0
290
     0
  0
SCALE
  5
444
102
{ACAD_REACTORS
330
43D
102
}
330
43D
100
AcDbScale
 70
     0
300
1:16
140
1.0
141
16.0
290
     0
  0
SCALE
  5
445
102
{ACAD_REACTORS
330
43D
102
}
330
43D
100
AcDbScale
 70
     0
300
1:20
140
1.0
141
20.0
290
     0
  0
SCALE
  5
446
102
{ACAD_REACTORS
330
43D
102
}
330
43D
100
AcDbScale
 70
     0
300
1:30
140
1.0
141
30.0
290
     0
  0
SCALE
  5
447
102
{ACAD_REACTORS
330
43D
102
}
330
43D
100
AcDbScale
 70
     0
300
1:40
140
1.0
141
40.0
290
     0
  0
SCALE
  5
448
102
{ACAD_REACTORS
330
43D
102
}
330
43D
100
AcDbScale
 70
     0
300
1:50
140
1.0
141
50.0
290
     0
  0
SCALE
  5
449
102
{ACAD_REACTORS
330
43D
102
}
330
43D
100
AcDbScale
 70
     0
300
1:100
140
1.0
141
100.0
290
     0
  0
SCALE
  5
44A
102
{ACAD_REACTORS
330
43D
102
}
330
43D
100
AcDbScale
 70
     0
300
2:1
140
2.0
141
1.0
290
     0
  0
SCALE
  5
44B
102
{ACAD_REACTORS
330
43D
102
}
330
43D
100
AcDbScale
 70
     0
300
4:1
140
4.0
141
1.0
290
     0
  0
SCALE
  5
44C
102
{ACAD_REACTORS
330
43D
102
}
330
43D
100
AcDbScale
 70
     0
300
8:1
140
8.0
141
1.0
290
     0
  0
SCALE
  5
44D
102
{ACAD_REACTORS
330
43D
102
}
330
43D
100
AcDbScale
 70
     0
300
10:1
140
10.0
141
1.0
290
     0
  0
SCALE
  5
44E
102
{ACAD_REACTORS
330
43D
102
}
330
43D
100
AcDbScale
 70
     0
300
100:1
140
100.0
141
1.0
290
     0
  0
SCALE
  5
44F
102
{ACAD_REACTORS
330
43D
102
}
330
43D
100
AcDbScale
 70
     0
300
1/128" = 1'-0"
140
0.0078125
141
12.0
290
     0
  0
SCALE
  5
450
102
{ACAD_REACTORS
330
43D
102
}
330
43D
100
AcDbScale
 70
     0
300
1/64" = 1'-0"
140
0.015625
141
12.0
290
     0
  0
SCALE
  5
451
102
{ACAD_REACTORS
330
43D
102
}
330
43D
100
AcDbScale
 70
     0
300
1/32" = 1'-0"
140
0.03125
141
12.0
290
     0
  0
SCALE
  5
452
102
{ACAD_REACTORS
330
43D
102
}
330
43D
100
AcDbScale
 70
     0
300
1/16" = 1'-0"
140
0.0625
141
12.0
290
     0
  0
SCALE
  5
453
102
{ACAD_REACTORS
330
43D
102
}
330
43D
100
AcDbScale
 70
     0
300
3/32" = 1'-0"
140
0.09375
141
12.0
290
     0
  0
SCALE
  5
454
102
{ACAD_REACTORS
330
43D
102
}
330
43D
100
AcDbScale
 70
     0
300
1/8" = 1'-0"
140
0.125
141
12.0
290
     0
  0
SCALE
  5
455
102
{ACAD_REACTORS
330
43D
102
}
330
43D
100
AcDbScale
 70
     0
300
3/16" = 1'-0"
140
0.1875
141
12.0
290
     0
  0
SCALE
  5
456
102
{ACAD_REACTORS
330
43D
102
}
330
43D
100
AcDbScale
 70
     0
300
1/4" = 1'-0"
140
0.25
141
12.0
290
     0
  0
SCALE
  5
457
102
{ACAD_REACTORS
330
43D
102
}
330
43D
100
AcDbScale
 70
     0
300
3/8" = 1'-0"
140
0.375
141
12.0
290
     0
  0
SCALE
  5
458
102
{ACAD_REACTORS
330
43D
102
}
330
43D
100
AcDbScale
 70
     0
300
1/2" = 1'-0"
140
0.5
141
12.0
290
     0
  0
SCALE
  5
459
102
{ACAD_REACTORS
330
43D
102
}
330
43D
100
AcDbScale
 70
     0
300
3/4" = 1'-0"
140
0.75
141
12.0
290
     0
  0
SCALE
  5
45A
102
{ACAD_REACTORS
330
43D
102
}
330
43D
100
AcDbScale
 70
     0
300
1" = 1'-0"
140
1.0
141
12.0
290
     0
  0
SCALE
  5
45B
102
{ACAD_REACTORS
330
43D
102
}
330
43D
100
AcDbScale
 70
     0
300
1-1/2" = 1'-0"
140
1.5
141
12.0
290
     0
  0
SCALE
  5
45C
102
{ACAD_REACTORS
330
43D
102
}
330
43D
100
AcDbScale
 70
     0
300
3" = 1'-0"
140
3.0
141
12.0
290
     0
  0
SCALE
  5
45D
102
{ACAD_REACTORS
330
43D
102
}
330
43D
100
AcDbScale
 70
     0
300
6" = 1'-0"
140
6.0
141
12.0
290
     0
  0
SCALE
  5
45E
102
{ACAD_REACTORS
330
43D
102
}
330
43D
100
AcDbScale
 70
     0
300
1'-0" = 1'-0"
140
12.0
141
12.0
290
     0
  0
TABLESTYLE
  5
460
102
{ACAD_REACTORS
330
45F
102
}
102
{ACAD_XDICTIONARY
360
4B3
102
}
330
45F
100
AcDbTableStyle
  3
Standard
 70
     0
 71
     0
 40
0.06
 41
0.06
280
     0
281
     0
  7
STANDARD
140
4.5
170
     2
 62
     0
 63
   257
283
     0
 90
        4
 91
        0
  1

274
    -2
284
     1
 64
     0
275
    -2
285
     1
 65
     0
276
    -2
286
     1
 66
     0
277
    -2
287
     1
 67
     0
278
    -2
288
     1
 68
     0
279
    -2
289
     1
 69
     0
  7
STANDARD
140
6.0
170
     5
 62
     0
 63
   257
283
     0
 90
        4
 91
        0
  1

274
    -2
284
     1
 64
     0
275
    -2
285
     1
 65
     0
276
    -2
286
     1
 66
     0
277
    -2
287
     1
 67
     0
278
    -2
288
     1
 68
     0
279
    -2
289
     1
 69
     0
  7
STANDARD
140
4.5
170
     5
 62
     0
 63
   257
283
     0
 90
        4
 91
        0
  1

274
    -2
284
     1
 64
     0
275
    -2
285
     1
 65
     0
276
    -2
286
     1
 66
     0
277
    -2
287
     1
 67
     0
278
    -2
288
     1
 68
     0
279
    -2
289
     1
 69
     0
  0
VISUALSTYLE
  5
467
102
{ACAD_REACTORS
330
462
102
}
330
462
100
AcDbVisualStyle
  2
2dWireframe
 70
     4
 71
     0
 72
     2
 73
     0
 90
        0
 40
0.6
 41
30.0
 62
     5
 63
     7
421
 16777215
 74
     1
 91
        4
 64
     7
 65
   257
 75
     1
175
     1
 42
1.0
 92
        0
 66
   257
 43
1.0
 76
     1
 77
     6
 78
     2
 67
     7
 79
     5
170
     0
171
     0
290
     0
174
     0
 93
        1
 44
0.0
173
     0
291
     0
 45
0.0
  0
VISUALSTYLE
  5
46A
102
{ACAD_REACTORS
330
462
102
}
330
462
100
AcDbVisualStyle
  2
Basic
 70
     7
 71
     1
 72
     0
 73
     1
 90
        0
 40
0.6
 41
30.0
 62
     5
 63
     7
421
 16777215
 74
     0
 91
        4
 64
     7
 65
   257
 75
     1
175
     1
 42
1.0
 92
        8
 66
     7
 43
1.0
 76
     1
 77
     6
 78
     2
 67
     7
 79
     5
170
     0
171
     0
290
     0
174
     0
 93
        1
 44
0.0
173
     0
291
     1
 45
0.0
  0
VISUALSTYLE
  5
46E
102
{ACAD_REACTORS
330
462
102
}
330
462
100
AcDbVisualStyle
  2
Brighten
 70
    12
 71
     2
 72
     2
 73
     0
 90
        0
 40
0.6
 41
30.0
 62
     5
 63
     7
421
 16777215
 74
     1
 91
        4
 64
     7
 65
   257
 75
     1
175
     1
 42
1.0
 92
        8
 66
     7
 43
1.0
 76
     1
 77
     6
 78
     2
 67
     7
 79
     5
170
     0
171
     0
290
     0
174
     0
 93
        1
 44
50.0
173
     0
291
     1
 45
0.0
  0
VISUALSTYLE
  5
472
102
{ACAD_REACTORS
330
462
102
}
330
462
100
AcDbVisualStyle
  2
ColorChange
 70
    16
 71
     2
 72
     2
 73
     3
 90
        0
 40
0.6
 41
30.0
 62
     5
 63
     8
421
  8421504
 74
     1
 91
        4
 64
     7
 65
   257
 75
     1
175
     1
 42
1.0
 92
        8
 66
     8
424
  8421504
 43
1.0
 76
     1
 77
     6
 78
     2
 67
     7
 79
     5
170
     0
171
     0
290
     0
174
     0
 93
        1
 44
0.0
173
     0
291
     1
 45
0.0
  0
VISUALSTYLE
  5
46C
102
{ACAD_REACTORS
330
462
102
}
330
462
100
AcDbVisualStyle
  2
Conceptual
 70
     9
 71
     3
 72
     2
 73
     0
 90
        0
 40
0.6
 41
30.0
 62
     5
 63
     7
421
 16777215
 74
     2
 91
        2
 64
     7
 65
   257
 75
     1
175
     1
 42
179.0
 92
        8
 66
     7
 43
1.0
 76
     1
 77
     6
 78
     2
 67
     7
 79
     3
170
     0
171
     0
290
     0
174
     0
 93
        1
 44
0.0
173
     0
291
     0
 45
0.0
  0
VISUALSTYLE
  5
46D
102
{ACAD_REACTORS
330
462
102
}
330
462
100
AcDbVisualStyle
  2
Dim
 70
    11
 71
     2
 72
     2
 73
     0
 90
        0
 40
0.6
 41
30.0
 62
     5
 63
     7
421
 16777215
 74
     1
 91
        4
 64
     7
 65
   257
 75
     1
175
     1
 42
1.0
 92
        8
 66
     7
 43
1.0
 76
     1
 77
     6
 78
     2
 67
     7
 79
     5
170
     0
171
     0
290
     0
174
     0
 93
        1
 44
-50.0
173
     0
291
     1
 45
0.0
  0
VISUALSTYLE
  5
475
102
{ACAD_REACTORS
330
462
102
}
330
462
100
AcDbVisualStyle
  2
EdgeColorOff
 70
    22
 71
     2
 72
     2
 73
     0
 90
        0
 40
0.6
 41
30.0
 62
     5
 63
     7
421
 16777215
 74
     1
 91
        4
 64
     7
 65
   257
 75
     1
175
     1
 42
1.0
 92
        8
 66
     7
 43
1.0
 76
     1
 77
     6
 78
     2
 67
     7
 79
     5
170
     0
171
     0
290
     0
174
     0
 93
        1
 44
0.0
173
     0
291
     1
 45
0.0
  0
VISUALSTYLE
  5
471
102
{ACAD_REACTORS
330
462
102
}
330
462
100
AcDbVisualStyle
  2
Facepattern
 70
    15
 71
     2
 72
     2
 73
     0
 90
        0
 40
0.6
 41
30.0
 62
     5
 63
     7
421
 16777215
 74
     1
 91
        4
 64
     7
 65
   257
 75
     1
175
     1
 42
1.0
 92
        8
 66
     7
 43
1.0
 76
     1
 77
     6
 78
     2
 67
     7
 79
     5
170
     0
171
     0
290
     0
174
     0
 93
        1
 44
0.0
173
     0
291
     1
 45
0.0
  0
VISUALSTYLE
  5
463
102
{ACAD_REACTORS
330
462
102
}
330
462
100
AcDbVisualStyle
  2
Flat
 70
     0
 71
     2
 72
     1
 73
     1
 90
        2
 40
0.6
 41
30.0
 62
     5
 63
     7
421
 16777215
 74
     0
 91
        0
 64
     7
 65
   257
 75
     1
175
     1
 42
1.0
 92
        8
 66
     7
 43
1.0
 76
     1
 77
     6
 78
     2
 67
     7
 79
     5
170
     0
171
     0
290
     0
174
     0
 93
       13
 44
0.0
173
     0
291
     1
 45
0.0
  0
VISUALSTYLE
  5
464
102
{ACAD_REACTORS
330
462
102
}
330
462
100
AcDbVisualStyle
  2
FlatWithEdges
 70
     1
 71
     2
 72
     1
 73
     1
 90
        2
 40
0.6
 41
30.0
 62
     5
 63
     7
421
 16777215
 74
     1
 91
        0
 64
     7
 65
   257
 75
     1
175
     1
 42
1.0
 92
        0
 66
   257
 43
1.0
 76
     1
 77
     6
 78
     2
 67
     7
 79
     5
170
     0
171
     0
290
     0
174
     0
 93
       13
 44
0.0
173
     0
291
     1
 45
0.0
  0
VISUALSTYLE
  5
465
102
{ACAD_REACTORS
330
462
102
}
330
462
100
AcDbVisualStyle
  2
Gouraud
 70
     2
 71
     2
 72
     2
 73
     1
 90
        2
 40
0.6
 41
30.0
 62
     5
 63
     7
421
 16777215
 74
     0
 91
        0
 64
     7
 65
   257
 75
     1
175
     1
 42
1.0
 92
        0
 66
     7
 43
1.0
 76
     1
 77
     6
 78
     2
 67
     7
 79
     5
170
     0
171
     0
290
     0
174
     0
 93
       13
 44
0.0
173
     0
291
     1
 45
0.0
  0
VISUALSTYLE
  5
466
102
{ACAD_REACTORS
330
462
102
}
330
462
100
AcDbVisualStyle
  2
GouraudWithEdges
 70
     3
 71
     2
 72
     2
 73
     1
 90
        2
 40
0.6
 41
30.0
 62
     5
 63
     7
421
 16777215
 74
     1
 91
        0
 64
     7
 65
   257
 75
     1
175
     1
 42
1.0
 92
        0
 66
   257
 43
1.0
 76
     1
 77
     6
 78
     2
 67
     7
 79
     5
170
     0
171
     0
290
     0
174
     0
 93
       13
 44
0.0
173
     0
291
     1
 45
0.0
  0
VISUALSTYLE
  5
469
102
{ACAD_REACTORS
330
462
102
}
330
462
100
AcDbVisualStyle
  2
Hidden
 70
     6
 71
     1
 72
     2
 73
     2
 90
        0
 40
0.6
 41
30.0
 62
     5
 63
     7
421
 16777215
 74
     2
 91
        2
 64
     7
 65
   257
 75
     2
175
     1
 42
40.0
 92
        0
 66
   257
 43
1.0
 76
     1
 77
     6
 78
     2
 67
     7
 79
     3
170
     0
171
     0
290
     0
174
     0
 93
        1
 44
0.0
173
     0
291
     0
 45
0.0
  0
VISUALSTYLE
  5
473
102
{ACAD_REACTORS
330
462
102
}
330
462
100
AcDbVisualStyle
  2
JitterOff
 70
    20
 71
     2
 72
     2
 73
     0
 90
        0
 40
0.6
 41
30.0
 62
     5
 63
     7
421
 16777215
 74
     1
 91
        4
 64
     7
 65
   257
 75
     1
175
     1
 42
1.0
 92
       10
 66
     7
 43
1.0
 76
     1
 77
     6
 78
     2
 67
     7
 79
     5
170
     0
171
     0
290
     0
174
     0
 93
        1
 44
0.0
173
     0
291
     1
 45
0.0
  0
VISUALSTYLE
  5
470
102
{ACAD_REACTORS
330
462
102
}
330
462
100
AcDbVisualStyle
  2
Linepattern
 70
    14
 71
     2
 72
     2
 73
     0
 90
        0
 40
0.6
 41
30.0
 62
     5
 63
     7
421
 16777215
 74
     1
 91
        4
 64
     7
 65
   257
 75
     7
175
     7
 42
1.0
 92
        8
 66
     7
 43
1.0
 76
     1
 77
     6
 78
     2
 67
     7
 79
     5
170
     0
171
     0
290
     0
174
     0
 93
        1
 44
0.0
173
     0
291
     1
 45
0.0
  0
VISUALSTYLE
  5
474
102
{ACAD_REACTORS
330
462
102
}
330
462
100
AcDbVisualStyle
  2
OverhangOff
 70
    21
 71
     2
 72
     2
 73
     0
 90
        0
 40
0.6
 41
30.0
 62
     5
 63
     7
421
 16777215
 74
     1
 91
        4
 64
     7
 65
   257
 75
     1
175
     1
 42
1.0
 92
        9
 66
     7
 43
1.0
 76
     1
 77
     6
 78
     2
 67
     7
 79
     5
170
     0
171
     0
290
     0
174
     0
 93
        1
 44
0.0
173
     0
291
     1
 45
0.0
  0
VISUALSTYLE
  5
46B
102
{ACAD_REACTORS
330
462
102
}
330
462
100
AcDbVisualStyle
  2
Realistic
 70
     8
 71
     2
 72
     3
 73
     0
 90
        2
 40
0.6
 41
30.0
 62
     5
 63
     7
421
 16777215
 74
     0
 91
        0
 64
     7
 65
   257
 75
     1
175
     1
 42
1.0
 92
        8
 66
   257
 43
1.0
 76
     1
 77
     6
 78
     2
 67
     7
 79
     3
170
     0
171
     0
290
     0
174
     0
 93
       13
 44
0.0
173
     0
291
     0
 45
0.0
  0
VISUALSTYLE
  5
47A
102
{ACAD_REACTORS
330
462
102
}
330
462
100
AcDbVisualStyle
  2
Shaded
 70
    27
 71
     2
 72
     2
 73
     1
 90
        2
 40
0.6
 41
30.0
 62
     5
 63
     7
421
 16777215
 74
     0
 91
        4
 64
     7
 65
   257
 75
     1
175
     1
 42
1.0
 92
        8
 66
   257
 43
1.0
 76
     1
 77
     6
 78
     2
 67
     8
425
  7895160
 79
     3
170
     0
171
     0
290
     0
174
     0
 93
        5
 44
0.0
173
     0
291
     0
 45
0.0
  0
VISUALSTYLE
  5
479
102
{ACAD_REACTORS
330
462
102
}
330
462
100
AcDbVisualStyle
  2
Shaded with edges
 70
    26
 71
     2
 72
     2
 73
     1
 90
        2
 40
0.6
 41
30.0
 62
     5
 63
     7
421
 16777215
 74
     1
 91
       10
 64
     7
 65
   257
 75
     2
175
     1
 42
1.0
 92
        8
 66
   257
 43
1.0
 76
     1
 77
     6
 78
     2
 67
     7
 79
     3
170
     0
171
     0
290
     0
174
     0
 93
        5
 44
0.0
173
     0
291
     0
 45
0.0
  0
VISUALSTYLE
  5
476
102
{ACAD_REACTORS
330
462
102
}
330
462
100
AcDbVisualStyle
  2
Shades of Gray
 70
    23
 71
     2
 72
     2
 73
     3
 90
        0
 40
0.6
 41
30.0
 62
     5
 63
     7
421
 16777215
 74
     2
 91
        2
 64
     7
 65
     7
 75
     1
175
     1
 42
40.0
 92
        8
 66
     7
 43
1.0
 76
     1
 77
     6
 78
     2
 67
     7
 79
     3
170
     0
171
     0
290
     0
174
     0
 93
        1
 44
0.0
173
     0
291
     0
 45
0.0
  0
VISUALSTYLE
  5
477
102
{ACAD_REACTORS
330
462
102
}
330
462
100
AcDbVisualStyle
  2
Sketchy
 70
    24
 71
     1
 72
     2
 73
     2
 90
        0
 40
0.6
 41
30.0
 62
     5
 63
     7
421
 16777215
 74
     2
 91
        2
 64
     7
 65
     7
 75
     1
175
     1
 42
40.0
 92
       11
 66
     7
 43
1.0
 76
     1
 77
     6
 78
     2
 67
     7
 79
     6
170
     0
171
     0
290
     0
174
     0
 93
        1
 44
0.0
173
     0
291
     0
 45
0.0
  0
VISUALSTYLE
  5
46F
102
{ACAD_REACTORS
330
462
102
}
330
462
100
AcDbVisualStyle
  2
Thicken
 70
    13
 71
     2
 72
     2
 73
     0
 90
        0
 40
0.6
 41
30.0
 62
     5
 63
     7
421
 16777215
 74
     1
 91
        4
 64
     7
 65
   257
 75
     1
175
     1
 42
1.0
 92
       12
 66
     7
 43
1.0
 76
     1
 77
     6
 78
     2
 67
     7
 79
     5
170
     0
171
     0
290
     0
174
     0
 93
        1
 44
0.0
173
     0
291
     1
 45
0.0
  0
VISUALSTYLE
  5
468
102
{ACAD_REACTORS
330
462
102
}
330
462
100
AcDbVisualStyle
  2
Wireframe
 70
     5
 71
     0
 72
     2
 73
     0
 90
        0
 40
0.6
 41
30.0
 62
     5
 63
     7
421
 16777215
 74
     1
 91
        4
 64
     7
 65
   257
 75
     1
175
     1
 42
1.0
 92
        0
 66
   257
 43
1.0
 76
     1
 77
     6
 78
     2
 67
     7
 79
     3
170
     0
171
     0
290
     0
174
     0
 93
        1
 44
0.0
173
     0
291
     0
 45
0.0
  0
VISUALSTYLE
  5
478
102
{ACAD_REACTORS
330
462
102
}
330
462
100
AcDbVisualStyle
  2
X-Ray
 70
    25
 71
     2
 72
     2
 73
     1
 90
        1
 40
0.5
 41
30.0
 62
     5
 63
     7
421
 16777215
 74
     1
 91
        0
 64
     7
 65
   257
 75
     1
175
     1
 42
1.0
 92
        8
 66
     7
 43
1.0
 76
     1
 77
     6
 78
     2
 67
     7
 79
     3
170
     0
171
     0
290
     0
174
     0
 93
       13
 44
0.0
173
     0
291
     0
 45
0.0
  0
DICTIONARYVAR
  5
4A7
102
{ACAD_REACTORS
330
4A6
102
}
330
4A6
100
DictionaryVariables
280
     0
  1
1:1
  0
DICTIONARYVAR
  5
4B6
102
{ACAD_REACTORS
330
4A6
102
}
330
4A6
100
DictionaryVariables
280
     0
  1
Standard
  0
DICTIONARYVAR
  5
4AB
102
{ACAD_REACTORS
330
4A6
102
}
330
4A6
100
DictionaryVariables
280
     0
  1
Standard
  0
DICTIONARYVAR
  5
4AD
102
{ACAD_REACTORS
330
4A6
102
}
330
4A6
100
DictionaryVariables
280
     0
  1
0
  0
DICTIONARYVAR
  5
4B7
102
{ACAD_REACTORS
330
4A6
102
}
330
4A6
100
DictionaryVariables
280
     0
  1
0
  0
DICTIONARY
  5
4B3
330
460
100
AcDbDictionary
280
     1
281
     1
  3
ACAD_ROUNDTRIP_2008_TABLESTYLE_CELLSTYLEMAP
360
4B4
  0
CELLSTYLEMAP
  5
4B4
102
{ACAD_REACTORS
330
4B3
102
}
330
4B3
100
AcDbCellStyleMap
 90
        3
300
CELLSTYLE
  1
TABLEFORMAT_BEGIN
 90
        5
170
     1
 91
        0
 92
        0
 62
   257
 93
        1
300
CONTENTFORMAT
  1
CONTENTFORMAT_BEGIN
 90
        0
 91
        0
 92
        4
 93
        0
300

 40
0.0
140
1.0
 94
        5
 62
     0
340
11
144
6.0
309
CONTENTFORMAT_END
171
     1
301
MARGIN
  1
CELLMARGIN_BEGIN
 40
1.5
 40
1.5
 40
1.5
 40
1.5
 40
1.5
 40
1.5
309
CELLMARGIN_END
 94
        6
 95
        1
302
GRIDFORMAT
  1
GRIDFORMAT_BEGIN
 90
        0
 91
        1
 62
     0
 92
       -2
340
14
 93
        0
 40
0.045
309
GRIDFORMAT_END
 95
        2
302
GRIDFORMAT
  1
GRIDFORMAT_BEGIN
 90
        0
 91
        1
 62
     0
 92
       -2
340
14
 93
        0
 40
0.045
309
GRIDFORMAT_END
 95
        4
302
GRIDFORMAT
  1
GRIDFORMAT_BEGIN
 90
        0
 91
        1
 62
     0
 92
       -2
340
14
 93
        0
 40
0.045
309
GRIDFORMAT_END
 95
        8
302
GRIDFORMAT
  1
GRIDFORMAT_BEGIN
 90
        0
 91
        1
 62
     0
 92
       -2
340
14
 93
        0
 40
0.045
309
GRIDFORMAT_END
 95
       16
302
GRIDFORMAT
  1
GRIDFORMAT_BEGIN
 90
        0
 91
        1
 62
     0
 92
       -2
340
14
 93
        0
 40
0.045
309
GRIDFORMAT_END
 95
       32
302
GRIDFORMAT
  1
GRIDFORMAT_BEGIN
 90
        0
 91
        1
 62
     0
 92
       -2
340
14
 93
        0
 40
0.045
309
GRIDFORMAT_END
309
TABLEFORMAT_END
  1
CELLSTYLE_BEGIN
 90
        1
 91
        1
300
_TITLE
309
CELLSTYLE_END
300
CELLSTYLE
  1
TABLEFORMAT_BEGIN
 90
        5
170
     1
 91
        0
 92
        0
 62
   257
 93
        1
300
CONTENTFORMAT
  1
CONTENTFORMAT_BEGIN
 90
        0
 91
        0
 92
        4
 93
        0
300

 40
0.0
140
1.0
 94
        5
 62
     0
340
11
144
4.5
309
CONTENTFORMAT_END
171
     1
301
MARGIN
  1
CELLMARGIN_BEGIN
 40
1.5
 40
1.5
 40
1.5
 40
1.5
 40
1.5
 40
1.5
309
CELLMARGIN_END
 94
        6
 95
        1
302
GRIDFORMAT
  1
GRIDFORMAT_BEGIN
 90
        0
 91
        1
 62
     0
 92
       -2
340
14
 93
        0
 40
0.045
309
GRIDFORMAT_END
 95
        2
302
GRIDFORMAT
  1
GRIDFORMAT_BEGIN
 90
        0
 91
        1
 62
     0
 92
       -2
340
14
 93
        0
 40
0.045
309
GRIDFORMAT_END
 95
        4
302
GRIDFORMAT
  1
GRIDFORMAT_BEGIN
 90
        0
 91
        1
 62
     0
 92
       -2
340
14
 93
        0
 40
0.045
309
GRIDFORMAT_END
 95
        8
302
GRIDFORMAT
  1
GRIDFORMAT_BEGIN
 90
        0
 91
        1
 62
     0
 92
       -2
340
14
 93
        0
 40
0.045
309
GRIDFORMAT_END
 95
       16
302
GRIDFORMAT
  1
GRIDFORMAT_BEGIN
 90
        0
 91
        1
 62
     0
 92
       -2
340
14
 93
        0
 40
0.045
309
GRIDFORMAT_END
 95
       32
302
GRIDFORMAT
  1
GRIDFORMAT_BEGIN
 90
        0
 91
        1
 62
     0
 92
       -2
340
14
 93
        0
 40
0.045
309
GRIDFORMAT_END
309
TABLEFORMAT_END
  1
CELLSTYLE_BEGIN
 90
        2
 91
        1
300
_HEADER
309
CELLSTYLE_END
300
CELLSTYLE
  1
TABLEFORMAT_BEGIN
 90
        5
170
     1
 91
        0
 92
        0
 62
   257
 93
        1
300
CONTENTFORMAT
  1
CONTENTFORMAT_BEGIN
 90
        0
 91
        0
 92
        4
 93
        0
300

 40
0.0
140
1.0
 94
        2
 62
     0
340
11
144
4.5
309
CONTENTFORMAT_END
171
     1
301
MARGIN
  1
CELLMARGIN_BEGIN
 40
1.5
 40
1.5
 40
1.5
 40
1.5
 40
1.5
 40
1.5
309
CELLMARGIN_END
 94
        6
 95
        1
302
GRIDFORMAT
  1
GRIDFORMAT_BEGIN
 90
        0
 91
        1
 62
     0
 92
       -2
340
14
 93
        0
 40
0.045
309
GRIDFORMAT_END
 95
        2
302
GRIDFORMAT
  1
GRIDFORMAT_BEGIN
 90
        0
 91
        1
 62
     0
 92
       -2
340
14
 93
        0
 40
0.045
309
GRIDFORMAT_END
 95
        4
302
GRIDFORMAT
  1
GRIDFORMAT_BEGIN
 90
        0
 91
        1
 62
     0
 92
       -2
340
14
 93
        0
 40
0.045
309
GRIDFORMAT_END
 95
        8
302
GRIDFORMAT
  1
GRIDFORMAT_BEGIN
 90
        0
 91
        1
 62
     0
 92
       -2
340
14
 93
        0
 40
0.045
309
GRIDFORMAT_END
 95
       16
302
GRIDFORMAT
  1
GRIDFORMAT_BEGIN
 90
        0
 91
        1
 62
     0
 92
       -2
340
14
 93
        0
 40
0.045
309
GRIDFORMAT_END
 95
       32
302
GRIDFORMAT
  1
GRIDFORMAT_BEGIN
 90
        0
 91
        1
 62
     0
 92
       -2
340
14
 93
        0
 40
0.045
309
GRIDFORMAT_END
309
TABLEFORMAT_END
  1
CELLSTYLE_BEGIN
 90
        3
 91
        2
300
_DATA
309
CELLSTYLE_END
  0
ENDSEC
  0
EOF
