  0
SECTION
  2
HEADER
  9
$ACADVER
  1
AC1015
  9
$ACADMAINTVER
 70
     6
  9
$DWGCODEPAGE
  3
ANSI_1252
  9
$INSBASE
 10
0.0
 20
0.0
 30
0.0
  9
$EXTMIN
 10
0.0
 20
0.0
 30
0.0
  9
$EXTMAX
 10
420.0
 20
297.0
 30
0.0
  9
$LIMMIN
 10
0.0
 20
0.0
  9
$LIMMAX
 10
420.0
 20
297.0
  9
$ORTHOMODE
 70
     0
  9
$REGENMODE
 70
     1
  9
$FILLMODE
 70
     1
  9
$QTEXTMODE
 70
     0
  9
$MIRRTEXT
 70
     1
  9
$LTSCALE
 40
23.1
  9
$ATTMODE
 70
     1
  9
$TEXTSIZE
 40
0.2
  9
$TRACEWID
 40
0.05
  9
$TEXTSTYLE
  7
STANDARD
  9
$CLAYER
  8
0
  9
$CELTYPE
  6
BYLAYER
  9
$CECOLOR
 62
   256
  9
$CELTSCALE
 40
1.0
  9
$DISPSILH
 70
     0
  9
$DIMSCALE
 40
1.0
  9
$DIMASZ
 40
2.5
  9
$DIMEXO
 40
2.625
  9
$DIMDLI
 40
15.96
  9
$DIMRND
 40
0.0
  9
$DIMDLE
 40
0.0
  9
$DIMEXE
 40
7.56
  9
$DIMTP
 40
0.01
  9
$DIMTM
 40
0.01
  9
$DIMTXT
 40
3.0
  9
$DIMCEN
 40
3.78
  9
$DIMTSZ
 40
0.0
  9
$DIMTOL
 70
     1
  9
$DIMLIM
 70
     0
  9
$DIMTIH
 70
     1
  9
$DIMTOH
 70
     1
  9
$DIMSE1
 70
     0
  9
$DIMSE2
 70
     0
  9
$DIMTAD
 70
     0
  9
$DIMZIN
 70
     0
  9
$DIMBLK
  1
CLOSED
  9
$DIMASO
 70
     1
  9
$DIMSHO
 70
     1
  9
$DIMPOST
  1

  9
$DIMAPOST
  1

  9
$DIMALT
 70
     0
  9
$DIMALTD
 70
     2
  9
$DIMALTF
 40
25.4
  9
$DIMLFAC
 40
1.0
  9
$DIMTOFL
 70
     0
  9
$DIMTVP
 40
0.0
  9
$DIMTIX
 70
     0
  9
$DIMSOXD
 70
     0
  9
$DIMSAH
 70
     0
  9
$DIMBLK1
  1

  9
$DIMBLK2
  1

  9
$DIMSTYLE
  2
STANDARD
  9
$DIMCLRD
 70
     0
  9
$DIMCLRE
 70
     0
  9
$DIMCLRT
 70
     0
  9
$DIMTFAC
 40
1.0
  9
$DIMGAP
 40
0.09
  9
$DIMJUST
 70
     0
  9
$DIMSD1
 70
     0
  9
$DIMSD2
 70
     0
  9
$DIMTOLJ
 70
     1
  9
$DIMTZIN
 70
     0
  9
$DIMALTZ
 70
     0
  9
$DIMALTTZ
 70
     0
  9
$DIMUPT
 70
     0
  9
$DIMDEC
 70
     4
  9
$DIMTDEC
 70
     4
  9
$DIMALTU
 70
     2
  9
$DIMALTTD
 70
     2
  9
$DIMTXSTY
  7
STANDARD
  9
$DIMAUNIT
 70
     0
  9
$DIMADEC
 70
     0
  9
$DIMALTRND
 40
0.0
  9
$DIMAZIN
 70
     0
  9
$DIMDSEP
 70
    46
  9
$DIMATFIT
 70
     3
  9
$DIMFRAC
 70
     0
  9
$DIMLDRBLK
  1

  9
$DIMLUNIT
 70
     2
  9
$DIMLWD
 70
    -2
  9
$DIMLWE
 70
    -2
  9
$DIMTMOVE
 70
     0
  9
$LUNITS
 70
     2
  9
$LUPREC
 70
     4
  9
$SKETCHINC
 40
0.1
  9
$FILLETRAD
 40
0.5
  9
$AUNITS
 70
     0
  9
$AUPREC
 70
     0
  9
$MENU
  1
.
  9
$ELEVATION
 40
0.0
  9
$PELEVATION
 40
0.0
  9
$THICKNESS
 40
0.0
  9
$LIMCHECK
 70
     0
  9
$CHAMFERA
 40
0.0
  9
$CHAMFERB
 40
0.0
  9
$CHAMFERC
 40
0.0
  9
$CHAMFERD
 40
0.0
  9
$SKPOLY
 70
     0
  9
$TDCREATE
 40
2447893.041666667
  9
$TDUCREATE
 40
0.0
  9
$TDUPDATE
 40
2458444.419289873
  9
$TDUUPDATE
 40
2458444.377623206
  9
$TDINDWG
 40
0.0015413657
  9
$TDUSRTIMER
 40
0.0009018403
  9
$USRTIMER
 70
     1
  9
$ANGBASE
 50
0.0
  9
$ANGDIR
 70
     0
  9
$PDMODE
 70
     3
  9
$PDSIZE
 40
0.3125
  9
$PLINEWID
 40
0.0
  9
$SPLFRAME
 70
     0
  9
$SPLINETYPE
 70
     6
  9
$SPLINESEGS
 70
     8
  9
$HANDSEED
  5
4FB
  9
$SURFTAB1
 70
     6
  9
$SURFTAB2
 70
     6
  9
$SURFTYPE
 70
     6
  9
$SURFU
 70
     6
  9
$SURFV
 70
     6
  9
$UCSBASE
  2

  9
$UCSNAME
  2

  9
$UCSORG
 10
0.0
 20
0.0
 30
0.0
  9
$UCSXDIR
 10
1.0
 20
0.0
 30
0.0
  9
$UCSYDIR
 10
0.0
 20
1.0
 30
0.0
  9
$UCSORTHOREF
  2

  9
$UCSORTHOVIEW
 70
     0
  9
$UCSORGTOP
 10
0.0
 20
0.0
 30
0.0
  9
$UCSORGBOTTOM
 10
0.0
 20
0.0
 30
0.0
  9
$UCSORGLEFT
 10
0.0
 20
0.0
 30
0.0
  9
$UCSORGRIGHT
 10
0.0
 20
0.0
 30
0.0
  9
$UCSORGFRONT
 10
0.0
 20
0.0
 30
0.0
  9
$UCSORGBACK
 10
0.0
 20
0.0
 30
0.0
  9
$PUCSBASE
  2

  9
$PUCSNAME
  2

  9
$PUCSORG
 10
0.0
 20
0.0
 30
0.0
  9
$PUCSXDIR
 10
1.0
 20
0.0
 30
0.0
  9
$PUCSYDIR
 10
0.0
 20
1.0
 30
0.0
  9
$PUCSORTHOREF
  2

  9
$PUCSORTHOVIEW
 70
     0
  9
$PUCSORGTOP
 10
0.0
 20
0.0
 30
0.0
  9
$PUCSORGBOTTOM
 10
0.0
 20
0.0
 30
0.0
  9
$PUCSORGLEFT
 10
0.0
 20
0.0
 30
0.0
  9
$PUCSORGRIGHT
 10
0.0
 20
0.0
 30
0.0
  9
$PUCSORGFRONT
 10
0.0
 20
0.0
 30
0.0
  9
$PUCSORGBACK
 10
0.0
 20
0.0
 30
0.0
  9
$USERI1
 70
     0
  9
$USERI2
 70
     0
  9
$USERI3
 70
     0
  9
$USERI4
 70
     0
  9
$USERI5
 70
     0
  9
$USERR1
 40
0.0
  9
$USERR2
 40
0.0
  9
$USERR3
 40
0.0
  9
$USERR4
 40
0.0
  9
$USERR5
 40
0.0
  9
$WORLDVIEW
 70
     1
  9
$SHADEDGE
 70
     3
  9
$SHADEDIF
 70
    70
  9
$TILEMODE
 70
     1
  9
$MAXACTVP
 70
    64
  9
$PINSBASE
 10
0.0
 20
0.0
 30
0.0
  9
$PLIMCHECK
 70
     0
  9
$PEXTMIN
 10
1.000000000000000E+20
 20
1.000000000000000E+20
 30
1.000000000000000E+20
  9
$PEXTMAX
 10
-1.000000000000000E+20
 20
-1.000000000000000E+20
 30
-1.000000000000000E+20
  9
$PLIMMIN
 10
0.0
 20
0.0
  9
$PLIMMAX
 10
420.0
 20
297.0
  9
$UNITMODE
 70
     0
  9
$VISRETAIN
 70
     1
  9
$PLINEGEN
 70
     0
  9
$PSLTSCALE
 70
     1
  9
$TREEDEPTH
 70
  3020
  9
$CMLSTYLE
  2
Standard
  9
$CMLJUST
 70
     0
  9
$CMLSCALE
 40
1.0
  9
$PROXYGRAPHICS
 70
     1
  9
$MEASUREMENT
 70
     1
  9
$CELWEIGHT
370
    -1
  9
$ENDCAPS
280
     0
  9
$JOINSTYLE
280
     0
  9
$LWDISPLAY
290
     0
  9
$INSUNITS
 70
     4
  9
$HYPERLINKBASE
  1

  9
$STYLESHEET
  1

  9
$XEDIT
290
     1
  9
$CEPSNTYPE
380
     0
  9
$PSTYLEMODE
290
     1
  9
$FINGERPRINTGUID
  2
{51F577E0-BC69-4082-9B94-D7B922B4E34F}
  9
$VERSIONGUID
  2
{FAEB1C32-E019-11D5-929B-00C0DF256EC4}
  9
$EXTNAMES
290
     1
  9
$PSVPSCALE
 40
0.0
  9
$OLESTARTUP
290
     0
  0
ENDSEC
  0
SECTION
  2
CLASSES
  0
CLASS
  1
ACDBDICTIONARYWDFLT
  2
AcDbDictionaryWithDefault
  3
ObjectDBX Classes
 90
        0
280
     0
281
     0
  0
CLASS
  1
ACDBPLACEHOLDER
  2
AcDbPlaceHolder
  3
ObjectDBX Classes
 90
        0
280
     0
281
     0
  0
CLASS
  1
LAYOUT
  2
AcDbLayout
  3
ObjectDBX Classes
 90
        0
280
     0
281
     0
  0
CLASS
  1
TABLESTYLE
  2
AcDbTableStyle
  3
ObjectDBX Classes
 90
     4095
280
     0
281
     0
  0
CLASS
  1
ACAD_TABLE
  2
AcDbTable
  3
ObjectDBX Classes
 90
     1025
280
     0
281
     1
  0
CLASS
  1
SCALE
  2
AcDbScale
  3
ObjectDBX Classes
 90
     1153
280
     0
281
     0
  0
CLASS
  1
TABLEGEOMETRY
  2
AcDbTableGeometry
  3
ObjectDBX Classes
 90
     1152
280
     0
281
     0
  0
CLASS
  1
VISUALSTYLE
  2
AcDbVisualStyle
  3
ObjectDBX Classes
 90
     4095
280
     0
281
     0
  0
CLASS
  1
MATERIAL
  2
AcDbMaterial
  3
ObjectDBX Classes
 90
     1153
280
     0
281
     0
  0
CLASS
  1
SUN
  2
AcDbSun
  3
SCENEOE
 90
     1153
280
     0
281
     0
  0
CLASS
  1
RASTERVARIABLES
  2
AcDbRasterVariables
  3
ISM
 90
        0
280
     0
281
     0
  0
CLASS
  1
MLEADERSTYLE
  2
AcDbMLeaderStyle
  3
ACDB_MLEADERSTYLE_CLASS
 90
     4095
280
     0
281
     0
  0
ENDSEC
  0
SECTION
  2
TABLES
  0
TABLE
  2
VPORT
  5
8
330
0
100
AcDbSymbolTable
 70
     1
  0
VPORT
  5
1F4
330
8
100
AcDbSymbolTableRecord
100
AcDbViewportTableRecord
  2
*ACTIVE
 70
     0
 10
0.0
 20
0.0
 11
1.0
 21
1.0
 12
262.08093385214
 22
175.1832928015564
 13
0.0
 23
0.0
 14
1.0
 24
1.0
 15
0.0
 25
0.0
 16
0.0
 26
0.0
 36
1.0
 17
0.0
 27
0.0
 37
0.0
 40
464.0624999999999
 41
1.929961089494163
 42
50.0
 43
0.0
 44
0.0
 50
0.0
 51
0.0
 71
    16
 72
   100
 73
     1
 74
     1
 75
     0
 76
     0
 77
     0
 78
     0
281
     0
 65
     1
110
0.0
120
0.0
130
0.0
111
1.0
121
0.0
131
0.0
112
0.0
122
1.0
132
0.0
 79
     0
146
0.0
  0
ENDTAB
  0
TABLE
  2
LTYPE
  5
5
330
0
100
AcDbSymbolTable
 70
     6
  0
LTYPE
  5
14
330
5
100
AcDbSymbolTableRecord
100
AcDbLinetypeTableRecord
  2
BYBLOCK
 70
     0
  3

 72
    65
 73
     0
 40
0.0
  0
LTYPE
  5
15
330
5
100
AcDbSymbolTableRecord
100
AcDbLinetypeTableRecord
  2
BYLAYER
 70
     0
  3

 72
    65
 73
     0
 40
0.0
  0
LTYPE
  5
16
330
5
100
AcDbSymbolTableRecord
100
AcDbLinetypeTableRecord
  2
CONTINUOUS
 70
     0
  3
Solid line
 72
    65
 73
     0
 40
0.0
  0
LTYPE
  5
1F5
330
5
100
AcDbSymbolTableRecord
100
AcDbLinetypeTableRecord
  2
CENTER
 70
     0
  3
____ _ ____ _ ____ _ ____ _ ____ _ ____ _ ____
 72
    65
 73
     4
 40
0.6
 49
0.375
 74
     0
 49
-0.075
 74
     0
 49
0.075
 74
     0
 49
-0.075
 74
     0
  0
LTYPE
  5
1F6
330
5
100
AcDbSymbolTableRecord
100
AcDbLinetypeTableRecord
  2
HIDDEN
 70
     0
  3
- - - - - - - - - - - - - - - - - - - -
 72
    65
 73
     2
 40
0.2
 49
0.1
 74
     0
 49
-0.1
 74
     0
  0
LTYPE
  5
1F7
330
5
100
AcDbSymbolTableRecord
100
AcDbLinetypeTableRecord
  2
PHANTOM
 70
     0
  3
_____ _ _ _____ _ _ _____ _ _ _____
 72
    65
 73
     6
 40
0.8
 49
0.45
 74
     0
 49
-0.05
 74
     0
 49
0.1
 74
     0
 49
-0.05
 74
     0
 49
0.1
 74
     0
 49
-0.05
 74
     0
  0
LTYPE
  5
1F8
330
5
100
AcDbSymbolTableRecord
100
AcDbLinetypeTableRecord
  2
DOT
 70
     0
  3
. . . . . . . . . . . . . . . . . . . .
 72
    65
 73
     2
 40
0.2
 49
0.1
 74
     0
 49
-0.1
 74
     0
  0
LTYPE
  5
1F9
330
5
100
AcDbSymbolTableRecord
100
AcDbLinetypeTableRecord
  2
DASHED
 70
     0
  3
- - - - - - - - - - - - - - - - - - - -
 72
    65
 73
     2
 40
0.2
 49
0.1
 74
     0
 49
-0.1
 74
     0
  0
ENDTAB
  0
TABLE
  2
LAYER
  5
2
330
0
100
AcDbSymbolTable
 70
    39
  0
LAYER
  5
10
330
2
100
AcDbSymbolTableRecord
100
AcDbLayerTableRecord
  2
0
 70
     0
 62
     7
  6
CONTINUOUS
370
    -3
390
F
  0
LAYER
  5
1FA
330
2
100
AcDbSymbolTableRecord
100
AcDbLayerTableRecord
  2
DEFAULT_1
 70
     0
 62
     7
  6
CENTER
370
    -3
390
F
  0
LAYER
  5
1FB
330
2
100
AcDbSymbolTableRecord
100
AcDbLayerTableRecord
  2
DEFAULT_2
 70
     0
 62
     8
  6
HIDDEN
370
    -3
390
F
  0
LAYER
  5
1FC
330
2
100
AcDbSymbolTableRecord
100
AcDbLayerTableRecord
  2
DEFAULT_3
 70
     0
 62
     7
  6
PHANTOM
370
    -3
390
F
  0
LAYER
  5
1FD
330
2
100
AcDbSymbolTableRecord
100
AcDbLayerTableRecord
  2
01_ALL_DTM_PLN
 70
     0
 62
     7
  6
CONTINUOUS
370
    -3
390
F
  0
LAYER
  5
1FE
330
2
100
AcDbSymbolTableRecord
100
AcDbLayerTableRecord
  2
01__ASM_ALL_DTM_PLN
 70
     0
 62
     7
  6
CONTINUOUS
370
    -3
390
F
  0
LAYER
  5
1FF
330
2
100
AcDbSymbolTableRecord
100
AcDbLayerTableRecord
  2
01__ASM_DEF_DTM_PLN
 70
     0
 62
     7
  6
CONTINUOUS
370
    -3
390
F
  0
LAYER
  5
200
330
2
100
AcDbSymbolTableRecord
100
AcDbLayerTableRecord
  2
01___PRT_ALL_DTM_PLN
 70
     0
 62
     7
  6
CONTINUOUS
370
    -3
390
F
  0
LAYER
  5
201
330
2
100
AcDbSymbolTableRecord
100
AcDbLayerTableRecord
  2
01___PRT_DEF_DTM_PLN
 70
     0
 62
     7
  6
CONTINUOUS
370
    -3
390
F
  0
LAYER
  5
202
330
2
100
AcDbSymbolTableRecord
100
AcDbLayerTableRecord
  2
02_ALL_AXES
 70
     0
 62
     7
  6
CONTINUOUS
370
    -3
390
F
  0
LAYER
  5
203
330
2
100
AcDbSymbolTableRecord
100
AcDbLayerTableRecord
  2
02__ASM_ALL_AXES
 70
     0
 62
     7
  6
CONTINUOUS
370
    -3
390
F
  0
LAYER
  5
204
330
2
100
AcDbSymbolTableRecord
100
AcDbLayerTableRecord
  2
02___PRT_ALL_AXES
 70
     0
 62
     7
  6
CONTINUOUS
370
    -3
390
F
  0
LAYER
  5
205
330
2
100
AcDbSymbolTableRecord
100
AcDbLayerTableRecord
  2
03_ALL_CURVES
 70
     0
 62
     7
  6
CONTINUOUS
370
    -3
390
F
  0
LAYER
  5
206
330
2
100
AcDbSymbolTableRecord
100
AcDbLayerTableRecord
  2
03__ASM_ALL_CURVES
 70
     0
 62
     7
  6
CONTINUOUS
370
    -3
390
F
  0
LAYER
  5
207
330
2
100
AcDbSymbolTableRecord
100
AcDbLayerTableRecord
  2
03___PRT_ALL_CURVES
 70
     0
 62
     7
  6
CONTINUOUS
370
    -3
390
F
  0
LAYER
  5
208
330
2
100
AcDbSymbolTableRecord
100
AcDbLayerTableRecord
  2
04_ALL_DTM_PNT
 70
     0
 62
     7
  6
CONTINUOUS
370
    -3
390
F
  0
LAYER
  5
209
330
2
100
AcDbSymbolTableRecord
100
AcDbLayerTableRecord
  2
04__ASM_ALL_DTM_PNT
 70
     0
 62
     7
  6
CONTINUOUS
370
    -3
390
F
  0
LAYER
  5
20A
330
2
100
AcDbSymbolTableRecord
100
AcDbLayerTableRecord
  2
04___PRT_ALL_DTM_PNT
 70
     0
 62
     7
  6
CONTINUOUS
370
    -3
390
F
  0
LAYER
  5
20B
330
2
100
AcDbSymbolTableRecord
100
AcDbLayerTableRecord
  2
05_ALL_DTM_CSYS
 70
     0
 62
     7
  6
CONTINUOUS
370
    -3
390
F
  0
LAYER
  5
20C
330
2
100
AcDbSymbolTableRecord
100
AcDbLayerTableRecord
  2
05__ASM_ALL_DTM_CSYS
 70
     0
 62
     7
  6
CONTINUOUS
370
    -3
390
F
  0
LAYER
  5
20D
330
2
100
AcDbSymbolTableRecord
100
AcDbLayerTableRecord
  2
05__ASM_DEF_DTM_CSYS
 70
     0
 62
     7
  6
CONTINUOUS
370
    -3
390
F
  0
LAYER
  5
20E
330
2
100
AcDbSymbolTableRecord
100
AcDbLayerTableRecord
  2
05___PRT_ALL_DTM_CSYS
 70
     0
 62
     7
  6
CONTINUOUS
370
    -3
390
F
  0
LAYER
  5
20F
330
2
100
AcDbSymbolTableRecord
100
AcDbLayerTableRecord
  2
05___PRT_DEF_DTM_CSYS
 70
     0
 62
     7
  6
CONTINUOUS
370
    -3
390
F
  0
LAYER
  5
210
330
2
100
AcDbSymbolTableRecord
100
AcDbLayerTableRecord
  2
06_ALL_SURFS
 70
     0
 62
     7
  6
CONTINUOUS
370
    -3
390
F
  0
LAYER
  5
211
330
2
100
AcDbSymbolTableRecord
100
AcDbLayerTableRecord
  2
06__ASM_ALL_SURFS
 70
     0
 62
     7
  6
CONTINUOUS
370
    -3
390
F
  0
LAYER
  5
212
330
2
100
AcDbSymbolTableRecord
100
AcDbLayerTableRecord
  2
06___PRT_ALL_SURFS
 70
     0
 62
     7
  6
CONTINUOUS
370
    -3
390
F
  0
LAYER
  5
213
330
2
100
AcDbSymbolTableRecord
100
AcDbLayerTableRecord
  2
07__ASM_ALL_SKELETONS
 70
     0
 62
     7
  6
CONTINUOUS
370
    -3
390
F
  0
LAYER
  5
214
330
2
100
AcDbSymbolTableRecord
100
AcDbLayerTableRecord
  2
1_ALL_PLANES
 70
     0
 62
     7
  6
CONTINUOUS
370
    -3
390
F
  0
LAYER
  5
215
330
2
100
AcDbSymbolTableRecord
100
AcDbLayerTableRecord
  2
2_ALL_CSYS
 70
     0
 62
     7
  6
CONTINUOUS
370
    -3
390
F
  0
LAYER
  5
216
330
2
100
AcDbSymbolTableRecord
100
AcDbLayerTableRecord
  2
3_ALL_AXES
 70
     0
 62
     7
  6
CONTINUOUS
370
    -3
390
F
  0
LAYER
  5
217
330
2
100
AcDbSymbolTableRecord
100
AcDbLayerTableRecord
  2
4_ALL_POINTS
 70
     0
 62
     7
  6
CONTINUOUS
370
    -3
390
F
  0
LAYER
  5
218
330
2
100
AcDbSymbolTableRecord
100
AcDbLayerTableRecord
  2
5_ALL_CURVES
 70
     0
 62
     7
  6
CONTINUOUS
370
    -3
390
F
  0
LAYER
  5
219
330
2
100
AcDbSymbolTableRecord
100
AcDbLayerTableRecord
  2
5__LED
 70
     0
 62
     7
  6
CONTINUOUS
370
    -3
390
F
  0
LAYER
  5
21A
330
2
100
AcDbSymbolTableRecord
100
AcDbLayerTableRecord
  2
6_ALL_SURFS
 70
     0
 62
     7
  6
CONTINUOUS
370
    -3
390
F
  0
LAYER
  5
21B
330
2
100
AcDbSymbolTableRecord
100
AcDbLayerTableRecord
  2
7_ALL_FEATURES
 70
     0
 62
     7
  6
CONTINUOUS
370
    -3
390
F
  0
LAYER
  5
21C
330
2
100
AcDbSymbolTableRecord
100
AcDbLayerTableRecord
  2
8_ALL_NOTES_BALLOONS_SYMBOLS_GT
 70
     0
 62
     7
  6
CONTINUOUS
370
    -3
390
F
  0
LAYER
  5
21D
330
2
100
AcDbSymbolTableRecord
100
AcDbLayerTableRecord
  2
INTF_MAGENTA
 70
     0
 62
     7
  6
CONTINUOUS
370
    -3
390
F
  0
LAYER
  5
21E
330
2
100
AcDbSymbolTableRecord
100
AcDbLayerTableRecord
  2
INTF_RED
 70
     0
 62
     7
  6
CONTINUOUS
370
    -3
390
F
  0
LAYER
  5
4B6
330
2
100
AcDbSymbolTableRecord
100
AcDbLayerTableRecord
  2
Defpoints
 70
     0
 62
     7
  6
CONTINUOUS
290
     0
370
    -3
390
F
  0
ENDTAB
  0
TABLE
  2
STYLE
  5
3
330
0
100
AcDbSymbolTable
 70
     5
  0
STYLE
  5
11
330
3
100
AcDbSymbolTableRecord
100
AcDbTextStyleTableRecord
  2
STANDARD
 70
     0
 40
0.0
 41
0.85
 50
0.0
 71
     0
 42
0.2
  3
txt
  4

  0
STYLE
  5
21F
330
3
100
AcDbSymbolTableRecord
100
AcDbTextStyleTableRecord
  2
TEXTSTYLE_1
 70
     0
 40
0.0
 41
0.8
 50
0.0
 71
     0
 42
0.2
  3
gdt
  4

  0
STYLE
  5
220
330
3
100
AcDbSymbolTableRecord
100
AcDbTextStyleTableRecord
  2
TEXTSTYLE_2
 70
     0
 40
0.0
 41
0.9
 50
0.0
 71
     0
 42
0.2
  3
txt
  4

  0
STYLE
  5
221
330
3
100
AcDbSymbolTableRecord
100
AcDbTextStyleTableRecord
  2
TEXTSTYLE_3
 70
     0
 40
0.0
 41
0.9
 50
0.0
 71
     0
 42
0.2
  3
txt
  4

  0
STYLE
  5
222
330
3
100
AcDbSymbolTableRecord
100
AcDbTextStyleTableRecord
  2
TEXTSTYLE_4
 70
     0
 40
0.0
 41
0.85
 50
0.0
 71
     0
 42
0.2
  3
txt
  4

  0
ENDTAB
  0
TABLE
  2
VIEW
  5
6
330
0
100
AcDbSymbolTable
 70
     0
  0
ENDTAB
  0
TABLE
  2
UCS
  5
7
330
0
100
AcDbSymbolTable
 70
     0
  0
ENDTAB
  0
TABLE
  2
APPID
  5
9
330
0
100
AcDbSymbolTable
 70
     1
  0
APPID
  5
223
330
9
100
AcDbSymbolTableRecord
100
AcDbRegAppTableRecord
  2
ACAD
 70
     0
  0
ENDTAB
  0
TABLE
  2
DIMSTYLE
  5
A
330
0
100
AcDbSymbolTable
 70
     3
100
AcDbDimStyleTable
  0
DIMSTYLE
105
22C
330
A
100
AcDbSymbolTableRecord
100
AcDbDimStyleTableRecord
  2
STANDARD
 70
     0
 41
2.5
 47
0.01
 48
0.01
 71
     1
 73
     0
 74
     0
 77
     1
 78
     8
140
3.0
178
     0
271
     2
272
     2
284
     8
340
11
341
226
342
226
343
226
344
226
  0
DIMSTYLE
105
22D
330
A
100
AcDbSymbolTableRecord
100
AcDbDimStyleTableRecord
  2
DIMSTYLE_1
 70
     0
 41
2.5
 47
0.3
 48
0.3
 73
     0
 74
     0
 77
     1
 78
     8
140
3.0
144
1.3333333333
178
     0
271
     2
272
     2
284
     8
340
11
341
226
342
226
343
226
344
226
  0
DIMSTYLE
105
22E
330
A
100
AcDbSymbolTableRecord
100
AcDbDimStyleTableRecord
  2
DIMSTYLE_2
 70
     0
 41
2.5
 47
0.3
 48
0.3
 73
     0
 74
     0
 77
     1
 78
     8
140
3.0
144
1.3333333333
178
     0
271
     0
272
     0
284
     8
340
11
341
226
342
226
343
226
344
226
  0
ENDTAB
  0
TABLE
  2
BLOCK_RECORD
  5
1
330
0
100
AcDbSymbolTable
 70
     6
  0
BLOCK_RECORD
  5
224
330
1
100
AcDbSymbolTableRecord
100
AcDbBlockTableRecord
  2
*Model_Space
340
46D
  0
BLOCK_RECORD
  5
225
330
1
100
AcDbSymbolTableRecord
100
AcDbBlockTableRecord
  2
*Paper_Space
340
46E
  0
BLOCK_RECORD
  5
226
330
1
100
AcDbSymbolTableRecord
100
AcDbBlockTableRecord
  2
_CLOSED
340
0
102
{BLKREFS
331
275
331
276
331
27E
331
27F
331
287
331
288
102
}
  0
BLOCK_RECORD
  5
227
330
1
100
AcDbSymbolTableRecord
100
AcDbBlockTableRecord
  2
*D1
340
0
  0
BLOCK_RECORD
  5
228
330
1
100
AcDbSymbolTableRecord
100
AcDbBlockTableRecord
  2
*D2
340
0
  0
BLOCK_RECORD
  5
229
330
1
100
AcDbSymbolTableRecord
100
AcDbBlockTableRecord
  2
*D3
340
0
  0
BLOCK_RECORD
  5
22A
330
1
100
AcDbSymbolTableRecord
100
AcDbBlockTableRecord
  2
LOGO2_BL0
340
0
102
{BLKREFS
331
2B0
102
}
  0
BLOCK_RECORD
  5
22B
330
1
100
AcDbSymbolTableRecord
100
AcDbBlockTableRecord
  2
*T5
340
0
102
{BLKREFS
331
2B1
102
}
  0
ENDTAB
  0
ENDSEC
  0
SECTION
  2
BLOCKS
  0
BLOCK
  5
20
330
224
100
AcDbEntity
  8
0
100
AcDbBlockBegin
  2
*Model_Space
 70
     0
 10
0.0
 20
0.0
 30
0.0
  3
*Model_Space
  1
*Model_Space
  0
ENDBLK
  5
21
330
224
100
AcDbEntity
  8
0
100
AcDbBlockEnd
  0
BLOCK
  5
1C
330
225
100
AcDbEntity
 67
     1
  8
0
100
AcDbBlockBegin
  2
*Paper_Space
 70
     0
 10
0.0
 20
0.0
 30
0.0
  3
*Paper_Space
  1
*Paper_Space
  0
ENDBLK
  5
1D
330
225
100
AcDbEntity
 67
     1
  8
0
100
AcDbBlockEnd
  0
BLOCK
  5
26B
330
226
100
AcDbEntity
  8
0
100
AcDbBlockBegin
  2
_CLOSED
 70
     0
 10
0.0
 20
0.0
 30
0.0
  3
_CLOSED
  1
_CLOSED
  0
LINE
  5
26C
330
226
100
AcDbEntity
  8
0
  6
ByBlock
 62
     0
100
AcDbLine
 10
0.0
 20
0.0
 30
0.0
 11
-1.0
 21
0.2
 31
0.0
  0
LINE
  5
26D
330
226
100
AcDbEntity
  8
0
  6
ByBlock
 62
     0
100
AcDbLine
 10
-1.0
 20
0.2
 30
0.0
 11
-1.0
 21
-0.2
 31
0.0
  0
LINE
  5
26E
330
226
100
AcDbEntity
  8
0
  6
ByBlock
 62
     0
100
AcDbLine
 10
-1.0
 20
-0.2
 30
0.0
 11
0.0
 21
0.0
 31
0.0
  0
LINE
  5
26F
330
226
100
AcDbEntity
  8
0
  6
ByBlock
 62
     0
100
AcDbLine
 10
-1.0
 20
0.0
 30
0.0
 11
0.0
 21
0.0
 31
0.0
  0
ENDBLK
  5
270
330
226
100
AcDbEntity
  8
0
  6
ByBlock
 62
     0
100
AcDbBlockEnd
  0
BLOCK
  5
271
330
227
100
AcDbEntity
  8
0
100
AcDbBlockBegin
  2
*D1
 70
     1
 10
0.0
 20
0.0
 30
0.0
  3
*D1
  1
*D1
  0
LINE
  5
272
330
227
100
AcDbEntity
  8
0
  6
Continuous
 62
     0
370
    -2
100
AcDbLine
 10
31.4382102273
 20
30.4755156301
 30
0.0
 11
31.4382102273
 21
16.7276704545
 31
0.0
  0
LINE
  5
273
330
227
100
AcDbEntity
  8
0
  6
Continuous
 62
     0
370
    -2
100
AcDbLine
 10
121.4382102273
 20
30.4755156301
 30
0.0
 11
121.4382102273
 21
16.7276704545
 31
0.0
  0
LINE
  5
274
330
227
100
AcDbEntity
  8
0
  6
Continuous
 62
     0
370
    -2
100
AcDbLine
 10
33.9382102273
 20
16.9076704545
 30
0.0
 11
118.9382102273
 21
16.9076704545
 31
0.0
  0
INSERT
  5
275
330
227
100
AcDbEntity
  8
0
 62
     0
370
    -2
100
AcDbBlockReference
  2
_CLOSED
 10
31.4382102273
 20
16.9076704545
 30
0.0
 41
2.5
 42
2.5
 43
2.5
 50
180.0
  0
INSERT
  5
276
330
227
100
AcDbEntity
  8
0
 62
     0
370
    -2
100
AcDbBlockReference
  2
_CLOSED
 10
121.4382102273
 20
16.9076704545
 30
0.0
 41
2.5
 42
2.5
 43
2.5
  0
MTEXT
  5
277
330
227
100
AcDbEntity
  8
0
 62
     0
100
AcDbMText
 10
76.4382102273
 20
21.9076704545
 30
0.0
 40
3.0
 41
0.0
 71
     2
 72
     1
  1
\A1;120
 73
     1
 44
1.0
  0
POINT
  5
278
330
227
100
AcDbEntity
  8
Defpoints
 62
     0
100
AcDbPoint
 10
31.4382102273
 20
30.5380156301
 30
0.0
  0
POINT
  5
4D6
330
227
100
AcDbEntity
  8
Defpoints
 62
     0
100
AcDbPoint
 10
121.4382102273
 20
30.5380156301
 30
0.0
  0
POINT
  5
4D7
330
227
100
AcDbEntity
  8
Defpoints
 62
     0
100
AcDbPoint
 10
121.4382102273
 20
16.9076704545
 30
0.0
  0
ENDBLK
  5
279
330
227
100
AcDbEntity
  8
0
  6
ByBlock
 62
     0
100
AcDbBlockEnd
  0
BLOCK
  5
27A
330
228
100
AcDbEntity
  8
0
100
AcDbBlockBegin
  2
*D2
 70
     1
 10
0.0
 20
0.0
 30
0.0
  3
*D2
  1
*D2
  0
LINE
  5
27B
330
228
100
AcDbEntity
  8
0
  6
Continuous
 62
     0
370
    -2
100
AcDbLine
 10
126.2637046509
 20
124.6576704545
 30
0.0
 11
140.8084468505
 21
124.6576704545
 31
0.0
  0
LINE
  5
27C
330
228
100
AcDbEntity
  8
0
  6
Continuous
 62
     0
370
    -2
100
AcDbLine
 10
126.2637046509
 20
34.6576704545
 30
0.0
 11
140.8084468505
 21
34.65767045449999
 31
0.0
  0
LINE
  5
27D
330
228
100
AcDbEntity
  8
0
  6
Continuous
 62
     0
370
    -2
100
AcDbLine
 10
140.6284468505
 20
122.1576704545
 30
0.0
 11
140.6284468505
 21
37.15767045449999
 31
0.0
  0
INSERT
  5
27E
330
228
100
AcDbEntity
  8
0
 62
     0
370
    -2
100
AcDbBlockReference
  2
_CLOSED
 10
140.6284468505
 20
124.6576704545
 30
0.0
 41
2.5
 42
2.5
 43
2.5
 50
89.99999999999999
  0
INSERT
  5
27F
330
228
100
AcDbEntity
  8
0
 62
     0
370
    -2
100
AcDbBlockReference
  2
_CLOSED
 10
140.6284468505
 20
34.65767045449999
 30
0.0
 41
2.5
 42
2.5
 43
2.5
 50
270.0
  0
MTEXT
  5
280
330
228
100
AcDbEntity
  8
0
 62
     0
100
AcDbMText
 10
135.6284468505
 20
79.65767045449999
 30
0.0
 40
3.0
 41
0.0
 71
     2
 72
     1
  1
\A1;120
 11
3.157967714489334E-16
 21
1.0
 31
0.0
 73
     1
 44
1.0
  0
POINT
  5
281
330
228
100
AcDbEntity
  8
Defpoints
 62
     0
100
AcDbPoint
 10
126.2012046509
 20
124.6576704545
 30
0.0
  0
POINT
  5
4D4
330
228
100
AcDbEntity
  8
Defpoints
 62
     0
100
AcDbPoint
 10
126.2012046509
 20
34.6576704545
 30
0.0
  0
POINT
  5
4D5
330
228
100
AcDbEntity
  8
Defpoints
 62
     0
100
AcDbPoint
 10
140.6284468505
 20
34.6576704545
 30
0.0
  0
ENDBLK
  5
282
330
228
100
AcDbEntity
  8
0
  6
ByBlock
 62
     0
100
AcDbBlockEnd
  0
BLOCK
  5
283
330
229
100
AcDbEntity
  8
0
100
AcDbBlockBegin
  2
*D3
 70
     1
 10
0.0
 20
0.0
 30
0.0
  3
*D3
  1
*D3
  0
LINE
  5
284
330
229
100
AcDbEntity
  8
0
  6
Continuous
 62
     0
370
    -2
100
AcDbLine
 10
126.2637046509
 20
236.0293666237
 30
0.0
 11
140.424383751
 21
236.0293666237
 31
0.0
  0
LINE
  5
285
330
229
100
AcDbEntity
  8
0
  6
Continuous
 62
     0
370
    -2
100
AcDbLine
 10
127.1841591963
 20
186.1543666237
 30
0.0
 11
140.424383751
 21
186.1543666237
 31
0.0
  0
LINE
  5
286
330
229
100
AcDbEntity
  8
0
  6
Continuous
 62
     0
370
    -2
100
AcDbLine
 10
140.244383751
 20
233.5293666237
 30
0.0
 11
140.244383751
 21
188.6543666237
 31
0.0
  0
INSERT
  5
287
330
229
100
AcDbEntity
  8
0
 62
     0
370
    -2
100
AcDbBlockReference
  2
_CLOSED
 10
140.244383751
 20
236.0293666237
 30
0.0
 41
2.5
 42
2.5
 43
2.5
 50
90.0
  0
INSERT
  5
288
330
229
100
AcDbEntity
  8
0
 62
     0
370
    -2
100
AcDbBlockReference
  2
_CLOSED
 10
140.244383751
 20
186.1543666237
 30
0.0
 41
2.5
 42
2.5
 43
2.5
 50
270.0
  0
MTEXT
  5
289
330
229
100
AcDbEntity
  8
0
 62
     0
100
AcDbMText
 10
135.244383751
 20
211.0918666237
 30
0.0
 40
3.0
 41
0.0
 71
     2
 72
     1
  1
\A1;66
 11
0.0
 21
1.0
 31
0.0
 73
     1
 44
1.0
  0
POINT
  5
28A
330
229
100
AcDbEntity
  8
Defpoints
 62
     0
100
AcDbPoint
 10
126.2012046509
 20
236.0293666237
 30
0.0
  0
POINT
  5
4D2
330
229
100
AcDbEntity
  8
Defpoints
 62
     0
100
AcDbPoint
 10
127.1216591963
 20
186.1543666237
 30
0.0
  0
POINT
  5
4D3
330
229
100
AcDbEntity
  8
Defpoints
 62
     0
100
AcDbPoint
 10
140.244383751
 20
186.1543666237
 30
0.0
  0
ENDBLK
  5
28B
330
229
100
AcDbEntity
  8
0
  6
ByBlock
 62
     0
100
AcDbBlockEnd
  0
BLOCK
  5
22F
330
22A
100
AcDbEntity
  8
0
100
AcDbBlockBegin
  2
LOGO2_BL0
 70
     0
 10
333.1473869546
 20
37.5239270671
 30
0.0
  3
LOGO2_BL0
  1
LOGO2_BL0
  0
LINE
  5
230
330
22A
100
AcDbEntity
  8
0
  6
Continuous
 62
     7
100
AcDbLine
 10
324.8903121828
 20
40.7194184059
 30
0.0
 11
323.5859712535
 21
40.7194184059
 31
0.0
  0
LINE
  5
231
330
22A
100
AcDbEntity
  8
0
  6
Continuous
 62
     7
100
AcDbLine
 10
323.5859712535
 20
40.7194184059
 30
0.0
 11
323.5859712535
 21
30.260352346
 31
0.0
  0
LINE
  5
232
330
22A
100
AcDbEntity
  8
0
  6
Continuous
 62
     7
100
AcDbLine
 10
323.5859712535
 20
30.260352346
 30
0.0
 11
328.0670261417
 21
30.260352346
 31
0.0
  0
LINE
  5
233
330
22A
100
AcDbEntity
  8
0
  6
Continuous
 62
     7
100
AcDbLine
 10
328.0670261417
 20
30.260352346
 30
0.0
 11
328.0670261417
 21
31.4532066711
 31
0.0
  0
LINE
  5
234
330
22A
100
AcDbEntity
  8
0
  6
Continuous
 62
     7
100
AcDbLine
 10
328.0670261417
 20
31.4532066711
 30
0.0
 11
324.8903121828
 21
31.4532066711
 31
0.0
  0
LINE
  5
235
330
22A
100
AcDbEntity
  8
0
  6
Continuous
 62
     7
100
AcDbLine
 10
324.8903121828
 20
31.4532066711
 30
0.0
 11
324.8903121828
 21
40.7194184059
 31
0.0
  0
LINE
  5
236
330
22A
100
AcDbEntity
  8
0
  6
Continuous
 62
     7
100
AcDbLine
 10
339.8266383991
 20
40.7194184059
 30
0.0
 11
338.522820881
 21
40.7194184059
 31
0.0
  0
LINE
  5
237
330
22A
100
AcDbEntity
  8
0
  6
Continuous
 62
     7
100
AcDbLine
 10
338.522820881
 20
40.7194184059
 30
0.0
 11
338.522820881
 21
30.260352346
 31
0.0
  0
LINE
  5
238
330
22A
100
AcDbEntity
  8
0
  6
Continuous
 62
     7
100
AcDbLine
 10
338.522820881
 20
30.260352346
 30
0.0
 11
343.0040066221
 21
30.260352346
 31
0.0
  0
LINE
  5
239
330
22A
100
AcDbEntity
  8
0
  6
Continuous
 62
     7
100
AcDbLine
 10
343.0040066221
 20
30.260352346
 30
0.0
 11
343.0040066221
 21
31.4532066711
 31
0.0
  0
LINE
  5
23A
330
22A
100
AcDbEntity
  8
0
  6
Continuous
 62
     7
100
AcDbLine
 10
343.0040066221
 20
31.4532066711
 30
0.0
 11
339.8266383991
 21
31.4532066711
 31
0.0
  0
LINE
  5
23B
330
22A
100
AcDbEntity
  8
0
  6
Continuous
 62
     7
100
AcDbLine
 10
339.8266383991
 20
31.4532066711
 30
0.0
 11
339.8266383991
 21
40.7194184059
 31
0.0
  0
LWPOLYLINE
  5
23C
330
22A
100
AcDbEntity
  8
0
  6
Continuous
 62
     7
100
AcDbPolyline
 90
        2
 70
     0
 43
0.2
 10
321.9403661644
 20
26.9168010391
 10
321.9403661644
 20
25.0597377898
  0
LWPOLYLINE
  5
23D
330
22A
100
AcDbEntity
  8
0
  6
Continuous
 62
     7
100
AcDbPolyline
 90
        2
 70
     0
 43
0.2
 10
321.9403661644
 20
25.0597377898
 10
322.7360821748
 20
25.0597377898
  0
LWPOLYLINE
  5
23E
330
22A
100
AcDbEntity
  8
0
  6
Continuous
 62
     7
100
AcDbPolyline
 90
        2
 70
     0
 43
0.2
 10
322.7360821748
 20
25.0597377898
 10
322.7360821748
 20
25.2717193614
  0
LWPOLYLINE
  5
23F
330
22A
100
AcDbEntity
  8
0
  6
Continuous
 62
     7
100
AcDbPolyline
 90
        2
 70
     0
 43
0.2
 10
322.7360821748
 20
25.2717193614
 10
322.1719756593
 20
25.2717193614
  0
LWPOLYLINE
  5
240
330
22A
100
AcDbEntity
  8
0
  6
Continuous
 62
     7
100
AcDbPolyline
 90
        2
 70
     0
 43
0.2
 10
322.1719756593
 20
25.2717193614
 10
322.1719756593
 20
26.9168010391
  0
LWPOLYLINE
  5
241
330
22A
100
AcDbEntity
  8
0
  6
Continuous
 62
     7
100
AcDbPolyline
 90
        2
 70
     0
 43
0.2
 10
322.1719756593
 20
26.9168010391
 10
321.9403661644
 20
26.9168010391
  0
SPLINE
  5
242
330
22A
100
AcDbEntity
  8
0
  6
Continuous
 62
     7
100
AcDbSpline
 70
     3
 71
     3
 72
    35
 73
    31
 74
     0
 42
0.000000001
 43
0.0000001
 40
0.0
 40
0.0
 40
0.0
 40
0.0
 40
1.0
 40
1.0
 40
1.0
 40
2.0
 40
2.0
 40
2.0
 40
3.0
 40
3.0
 40
3.0
 40
4.0
 40
4.0
 40
4.0
 40
5.0
 40
5.0
 40
5.0
 40
6.0
 40
6.0
 40
6.0
 40
7.0
 40
7.0
 40
7.0
 40
8.0
 40
8.0
 40
8.0
 40
9.0
 40
9.0
 40
9.0
 40
10.0
 40
10.0
 40
10.0
 40
10.0
 10
324.1343754303
 20
26.2122894457
 30
0.0
 10
324.1343754303
 20
26.2122894457
 30
0.0
 10
324.1343754303
 20
25.5501741665
 30
0.0
 10
324.1343754303
 20
25.5501741665
 30
0.0
 10
324.1343754303
 20
25.2350805712
 30
0.0
 10
324.2822391191
 20
25.0204819432
 30
0.0
 10
324.6223256034
 20
25.0204819432
 30
0.0
 10
324.9618886764
 20
25.0204819432
 30
0.0
 10
325.1100140709
 20
25.2350805712
 30
0.0
 10
325.1100140709
 20
25.5501741665
 30
0.0
 10
325.1100140709
 20
25.5501741665
 30
0.0
 10
325.1100140709
 20
26.2122894457
 30
0.0
 10
325.1100140709
 20
26.2122894457
 30
0.0
 10
325.1100140709
 20
26.2122894457
 30
0.0
 10
324.887956832
 20
26.2122894457
 30
0.0
 10
324.887956832
 20
26.2122894457
 30
0.0
 10
324.887956832
 20
26.2122894457
 30
0.0
 10
324.887956832
 20
25.5752979083
 30
0.0
 10
324.887956832
 20
25.5752979083
 30
0.0
 10
324.887956832
 20
25.3894869011
 30
0.0
 10
324.8412423746
 20
25.2267059906
 30
0.0
 10
324.6223256034
 20
25.2267059906
 30
0.0
 10
324.402885421
 20
25.2267059906
 30
0.0
 10
324.3561709636
 20
25.3894869011
 30
0.0
 10
324.3561709636
 20
25.5752979083
 30
0.0
 10
324.3561709636
 20
25.5752979083
 30
0.0
 10
324.3561709636
 20
26.2122894457
 30
0.0
 10
324.3561709636
 20
26.2122894457
 30
0.0
 10
324.3561709636
 20
26.2122894457
 30
0.0
 10
324.1343754303
 20
26.2122894457
 30
0.0
 10
324.1343754303
 20
26.2122894457
 30
0.0
  0
SPLINE
  5
243
330
22A
100
AcDbEntity
  8
0
  6
Continuous
 62
     7
100
AcDbSpline
 70
     3
 71
     3
 72
    35
 73
    31
 74
     0
 42
0.000000001
 43
0.0000001
 40
0.0
 40
0.0
 40
0.0
 40
0.0
 40
1.0
 40
1.0
 40
1.0
 40
2.0
 40
2.0
 40
2.0
 40
3.0
 40
3.0
 40
3.0
 40
4.0
 40
4.0
 40
4.0
 40
5.0
 40
5.0
 40
5.0
 40
6.0
 40
6.0
 40
6.0
 40
7.0
 40
7.0
 40
7.0
 40
8.0
 40
8.0
 40
8.0
 40
9.0
 40
9.0
 40
9.0
 40
10.0
 40
10.0
 40
10.0
 40
10.0
 10
327.5331466281
 20
26.1709399539
 30
0.0
 10
327.4446901205
 20
26.2222342601
 30
0.0
 10
327.3312407238
 20
26.2473580019
 30
0.0
 10
327.2276052888
 20
26.2473580019
 30
0.0
 10
326.8727324356
 20
26.2473580019
 30
0.0
 10
326.5972872454
 20
25.9835587129
 30
0.0
 10
326.5972872454
 20
25.6260688032
 30
0.0
 10
326.5972872454
 20
25.2811407645
 30
0.0
 10
326.8757420505
 20
25.0210053545
 30
0.0
 10
327.2153051235
 20
25.0210053545
 30
0.0
 10
327.3312407238
 20
25.0210053545
 30
0.0
 10
327.4319973967
 20
25.0429886286
 30
0.0
 10
327.5331466281
 20
25.0968999912
 30
0.0
 10
327.5331466281
 20
25.0968999912
 30
0.0
 10
327.5331466281
 20
25.3795420867
 30
0.0
 10
327.5331466281
 20
25.3795420867
 30
0.0
 10
327.4492699692
 20
25.2863748774
 30
0.0
 10
327.345765387
 20
25.2272294019
 30
0.0
 10
327.2176604743
 20
25.2272294019
 30
0.0
 10
326.9839573343
 20
25.2272294019
 30
0.0
 10
326.8186902202
 20
25.3994317156
 30
0.0
 10
326.8186902202
 20
25.6360136177
 30
0.0
 10
326.8186902202
 20
25.8479951893
 30
0.0
 10
326.9864435379
 20
26.040087132
 30
0.0
 10
327.2032666639
 20
26.040087132
 30
0.0
 10
327.3360822782
 20
26.040087132
 30
0.0
 10
327.4446901205
 20
25.9861757693
 30
0.0
 10
327.5331466281
 20
25.8851573907
 30
0.0
 10
327.5331466281
 20
25.8851573907
 30
0.0
 10
327.5331466281
 20
26.1709399539
 30
0.0
 10
327.5331466281
 20
26.1709399539
 30
0.0
  0
SPLINE
  5
244
330
22A
100
AcDbEntity
  8
0
  6
Continuous
 62
     7
100
AcDbSpline
 70
     3
 71
     3
 72
    32
 73
    28
 74
     0
 42
0.000000001
 43
0.0000001
 40
0.0
 40
0.0
 40
0.0
 40
0.0
 40
1.0
 40
1.0
 40
1.0
 40
2.0
 40
2.0
 40
2.0
 40
3.0
 40
3.0
 40
3.0
 40
4.0
 40
4.0
 40
4.0
 40
5.0
 40
5.0
 40
5.0
 40
6.0
 40
6.0
 40
6.0
 40
7.0
 40
7.0
 40
7.0
 40
8.0
 40
8.0
 40
8.0
 40
9.0
 40
9.0
 40
9.0
 40
9.0
 10
330.0650178804
 20
25.5993748276
 30
0.0
 10
330.0650178804
 20
25.5993748276
 30
0.0
 10
330.0650178804
 20
25.6333965613
 30
0.0
 10
330.0650178804
 20
25.6333965613
 30
0.0
 10
330.0650178804
 20
25.9757075435
 30
0.0
 10
329.8921613025
 20
26.2473580019
 30
0.0
 10
329.5255116954
 20
26.2473580019
 30
0.0
 10
329.153889681
 20
26.2473580019
 30
0.0
 10
328.9641530891
 20
25.9809416564
 30
0.0
 10
328.9641530891
 20
25.6260688032
 30
0.0
 10
328.9641530891
 20
25.2863748774
 30
0.0
 10
329.1782283059
 20
25.0204819432
 30
0.0
 10
329.5303532498
 20
25.0204819432
 30
0.0
 10
329.754373281
 20
25.0204819432
 30
0.0
 10
329.9565408909
 20
25.1361558378
 30
0.0
 10
330.0650178804
 20
25.3355755385
 30
0.0
 10
330.0650178804
 20
25.3355755385
 30
0.0
 10
329.8773749337
 20
25.4423514412
 30
0.0
 10
329.8773749337
 20
25.4423514412
 30
0.0
 10
329.7938908332
 20
25.3036474499
 30
0.0
 10
329.7026864163
 20
25.2178079987
 30
0.0
 10
329.5331011591
 20
25.2178079987
 30
0.0
 10
329.3211195875
 20
25.2178079987
 30
0.0
 10
329.1881731204
 20
25.4025721833
 30
0.0
 10
329.1858177696
 20
25.5993748276
 30
0.0
 10
329.1858177696
 20
25.5993748276
 30
0.0
 10
330.0650178804
 20
25.5993748276
 30
0.0
 10
330.0650178804
 20
25.5993748276
 30
0.0
  0
SPLINE
  5
245
330
22A
100
AcDbEntity
  8
0
  6
Continuous
 62
     7
100
AcDbSpline
 70
     3
 71
     3
 72
    14
 73
    10
 74
     0
 42
0.000000001
 43
0.0000001
 40
0.0
 40
0.0
 40
0.0
 40
0.0
 40
1.0
 40
1.0
 40
1.0
 40
2.0
 40
2.0
 40
2.0
 40
3.0
 40
3.0
 40
3.0
 40
3.0
 10
329.1978562292
 20
25.7668664397
 30
0.0
 10
329.2254661746
 20
25.9317409954
 30
0.0
 10
329.3533093817
 20
26.054742648
 30
0.0
 10
329.5255116954
 20
26.054742648
 30
0.0
 10
329.7026864163
 20
26.054742648
 30
0.0
 10
329.816135813
 20
25.9390687534
 30
0.0
 10
329.8433531999
 20
25.7668664397
 30
0.0
 10
329.8433531999
 20
25.7668664397
 30
0.0
 10
329.1978562292
 20
25.7668664397
 30
0.0
 10
329.1978562292
 20
25.7668664397
 30
0.0
  0
SPLINE
  5
246
330
22A
100
AcDbEntity
  8
0
  6
Continuous
 62
     7
100
AcDbSpline
 70
     3
 71
     3
 72
    20
 73
    16
 74
     0
 42
0.000000001
 43
0.0000001
 40
0.0
 40
0.0
 40
0.0
 40
0.0
 40
1.0
 40
1.0
 40
1.0
 40
2.0
 40
2.0
 40
2.0
 40
3.0
 40
3.0
 40
3.0
 40
4.0
 40
4.0
 40
4.0
 40
5.0
 40
5.0
 40
5.0
 40
5.0
 10
332.0890493306
 20
25.9762309548
 30
0.0
 10
332.0890493306
 20
25.9762309548
 30
0.0
 10
332.5001888972
 20
25.4737561185
 30
0.0
 10
332.5001888972
 20
25.4737561185
 30
0.0
 10
332.3841224441
 20
25.3580822239
 30
0.0
 10
332.2463344226
 20
25.2277528132
 30
0.0
 10
332.0743938145
 20
25.2277528132
 30
0.0
 10
331.8969573879
 20
25.2277528132
 30
0.0
 10
331.7294657758
 20
25.3921039576
 30
0.0
 10
331.7294657758
 20
25.5690169729
 30
0.0
 10
331.7294657758
 20
25.7469768107
 30
0.0
 10
331.9392228494
 20
25.8731189311
 30
0.0
 10
332.0668043508
 20
25.9610520275
 30
0.0
 10
332.0668043508
 20
25.9610520275
 30
0.0
 10
332.0890493306
 20
25.9762309548
 30
0.0
 10
332.0890493306
 20
25.9762309548
 30
0.0
  0
SPLINE
  5
247
330
22A
100
AcDbEntity
  8
0
  6
Continuous
 62
     7
100
AcDbSpline
 70
     3
 71
     3
 72
    23
 73
    19
 74
     0
 42
0.000000001
 43
0.0000001
 40
0.0
 40
0.0
 40
0.0
 40
0.0
 40
1.0
 40
1.0
 40
1.0
 40
2.0
 40
2.0
 40
2.0
 40
3.0
 40
3.0
 40
3.0
 40
4.0
 40
4.0
 40
4.0
 40
5.0
 40
5.0
 40
5.0
 40
6.0
 40
6.0
 40
6.0
 40
6.0
 10
332.1383808444
 20
26.2672476309
 30
0.0
 10
332.1383808444
 20
26.2672476309
 30
0.0
 10
332.0767491653
 20
26.3457593241
 30
0.0
 10
332.0767491653
 20
26.3457593241
 30
0.0
 10
332.0228378026
 20
26.4143262028
 30
0.0
 10
331.9660476779
 20
26.4834164928
 30
0.0
 10
331.9660476779
 20
26.5771071133
 30
0.0
 10
331.9660476779
 20
26.6959214757
 30
0.0
 10
332.0619627964
 20
26.7733863463
 30
0.0
 10
332.1729259894
 20
26.7733863463
 30
0.0
 10
332.2961893477
 20
26.7733863463
 30
0.0
 10
332.3894874098
 20
26.7022024111
 30
0.0
 10
332.3894874098
 20
26.5718730004
 30
0.0
 10
332.3894874098
 20
26.4368328882
 30
0.0
 10
332.2613824971
 20
26.3604148401
 30
0.0
 10
332.1678227294
 20
26.2866138485
 30
0.0
 10
332.1678227294
 20
26.2866138485
 30
0.0
 10
332.1383808444
 20
26.2672476309
 30
0.0
 10
332.1383808444
 20
26.2672476309
 30
0.0
  0
SPLINE
  5
248
330
22A
100
AcDbEntity
  8
0
  6
Continuous
 62
     7
100
AcDbSpline
 70
     3
 71
     3
 72
    50
 73
    46
 74
     0
 42
0.000000001
 43
0.0000001
 40
0.0
 40
0.0
 40
0.0
 40
0.0
 40
1.0
 40
1.0
 40
1.0
 40
2.0
 40
2.0
 40
2.0
 40
3.0
 40
3.0
 40
3.0
 40
4.0
 40
4.0
 40
4.0
 40
5.0
 40
5.0
 40
5.0
 40
6.0
 40
6.0
 40
6.0
 40
7.0
 40
7.0
 40
7.0
 40
8.0
 40
8.0
 40
8.0
 40
9.0
 40
9.0
 40
9.0
 40
10.0
 40
10.0
 40
10.0
 40
11.0
 40
11.0
 40
11.0
 40
12.0
 40
12.0
 40
12.0
 40
13.0
 40
13.0
 40
13.0
 40
14.0
 40
14.0
 40
14.0
 40
15.0
 40
15.0
 40
15.0
 40
15.0
 10
332.8405370871
 20
25.0602612011
 30
0.0
 10
332.8405370871
 20
25.0602612011
 30
0.0
 10
333.1259270918
 20
25.0602612011
 30
0.0
 10
333.1259270918
 20
25.0602612011
 30
0.0
 10
333.1259270918
 20
25.0602612011
 30
0.0
 10
332.793560924
 20
25.471139062
 30
0.0
 10
332.793560924
 20
25.471139062
 30
0.0
 10
332.793560924
 20
25.471139062
 30
0.0
 10
333.0200671588
 20
25.7370319963
 30
0.0
 10
333.0200671588
 20
25.7370319963
 30
0.0
 10
333.0200671588
 20
25.7370319963
 30
0.0
 10
332.8718109116
 20
25.8898680923
 30
0.0
 10
332.8718109116
 20
25.8898680923
 30
0.0
 10
332.8718109116
 20
25.8898680923
 30
0.0
 10
332.6559037553
 20
25.6386306742
 30
0.0
 10
332.6559037553
 20
25.6386306742
 30
0.0
 10
332.6559037553
 20
25.6386306742
 30
0.0
 10
332.2688411079
 20
26.1065603655
 30
0.0
 10
332.2688411079
 20
26.1065603655
 30
0.0
 10
332.4242942604
 20
26.2206640263
 30
0.0
 10
332.6065722414
 20
26.3604148401
 30
0.0
 10
332.6065722414
 20
26.5697793553
 30
0.0
 10
332.6065722414
 20
26.8136890154
 30
0.0
 10
332.4045354843
 20
26.9571037083
 30
0.0
 10
332.1780292495
 20
26.9571037083
 30
0.0
 10
331.9338578837
 20
26.9571037083
 30
0.0
 10
331.7494862575
 20
26.8063612574
 30
0.0
 10
331.7494862575
 20
26.5498897263
 30
0.0
 10
331.7494862575
 20
26.3923429287
 30
0.0
 10
331.8481492853
 20
26.25468576
 30
0.0
 10
331.953485807
 20
26.1437225669
 30
0.0
 10
331.953485807
 20
26.1437225669
 30
0.0
 10
331.8379427652
 20
26.0599767609
 30
0.0
 10
331.8379427652
 20
26.0599767609
 30
0.0
 10
331.660244633
 20
25.9317409954
 30
0.0
 10
331.5129043554
 20
25.8040286411
 30
0.0
 10
331.5129043554
 20
25.5669233277
 30
0.0
 10
331.5129043554
 20
25.2465956195
 30
0.0
 10
331.7714695316
 20
25.0204819432
 30
0.0
 10
332.0818524253
 20
25.0204819432
 30
0.0
 10
332.3007691965
 20
25.0204819432
 30
0.0
 10
332.4979643992
 20
25.145577241
 30
0.0
 10
332.6382386243
 20
25.3114986192
 30
0.0
 10
332.6382386243
 20
25.3114986192
 30
0.0
 10
332.8405370871
 20
25.0602612011
 30
0.0
 10
332.8405370871
 20
25.0602612011
 30
0.0
  0
LWPOLYLINE
  5
249
330
22A
100
AcDbEntity
  8
0
  6
Continuous
 62
     7
100
AcDbPolyline
 90
        2
 70
     0
 43
0.2
 10
334.7759811768
 20
26.9168010391
 10
334.5446333876
 20
26.9168010391
  0
LWPOLYLINE
  5
24A
330
22A
100
AcDbEntity
  8
0
  6
Continuous
 62
     7
100
AcDbPolyline
 90
        2
 70
     0
 43
0.2
 10
334.5446333876
 20
26.9168010391
 10
334.5446333876
 20
25.0597377898
  0
LWPOLYLINE
  5
24B
330
22A
100
AcDbEntity
  8
0
  6
Continuous
 62
     7
100
AcDbPolyline
 90
        2
 70
     0
 43
0.2
 10
334.5446333876
 20
25.0597377898
 10
335.3399568395
 20
25.0597377898
  0
LWPOLYLINE
  5
24C
330
22A
100
AcDbEntity
  8
0
  6
Continuous
 62
     7
100
AcDbPolyline
 90
        2
 70
     0
 43
0.2
 10
335.3399568395
 20
25.0597377898
 10
335.3399568395
 20
25.2717193614
  0
LWPOLYLINE
  5
24D
330
22A
100
AcDbEntity
  8
0
  6
Continuous
 62
     7
100
AcDbPolyline
 90
        2
 70
     0
 43
0.2
 10
335.3399568395
 20
25.2717193614
 10
334.7759811768
 20
25.2717193614
  0
LWPOLYLINE
  5
24E
330
22A
100
AcDbEntity
  8
0
  6
Continuous
 62
     7
100
AcDbPolyline
 90
        2
 70
     0
 43
0.2
 10
334.7759811768
 20
25.2717193614
 10
334.7759811768
 20
26.9168010391
  0
LWPOLYLINE
  5
24F
330
22A
100
AcDbEntity
  8
0
  6
Continuous
 62
     7
100
AcDbPolyline
 90
        2
 70
     0
 43
0.2
 10
337.019060251
 20
26.2122894457
 10
336.7979189819
 20
26.2122894457
  0
LWPOLYLINE
  5
250
330
22A
100
AcDbEntity
  8
0
  6
Continuous
 62
     7
100
AcDbPolyline
 90
        2
 70
     0
 43
0.2
 10
336.7979189819
 20
26.2122894457
 10
336.7979189819
 20
25.0602612011
  0
LWPOLYLINE
  5
251
330
22A
100
AcDbEntity
  8
0
  6
Continuous
 62
     7
100
AcDbPolyline
 90
        2
 70
     0
 43
0.2
 10
336.7979189819
 20
25.0602612011
 10
337.019060251
 20
25.0602612011
  0
LWPOLYLINE
  5
252
330
22A
100
AcDbEntity
  8
0
  6
Continuous
 62
     7
100
AcDbPolyline
 90
        2
 70
     0
 43
0.2
 10
337.019060251
 20
25.0602612011
 10
337.019060251
 20
26.2122894457
  0
SPLINE
  5
253
330
22A
100
AcDbEntity
  8
0
  6
Continuous
 62
     7
100
AcDbSpline
 70
     3
 71
     3
 72
    17
 73
    13
 74
     0
 42
0.000000001
 43
0.0000001
 40
0.0
 40
0.0
 40
0.0
 40
0.0
 40
1.0
 40
1.0
 40
1.0
 40
2.0
 40
2.0
 40
2.0
 40
3.0
 40
3.0
 40
3.0
 40
4.0
 40
4.0
 40
4.0
 40
4.0
 10
336.9086204693
 20
26.894817765
 30
0.0
 10
336.8246129576
 20
26.894817765
 30
0.0
 10
336.7560460788
 20
26.825727475
 30
0.0
 10
336.7560460788
 20
26.7398880238
 30
0.0
 10
336.7560460788
 20
26.6556188065
 30
0.0
 10
336.8246129576
 20
26.5896689842
 30
0.0
 10
336.9086204693
 20
26.5896689842
 30
0.0
 10
336.9923662753
 20
26.5896689842
 30
0.0
 10
337.0611948597
 20
26.6556188065
 30
0.0
 10
337.0611948597
 20
26.7398880238
 30
0.0
 10
337.0611948597
 20
26.825727475
 30
0.0
 10
336.9923662753
 20
26.894817765
 30
0.0
 10
336.9086204693
 20
26.894817765
 30
0.0
  0
SPLINE
  5
254
330
22A
100
AcDbEntity
  8
0
  6
Continuous
 62
     7
100
AcDbSpline
 70
     3
 71
     3
 72
    17
 73
    13
 74
     0
 42
0.000000001
 43
0.0000001
 40
0.0
 40
0.0
 40
0.0
 40
0.0
 40
1.0
 40
1.0
 40
1.0
 40
2.0
 40
2.0
 40
2.0
 40
3.0
 40
3.0
 40
3.0
 40
4.0
 40
4.0
 40
4.0
 40
4.0
 10
339.1493441926
 20
25.2178079987
 30
0.0
 10
338.915379347
 20
25.2178079987
 30
0.0
 10
338.7850499363
 20
25.4198447558
 30
0.0
 10
338.7850499363
 20
25.6360136177
 30
0.0
 10
338.7850499363
 20
25.8506122457
 30
0.0
 10
338.9208751655
 20
26.0495085351
 30
0.0
 10
339.1493441926
 20
26.0495085351
 30
0.0
 10
339.3888048568
 20
26.0495085351
 30
0.0
 10
339.5243683804
 20
25.8605570602
 30
0.0
 10
339.5243683804
 20
25.6360136177
 30
0.0
 10
339.5243683804
 20
25.4098999414
 30
0.0
 10
339.3911602076
 20
25.2178079987
 30
0.0
 10
339.1493441926
 20
25.2178079987
 30
0.0
  0
SPLINE
  5
255
330
22A
100
AcDbEntity
  8
0
  6
Continuous
 62
     7
100
AcDbSpline
 70
     3
 71
     3
 72
    50
 73
    46
 74
     0
 42
0.000000001
 43
0.0000001
 40
0.0
 40
0.0
 40
0.0
 40
0.0
 40
1.0
 40
1.0
 40
1.0
 40
2.0
 40
2.0
 40
2.0
 40
3.0
 40
3.0
 40
3.0
 40
4.0
 40
4.0
 40
4.0
 40
5.0
 40
5.0
 40
5.0
 40
6.0
 40
6.0
 40
6.0
 40
7.0
 40
7.0
 40
7.0
 40
8.0
 40
8.0
 40
8.0
 40
9.0
 40
9.0
 40
9.0
 40
10.0
 40
10.0
 40
10.0
 40
11.0
 40
11.0
 40
11.0
 40
12.0
 40
12.0
 40
12.0
 40
13.0
 40
13.0
 40
13.0
 40
14.0
 40
14.0
 40
14.0
 40
15.0
 40
15.0
 40
15.0
 40
15.0
 10
339.7334711899
 20
26.2128128569
 30
0.0
 10
339.7334711899
 20
26.2128128569
 30
0.0
 10
339.5118065095
 20
26.2128128569
 30
0.0
 10
339.5118065095
 20
26.2128128569
 30
0.0
 10
339.5118065095
 20
26.2128128569
 30
0.0
 10
339.5118065095
 20
26.0154868014
 30
0.0
 10
339.5118065095
 20
26.0154868014
 30
0.0
 10
339.5118065095
 20
26.0154868014
 30
0.0
 10
339.5070958079
 20
26.0154868014
 30
0.0
 10
339.5070958079
 20
26.0154868014
 30
0.0
 10
339.4157605382
 20
26.158378083
 30
0.0
 10
339.2778416638
 20
26.2468345907
 30
0.0
 10
339.1051159388
 20
26.2468345907
 30
0.0
 10
338.772749771
 20
26.2468345907
 30
0.0
 10
338.5636469615
 20
25.9589583823
 30
0.0
 10
338.5636469615
 20
25.6433413757
 30
0.0
 10
338.5636469615
 20
25.3135922644
 30
0.0
 10
338.7607113114
 20
25.0204819432
 30
0.0
 10
339.1155841646
 20
25.0204819432
 30
0.0
 10
339.2778416638
 20
25.0204819432
 30
0.0
 10
339.4178541833
 20
25.1089384508
 30
0.0
 10
339.5070958079
 20
25.2397912728
 30
0.0
 10
339.5070958079
 20
25.2397912728
 30
0.0
 10
339.5118065095
 20
25.2397912728
 30
0.0
 10
339.5118065095
 20
25.2397912728
 30
0.0
 10
339.5118065095
 20
25.2397912728
 30
0.0
 10
339.5118065095
 20
25.0204819432
 30
0.0
 10
339.5118065095
 20
25.0204819432
 30
0.0
 10
339.5118065095
 20
24.7839000411
 30
0.0
 10
339.4552780904
 20
24.5970422113
 30
0.0
 10
339.1820573981
 20
24.5970422113
 30
0.0
 10
338.9797589354
 20
24.5970422113
 30
0.0
 10
338.8371293594
 20
24.7153331624
 30
0.0
 10
338.8371293594
 20
24.9215572098
 30
0.0
 10
338.8371293594
 20
24.9215572098
 30
0.0
 10
338.615464679
 20
24.9215572098
 30
0.0
 10
338.615464679
 20
24.9215572098
 30
0.0
 10
338.6204370862
 20
24.5970422113
 30
0.0
 10
338.8515231698
 20
24.4002395671
 30
0.0
 10
339.171850878
 20
24.4002395671
 30
0.0
 10
339.6198909404
 20
24.4002395671
 30
0.0
 10
339.7334711899
 20
24.6854987189
 30
0.0
 10
339.7334711899
 20
25.0822444751
 30
0.0
 10
339.7334711899
 20
25.0822444751
 30
0.0
 10
339.7334711899
 20
26.2128128569
 30
0.0
 10
339.7334711899
 20
26.2128128569
 30
0.0
  0
SPLINE
  5
256
330
22A
100
AcDbEntity
  8
0
  6
Continuous
 62
     7
100
AcDbSpline
 70
     3
 71
     3
 72
    44
 73
    40
 74
     0
 42
0.000000001
 43
0.0000001
 40
0.0
 40
0.0
 40
0.0
 40
0.0
 40
1.0
 40
1.0
 40
1.0
 40
2.0
 40
2.0
 40
2.0
 40
3.0
 40
3.0
 40
3.0
 40
4.0
 40
4.0
 40
4.0
 40
5.0
 40
5.0
 40
5.0
 40
6.0
 40
6.0
 40
6.0
 40
7.0
 40
7.0
 40
7.0
 40
8.0
 40
8.0
 40
8.0
 40
9.0
 40
9.0
 40
9.0
 40
10.0
 40
10.0
 40
10.0
 40
11.0
 40
11.0
 40
11.0
 40
12.0
 40
12.0
 40
12.0
 40
13.0
 40
13.0
 40
13.0
 40
13.0
 10
341.3023965253
 20
27.1978729007
 30
0.0
 10
341.3023965253
 20
27.1978729007
 30
0.0
 10
341.3023965253
 20
25.0597377898
 30
0.0
 10
341.3023965253
 20
25.0597377898
 30
0.0
 10
341.3023965253
 20
25.0597377898
 30
0.0
 10
341.5237995001
 20
25.0597377898
 30
0.0
 10
341.5237995001
 20
25.0597377898
 30
0.0
 10
341.5237995001
 20
25.0597377898
 30
0.0
 10
341.5237995001
 20
25.5894300131
 30
0.0
 10
341.5237995001
 20
25.5894300131
 30
0.0
 10
341.5237995001
 20
25.7993179395
 30
0.0
 10
341.5237995001
 20
26.0500319464
 30
0.0
 10
341.8090586519
 20
26.0500319464
 30
0.0
 10
342.0359574452
 20
26.0500319464
 30
0.0
 10
342.0629131266
 20
25.9170854793
 30
0.0
 10
342.0629131266
 20
25.7208062464
 30
0.0
 10
342.0629131266
 20
25.7208062464
 30
0.0
 10
342.0629131266
 20
25.0597377898
 30
0.0
 10
342.0629131266
 20
25.0597377898
 30
0.0
 10
342.0629131266
 20
25.0597377898
 30
0.0
 10
342.2848395126
 20
25.0597377898
 30
0.0
 10
342.2848395126
 20
25.0597377898
 30
0.0
 10
342.2848395126
 20
25.0597377898
 30
0.0
 10
342.2848395126
 20
25.7469768107
 30
0.0
 10
342.2848395126
 20
25.7469768107
 30
0.0
 10
342.2848395126
 20
26.027525261
 30
0.0
 10
342.2008320009
 20
26.2473580019
 30
0.0
 10
341.8757935911
 20
26.2473580019
 30
0.0
 10
341.7360427773
 20
26.2473580019
 30
0.0
 10
341.5978621973
 20
26.1808847684
 30
0.0
 10
341.5285102016
 20
26.0578831157
 30
0.0
 10
341.5285102016
 20
26.0578831157
 30
0.0
 10
341.5237995001
 20
26.0578831157
 30
0.0
 10
341.5237995001
 20
26.0578831157
 30
0.0
 10
341.5237995001
 20
26.0578831157
 30
0.0
 10
341.5237995001
 20
27.1978729007
 30
0.0
 10
341.5237995001
 20
27.1978729007
 30
0.0
 10
341.5237995001
 20
27.1978729007
 30
0.0
 10
341.3023965253
 20
27.1978729007
 30
0.0
 10
341.3023965253
 20
27.1978729007
 30
0.0
  0
LWPOLYLINE
  5
257
330
22A
100
AcDbEntity
  8
0
  6
Continuous
 62
     7
100
AcDbPolyline
 90
        2
 70
     0
 43
0.2
 10
344.1246301895
 20
26.005541987
 10
344.341060757
 20
26.005541987
  0
LWPOLYLINE
  5
258
330
22A
100
AcDbEntity
  8
0
  6
Continuous
 62
     7
100
AcDbPolyline
 90
        2
 70
     0
 43
0.2
 10
344.341060757
 20
26.005541987
 10
344.341060757
 20
26.2122894457
  0
LWPOLYLINE
  5
259
330
22A
100
AcDbEntity
  8
0
  6
Continuous
 62
     7
100
AcDbPolyline
 90
        2
 70
     0
 43
0.2
 10
344.341060757
 20
26.2122894457
 10
344.1246301895
 20
26.2122894457
  0
LWPOLYLINE
  5
25A
330
22A
100
AcDbEntity
  8
0
  6
Continuous
 62
     7
100
AcDbPolyline
 90
        2
 70
     0
 43
0.2
 10
344.1246301895
 20
26.2122894457
 10
344.1246301895
 20
26.65300175
  0
LWPOLYLINE
  5
25B
330
22A
100
AcDbEntity
  8
0
  6
Continuous
 62
     7
100
AcDbPolyline
 90
        2
 70
     0
 43
0.2
 10
344.1246301895
 20
26.65300175
 10
343.9029655091
 20
26.65300175
  0
LWPOLYLINE
  5
25C
330
22A
100
AcDbEntity
  8
0
  6
Continuous
 62
     7
100
AcDbPolyline
 90
        2
 70
     0
 43
0.2
 10
343.9029655091
 20
26.65300175
 10
343.9029655091
 20
26.2122894457
  0
LWPOLYLINE
  5
25D
330
22A
100
AcDbEntity
  8
0
  6
Continuous
 62
     7
100
AcDbPolyline
 90
        2
 70
     0
 43
0.2
 10
343.9029655091
 20
26.2122894457
 10
343.7823192072
 20
26.2122894457
  0
LWPOLYLINE
  5
25E
330
22A
100
AcDbEntity
  8
0
  6
Continuous
 62
     7
100
AcDbPolyline
 90
        2
 70
     0
 43
0.2
 10
343.7823192072
 20
26.2122894457
 10
343.7823192072
 20
26.005541987
  0
LWPOLYLINE
  5
25F
330
22A
100
AcDbEntity
  8
0
  6
Continuous
 62
     7
100
AcDbPolyline
 90
        2
 70
     0
 43
0.2
 10
343.7823192072
 20
26.005541987
 10
343.9029655091
 20
26.005541987
  0
LWPOLYLINE
  5
260
330
22A
100
AcDbEntity
  8
0
  6
Continuous
 62
     7
100
AcDbPolyline
 90
        2
 70
     0
 43
0.2
 10
343.9029655091
 20
26.005541987
 10
343.9029655091
 20
25.0597377898
  0
LWPOLYLINE
  5
261
330
22A
100
AcDbEntity
  8
0
  6
Continuous
 62
     7
100
AcDbPolyline
 90
        2
 70
     0
 43
0.2
 10
343.9029655091
 20
25.0597377898
 10
344.1246301895
 20
25.0597377898
  0
LWPOLYLINE
  5
262
330
22A
100
AcDbEntity
  8
0
  6
Continuous
 62
     7
100
AcDbPolyline
 90
        2
 70
     0
 43
0.2
 10
344.1246301895
 20
25.0597377898
 10
344.1246301895
 20
26.005541987
  0
SPLINE
  5
263
330
22A
100
AcDbEntity
  8
0
  6
Continuous
 62
     7
100
AcDbSpline
 70
     3
 71
     3
 72
    20
 73
    16
 74
     0
 42
0.000000001
 43
0.0000001
 40
0.0
 40
0.0
 40
0.0
 40
0.0
 40
1.0
 40
1.0
 40
1.0
 40
2.0
 40
2.0
 40
2.0
 40
3.0
 40
3.0
 40
3.0
 40
4.0
 40
4.0
 40
4.0
 40
5.0
 40
5.0
 40
5.0
 40
5.0
 10
331.9066404967
 20
35.4206642332
 30
0.0
 10
331.9066404967
 20
35.4206642332
 30
0.0
 10
334.2229971512
 20
32.5911028109
 30
0.0
 10
334.2229971512
 20
32.5911028109
 30
0.0
 10
333.5713500978
 20
31.9389323462
 30
0.0
 10
332.7944768938
 20
31.2030160755
 30
0.0
 10
331.8232872491
 20
31.2030160755
 30
0.0
 10
330.8247493647
 20
31.2030160755
 30
0.0
 10
329.8814313711
 20
32.1325945228
 30
0.0
 10
329.8814313711
 20
33.1317866713
 30
0.0
 10
329.8814313711
 20
34.1309788198
 30
0.0
 10
331.0602844442
 20
34.8375840585
 30
0.0
 10
331.7818069046
 20
35.3374418384
 30
0.0
 10
331.7818069046
 20
35.3374418384
 30
0.0
 10
331.9066404967
 20
35.4206642332
 30
0.0
 10
331.9066404967
 20
35.4206642332
 30
0.0
  0
SPLINE
  5
264
330
22A
100
AcDbEntity
  8
0
  6
Continuous
 62
     7
100
AcDbSpline
 70
     3
 71
     3
 72
    23
 73
    19
 74
     0
 42
0.000000001
 43
0.0000001
 40
0.0
 40
0.0
 40
0.0
 40
0.0
 40
1.0
 40
1.0
 40
1.0
 40
2.0
 40
2.0
 40
2.0
 40
3.0
 40
3.0
 40
3.0
 40
4.0
 40
4.0
 40
4.0
 40
5.0
 40
5.0
 40
5.0
 40
6.0
 40
6.0
 40
6.0
 40
6.0
 10
332.1840484793
 20
37.0584181529
 30
0.0
 10
332.1840484793
 20
37.0584181529
 30
0.0
 10
331.8375502067
 20
37.5017475137
 30
0.0
 10
331.8375502067
 20
37.5017475137
 30
0.0
 10
331.5317471618
 20
37.8898569837
 30
0.0
 10
331.2128588347
 20
38.2783590121
 30
0.0
 10
331.2128588347
 20
38.8053033262
 30
0.0
 10
331.2128588347
 20
39.4714750428
 30
0.0
 10
331.7541969591
 20
39.9151969621
 30
0.0
 10
332.3781032143
 20
39.9151969621
 30
0.0
 10
333.0718848763
 20
39.9151969621
 30
0.0
 10
333.5990908961
 20
39.5129553874
 30
0.0
 10
333.5990908961
 20
38.7779550864
 30
0.0
 10
333.5990908961
 20
38.0146905758
 30
0.0
 10
332.8778301414
 20
37.58457735
 30
0.0
 10
332.3507549745
 20
37.1688579346
 30
0.0
 10
332.3507549745
 20
37.1688579346
 30
0.0
 10
332.1840484793
 20
37.0584181529
 30
0.0
 10
332.1840484793
 20
37.0584181529
 30
0.0
  0
SPLINE
  5
265
330
22A
100
AcDbEntity
  8
0
  6
Continuous
 62
     7
100
AcDbSpline
 70
     3
 71
     3
 72
    50
 73
    46
 74
     0
 42
0.000000001
 43
0.0000001
 40
0.0
 40
0.0
 40
0.0
 40
0.0
 40
1.0
 40
1.0
 40
1.0
 40
2.0
 40
2.0
 40
2.0
 40
3.0
 40
3.0
 40
3.0
 40
4.0
 40
4.0
 40
4.0
 40
5.0
 40
5.0
 40
5.0
 40
6.0
 40
6.0
 40
6.0
 40
7.0
 40
7.0
 40
7.0
 40
8.0
 40
8.0
 40
8.0
 40
9.0
 40
9.0
 40
9.0
 40
10.0
 40
10.0
 40
10.0
 40
11.0
 40
11.0
 40
11.0
 40
12.0
 40
12.0
 40
12.0
 40
13.0
 40
13.0
 40
13.0
 40
14.0
 40
14.0
 40
14.0
 40
15.0
 40
15.0
 40
15.0
 40
15.0
 10
336.1376356422
 20
30.2598289348
 30
0.0
 10
336.1376356422
 20
30.2598289348
 30
0.0
 10
337.7468636468
 20
30.2598289348
 30
0.0
 10
337.7468636468
 20
30.2598289348
 30
0.0
 10
337.7468636468
 20
30.2598289348
 30
0.0
 10
335.8738363531
 20
32.5769707062
 30
0.0
 10
335.8738363531
 20
32.5769707062
 30
0.0
 10
335.8738363531
 20
32.5769707062
 30
0.0
 10
337.1501747786
 20
34.0744504008
 30
0.0
 10
337.1501747786
 20
34.0744504008
 30
0.0
 10
337.1501747786
 20
34.0744504008
 30
0.0
 10
336.3179508309
 20
34.9354619693
 30
0.0
 10
336.3179508309
 20
34.9354619693
 30
0.0
 10
336.3179508309
 20
34.9354619693
 30
0.0
 10
335.0973557076
 20
33.5201578469
 30
0.0
 10
335.0973557076
 20
33.5201578469
 30
0.0
 10
335.0973557076
 20
33.5201578469
 30
0.0
 10
332.9194413388
 20
36.1555336813
 30
0.0
 10
332.9194413388
 20
36.1555336813
 30
0.0
 10
333.7930147782
 20
36.7935720412
 30
0.0
 10
334.8196860194
 20
37.58457735
 30
0.0
 10
334.8196860194
 20
38.7634304231
 30
0.0
 10
334.8196860194
 20
40.1371233482
 30
0.0
 10
333.6817898795
 20
40.9416064976
 30
0.0
 10
332.4064982766
 20
40.9416064976
 30
0.0
 10
331.0330670573
 20
40.9416064976
 30
0.0
 10
329.9921328585
 20
40.0953812979
 30
0.0
 10
329.9921328585
 20
38.6527289358
 30
0.0
 10
329.9921328585
 20
37.7651542444
 30
0.0
 10
330.547472235
 20
36.9882810403
 30
0.0
 10
331.1436376918
 20
36.3638513739
 30
0.0
 10
331.1436376918
 20
36.3638513739
 30
0.0
 10
330.4917289328
 20
35.8922578035
 30
0.0
 10
330.4917289328
 20
35.8922578035
 30
0.0
 10
329.4931910484
 20
35.1709970488
 30
0.0
 10
328.6603128365
 20
34.4497362942
 30
0.0
 10
328.6603128365
 20
33.1181779778
 30
0.0
 10
328.6603128365
 20
31.3145026798
 30
0.0
 10
330.1173590091
 20
30.0379025487
 30
0.0
 10
331.8648984465
 20
30.0379025487
 30
0.0
 10
333.0997565274
 20
30.0379025487
 30
0.0
 10
334.2091267521
 20
30.7460780212
 30
0.0
 10
335.000001208
 20
31.6746096459
 30
0.0
 10
335.000001208
 20
31.6746096459
 30
0.0
 10
336.1376356422
 20
30.2598289348
 30
0.0
 10
336.1376356422
 20
30.2598289348
 30
0.0
  0
LINE
  5
266
330
22A
100
AcDbEntity
  8
0
  6
Continuous
 62
     7
100
AcDbLine
 10
321.9404970172
 20
28.2337038394
 30
0.0
 11
344.3544077449
 21
28.2337038394
 31
0.0
  0
LINE
  5
267
330
22A
100
AcDbEntity
  8
0
  6
Continuous
 62
     7
100
AcDbLine
 10
344.3544077449
 20
28.2337038394
 30
0.0
 11
344.3544077449
 21
50.6476145671
 31
0.0
  0
LINE
  5
268
330
22A
100
AcDbEntity
  8
0
  6
Continuous
 62
     7
100
AcDbLine
 10
344.3544077449
 20
50.6476145671
 30
0.0
 11
321.9404970172
 21
50.6476145671
 31
0.0
  0
LINE
  5
269
330
22A
100
AcDbEntity
  8
0
  6
Continuous
 62
     7
100
AcDbLine
 10
321.9404970172
 20
50.6476145671
 30
0.0
 11
321.9404970172
 21
28.2337038394
 31
0.0
  0
ENDBLK
  5
26A
330
22A
100
AcDbEntity
  8
0
  6
ByBlock
 62
     0
100
AcDbBlockEnd
  0
BLOCK
  5
28C
330
22B
100
AcDbEntity
  8
0
100
AcDbBlockBegin
  2
*T5
 70
     1
 10
0.0
 20
0.0
 30
0.0
  3
*T5
  1
*T5
  0
MTEXT
  5
28D
330
22B
100
AcDbEntity
  8
0
  6
Continuous
 62
     0
100
AcDbMText
 10
30.06
 20
-3.0
 30
0.0
 40
3.0
 41
39.88
 71
     4
 72
     5
  1
2C1_C_002
 73
     1
 44
1.0
  0
MTEXT
  5
28E
330
22B
100
AcDbEntity
  8
0
  6
Continuous
 62
     0
100
AcDbMText
 10
70.06
 20
-0.06
 30
0.0
 40
3.5
 41
19.88
 71
     1
 72
     5
  1
Rev:00
 73
     1
 44
1.0
  0
MTEXT
  5
28F
330
22B
100
AcDbEntity
  8
0
  6
Continuous
 62
     0
100
AcDbMText
 10
30.06
 20
-6.06
 30
0.0
 40
3.5
 41
39.88
 71
     1
 72
     5
  1
Scale:1:1
 73
     1
 44
1.0
  0
MTEXT
  5
290
330
22B
100
AcDbEntity
  8
0
  6
Continuous
 62
     0
100
AcDbMText
 10
70.06
 20
-9.0
 30
0.0
 40
3.5
 41
19.88
 71
     4
 72
     5
  1
A3
 73
     1
 44
1.0
  0
MTEXT
  5
291
330
22B
100
AcDbEntity
  8
0
  6
Continuous
 62
     0
100
AcDbMText
 10
30.06
 20
-17.0
 30
0.0
 40
3.5
 41
59.88
 71
     4
 72
     5
  1
BRIGHT 3.7
 73
     1
 44
1.0
  0
MTEXT
  5
292
330
22B
100
AcDbEntity
  8
0
  6
Continuous
 62
     0
100
AcDbMText
 10
30.06
 20
-24.5
 30
0.0
 40
2.5
 41
59.88
 71
     4
 72
     5
  1
DATE:24/02/2014
 73
     1
 44
1.0
  0
MTEXT
  5
293
330
22B
100
AcDbEntity
  8
0
  6
Continuous
 62
     0
100
AcDbMText
 10
0.06
 20
-27.06
 30
0.0
 40
1.85
 41
89.88
 71
     1
 72
     5
  1
Any integral or partial reproductions are prohibited \Pwithout prior authorisation of L & L Luce & Light s.r.l., \Pin accordance with the law in force. \PAll rights reserved.
 73
     1
 44
1.0
  0
LINE
  5
294
330
22B
100
AcDbEntity
  8
0
  6
Continuous
 62
     0
370
    -2
100
AcDbLine
 10
0.0
 20
0.0
 30
0.0
 11
10.0
 21
0.0
 31
0.0
  0
LINE
  5
295
330
22B
100
AcDbEntity
  8
0
  6
Continuous
 62
     0
370
    -2
100
AcDbLine
 10
10.0
 20
0.0
 30
0.0
 11
20.0
 21
0.0
 31
0.0
  0
LINE
  5
296
330
22B
100
AcDbEntity
  8
0
  6
Continuous
 62
     0
370
    -2
100
AcDbLine
 10
20.0
 20
0.0
 30
0.0
 11
30.0
 21
0.0
 31
0.0
  0
LINE
  5
297
330
22B
100
AcDbEntity
  8
0
  6
Continuous
 62
     0
370
    -2
100
AcDbLine
 10
0.0
 20
0.0
 30
0.0
 11
0.0
 21
-6.0
 31
0.0
  0
LINE
  5
298
330
22B
100
AcDbEntity
  8
0
  6
Continuous
 62
     0
370
    -2
100
AcDbLine
 10
0.0
 20
-6.0
 30
0.0
 11
0.0
 21
-12.0
 31
0.0
  0
LINE
  5
299
330
22B
100
AcDbEntity
  8
0
  6
Continuous
 62
     0
370
    -2
100
AcDbLine
 10
0.0
 20
-12.0
 30
0.0
 11
0.0
 21
-22.0
 31
0.0
  0
LINE
  5
29A
330
22B
100
AcDbEntity
  8
0
  6
Continuous
 62
     0
370
    -2
100
AcDbLine
 10
0.0
 20
-22.0
 30
0.0
 11
0.0
 21
-27.0
 31
0.0
  0
LINE
  5
29B
330
22B
100
AcDbEntity
  8
0
  6
Continuous
 62
     0
370
    -2
100
AcDbLine
 10
30.0
 20
0.0
 30
0.0
 11
70.0
 21
0.0
 31
0.0
  0
LINE
  5
29C
330
22B
100
AcDbEntity
  8
0
  6
Continuous
 62
     0
370
    -2
100
AcDbLine
 10
30.0
 20
0.0
 30
0.0
 11
30.0
 21
-6.0
 31
0.0
  0
LINE
  5
29D
330
22B
100
AcDbEntity
  8
0
  6
Continuous
 62
     0
370
    -2
100
AcDbLine
 10
70.0
 20
0.0
 30
0.0
 11
90.0
 21
0.0
 31
0.0
  0
LINE
  5
4B7
330
22B
100
AcDbEntity
  8
0
  6
Continuous
 62
     0
370
    -2
100
AcDbLine
 10
70.0
 20
0.0
 30
0.0
 11
70.0
 21
-6.0
 31
0.0
  0
LINE
  5
4B8
330
22B
100
AcDbEntity
  8
0
  6
Continuous
 62
     0
370
    -2
100
AcDbLine
 10
90.0
 20
0.0
 30
0.0
 11
90.0
 21
-6.0
 31
0.0
  0
LINE
  5
4B9
330
22B
100
AcDbEntity
  8
0
  6
Continuous
 62
     0
370
    -2
100
AcDbLine
 10
30.0
 20
-6.0
 30
0.0
 11
70.0
 21
-6.0
 31
0.0
  0
LINE
  5
4BA
330
22B
100
AcDbEntity
  8
0
  6
Continuous
 62
     0
370
    -2
100
AcDbLine
 10
30.0
 20
-6.0
 30
0.0
 11
30.0
 21
-12.0
 31
0.0
  0
LINE
  5
4BB
330
22B
100
AcDbEntity
  8
0
  6
Continuous
 62
     0
370
    -2
100
AcDbLine
 10
70.0
 20
-6.0
 30
0.0
 11
90.0
 21
-6.0
 31
0.0
  0
LINE
  5
4BC
330
22B
100
AcDbEntity
  8
0
  6
Continuous
 62
     0
370
    -2
100
AcDbLine
 10
70.0
 20
-6.0
 30
0.0
 11
70.0
 21
-12.0
 31
0.0
  0
LINE
  5
4BD
330
22B
100
AcDbEntity
  8
0
  6
Continuous
 62
     0
370
    -2
100
AcDbLine
 10
90.0
 20
-6.0
 30
0.0
 11
90.0
 21
-12.0
 31
0.0
  0
LINE
  5
4BE
330
22B
100
AcDbEntity
  8
0
  6
Continuous
 62
     0
370
    -2
100
AcDbLine
 10
30.0
 20
-12.0
 30
0.0
 11
70.0
 21
-12.0
 31
0.0
  0
LINE
  5
4BF
330
22B
100
AcDbEntity
  8
0
  6
Continuous
 62
     0
370
    -2
100
AcDbLine
 10
70.0
 20
-12.0
 30
0.0
 11
90.0
 21
-12.0
 31
0.0
  0
LINE
  5
4C0
330
22B
100
AcDbEntity
  8
0
  6
Continuous
 62
     0
370
    -2
100
AcDbLine
 10
30.0
 20
-12.0
 30
0.0
 11
30.0
 21
-22.0
 31
0.0
  0
LINE
  5
4C1
330
22B
100
AcDbEntity
  8
0
  6
Continuous
 62
     0
370
    -2
100
AcDbLine
 10
90.0
 20
-12.0
 30
0.0
 11
90.0
 21
-22.0
 31
0.0
  0
LINE
  5
4C2
330
22B
100
AcDbEntity
  8
0
  6
Continuous
 62
     0
370
    -2
100
AcDbLine
 10
30.0
 20
-22.0
 30
0.0
 11
70.0
 21
-22.0
 31
0.0
  0
LINE
  5
4C3
330
22B
100
AcDbEntity
  8
0
  6
Continuous
 62
     0
370
    -2
100
AcDbLine
 10
70.0
 20
-22.0
 30
0.0
 11
90.0
 21
-22.0
 31
0.0
  0
LINE
  5
4C4
330
22B
100
AcDbEntity
  8
0
  6
Continuous
 62
     0
370
    -2
100
AcDbLine
 10
30.0
 20
-22.0
 30
0.0
 11
30.0
 21
-27.0
 31
0.0
  0
LINE
  5
4C5
330
22B
100
AcDbEntity
  8
0
  6
Continuous
 62
     0
370
    -2
100
AcDbLine
 10
90.0
 20
-22.0
 30
0.0
 11
90.0
 21
-27.0
 31
0.0
  0
LINE
  5
4C6
330
22B
100
AcDbEntity
  8
0
  6
Continuous
 62
     0
370
    -2
100
AcDbLine
 10
0.0
 20
-27.0
 30
0.0
 11
10.0
 21
-27.0
 31
0.0
  0
LINE
  5
4C7
330
22B
100
AcDbEntity
  8
0
  6
Continuous
 62
     0
370
    -2
100
AcDbLine
 10
10.0
 20
-27.0
 30
0.0
 11
20.0
 21
-27.0
 31
0.0
  0
LINE
  5
4C8
330
22B
100
AcDbEntity
  8
0
  6
Continuous
 62
     0
370
    -2
100
AcDbLine
 10
20.0
 20
-27.0
 30
0.0
 11
30.0
 21
-27.0
 31
0.0
  0
LINE
  5
4C9
330
22B
100
AcDbEntity
  8
0
  6
Continuous
 62
     0
370
    -2
100
AcDbLine
 10
30.0
 20
-27.0
 30
0.0
 11
70.0
 21
-27.0
 31
0.0
  0
LINE
  5
4CA
330
22B
100
AcDbEntity
  8
0
  6
Continuous
 62
     0
370
    -2
100
AcDbLine
 10
70.0
 20
-27.0
 30
0.0
 11
90.0
 21
-27.0
 31
0.0
  0
LINE
  5
4CB
330
22B
100
AcDbEntity
  8
0
  6
Continuous
 62
     0
370
    -2
100
AcDbLine
 10
0.0
 20
-27.0
 30
0.0
 11
0.0
 21
-40.0
 31
0.0
  0
LINE
  5
4CC
330
22B
100
AcDbEntity
  8
0
  6
Continuous
 62
     0
370
    -2
100
AcDbLine
 10
90.0
 20
-27.0
 30
0.0
 11
90.0
 21
-40.0
 31
0.0
  0
LINE
  5
4CD
330
22B
100
AcDbEntity
  8
0
  6
Continuous
 62
     0
370
    -2
100
AcDbLine
 10
0.0
 20
-40.0
 30
0.0
 11
10.0
 21
-40.0
 31
0.0
  0
LINE
  5
4CE
330
22B
100
AcDbEntity
  8
0
  6
Continuous
 62
     0
370
    -2
100
AcDbLine
 10
10.0
 20
-40.0
 30
0.0
 11
20.0
 21
-40.0
 31
0.0
  0
LINE
  5
4CF
330
22B
100
AcDbEntity
  8
0
  6
Continuous
 62
     0
370
    -2
100
AcDbLine
 10
20.0
 20
-40.0
 30
0.0
 11
30.0
 21
-40.0
 31
0.0
  0
LINE
  5
4D0
330
22B
100
AcDbEntity
  8
0
  6
Continuous
 62
     0
370
    -2
100
AcDbLine
 10
30.0
 20
-40.0
 30
0.0
 11
70.0
 21
-40.0
 31
0.0
  0
LINE
  5
4D1
330
22B
100
AcDbEntity
  8
0
  6
Continuous
 62
     0
370
    -2
100
AcDbLine
 10
70.0
 20
-40.0
 30
0.0
 11
90.0
 21
-40.0
 31
0.0
  0
ENDBLK
  5
29E
330
22B
100
AcDbEntity
  8
0
100
AcDbBlockEnd
  0
ENDSEC
  0
SECTION
  2
ENTITIES
  0
MTEXT
  5
29F
330
224
100
AcDbEntity
  8
0
  6
Continuous
 62
     2
100
AcDbMText
 10
1.6467220993
 20
53.595027386
 30
0.0
 40
4.0
 41
2.2857142857
 71
     1
 72
     1
  1
1
  7
TEXTSTYLE_2
 73
     1
 44
0.9
  0
MTEXT
  5
2A0
330
224
100
AcDbEntity
  8
0
  6
Continuous
 62
     2
100
AcDbMText
 10
1.6467220993
 20
153.595027386
 30
0.0
 40
4.0
 41
3.1428571429
 71
     1
 72
     1
  1
2
  7
TEXTSTYLE_2
 73
     1
 44
0.9
  0
MTEXT
  5
2A1
330
224
100
AcDbEntity
  8
0
  6
Continuous
 62
     2
100
AcDbMText
 10
1.6467220993
 20
253.595027386
 30
0.0
 40
4.0
 41
2.8571428571
 71
     1
 72
     1
  1
3
  7
TEXTSTYLE_2
 73
     1
 44
0.9
  0
MTEXT
  5
2A2
330
224
100
AcDbEntity
  8
0
  6
Continuous
 62
     2
100
AcDbMText
 10
414.6467220993
 20
60.6268709614
 30
0.0
 40
4.0
 41
2.2857142857
 71
     1
 72
     1
  1
1
  7
TEXTSTYLE_2
 73
     1
 44
0.9
  0
MTEXT
  5
2A3
330
224
100
AcDbEntity
  8
0
  6
Continuous
 62
     2
100
AcDbMText
 10
414.6467220993
 20
160.6268709614
 30
0.0
 40
4.0
 41
3.1428571429
 71
     1
 72
     1
  1
2
  7
TEXTSTYLE_2
 73
     1
 44
0.9
  0
MTEXT
  5
2A4
330
224
100
AcDbEntity
  8
0
  6
Continuous
 62
     2
100
AcDbMText
 10
414.6467220993
 20
260.6268709614
 30
0.0
 40
4.0
 41
2.8571428571
 71
     1
 72
     1
  1
3
  7
TEXTSTYLE_2
 73
     1
 44
0.9
  0
MTEXT
  5
2A5
330
224
100
AcDbEntity
  8
0
  6
Continuous
 62
     2
100
AcDbMText
 10
362.154890719
 20
5.35876025
 30
0.0
 40
4.0
 41
3.6
 71
     1
 72
     1
  1
A
  7
TEXTSTYLE_3
 73
     1
 44
0.9
  0
MTEXT
  5
2A6
330
224
100
AcDbEntity
  8
0
  6
Continuous
 62
     2
100
AcDbMText
 10
262.154890719
 20
5.35876025
 30
0.0
 40
4.0
 41
3.6
 71
     1
 72
     1
  1
B
  7
TEXTSTYLE_3
 73
     1
 44
0.9
  0
MTEXT
  5
2A7
330
224
100
AcDbEntity
  8
0
  6
Continuous
 62
     2
100
AcDbMText
 10
162.154890719
 20
5.35876025
 30
0.0
 40
4.0
 41
3.6
 71
     1
 72
     1
  1
C
  7
TEXTSTYLE_3
 73
     1
 44
0.9
  0
MTEXT
  5
2A8
330
224
100
AcDbEntity
  8
0
  6
Continuous
 62
     2
100
AcDbMText
 10
55.7978688212
 20
5.5353441916
 30
0.0
 40
4.0
 41
3.6
 71
     1
 72
     1
  1
D
  7
TEXTSTYLE_3
 73
     1
 44
0.9
  0
MTEXT
  5
2A9
330
224
100
AcDbEntity
  8
0
  6
Continuous
 62
     2
100
AcDbMText
 10
362.154890719
 20
295.35876025
 30
0.0
 40
4.0
 41
3.6
 71
     1
 72
     1
  1
A
  7
TEXTSTYLE_3
 73
     1
 44
0.9
  0
MTEXT
  5
2AA
330
224
100
AcDbEntity
  8
0
  6
Continuous
 62
     2
100
AcDbMText
 10
262.154890719
 20
295.35876025
 30
0.0
 40
4.0
 41
3.6
 71
     1
 72
     1
  1
B
  7
TEXTSTYLE_3
 73
     1
 44
0.9
  0
MTEXT
  5
2AB
330
224
100
AcDbEntity
  8
0
  6
Continuous
 62
     2
100
AcDbMText
 10
162.154890719
 20
295.35876025
 30
0.0
 40
4.0
 41
3.6
 71
     1
 72
     1
  1
C
  7
TEXTSTYLE_3
 73
     1
 44
0.9
  0
MTEXT
  5
2AC
330
224
100
AcDbEntity
  8
0
  6
Continuous
 62
     2
100
AcDbMText
 10
53.9878834197
 20
295.579490177
 30
0.0
 40
4.0
 41
3.6
 71
     1
 72
     1
  1
D
  7
TEXTSTYLE_3
 73
     1
 44
0.9
  0
INSERT
  5
2B0
330
224
100
AcDbEntity
  8
0
  6
Continuous
 62
     2
100
AcDbBlockReference
  2
LOGO2_BL0
 10
333.1473869546
 20
37.5239270671
 30
0.0
  0
INSERT
  5
2B1
330
224
100
AcDbEntity
  8
0
  6
Continuous
 62
     2
100
AcDbBlockReference
  2
*T5
 10
319.3213399098
 20
51.0239270671
 30
0.0
  0
LINE
  5
2B4
330
224
100
AcDbEntity
  8
0
  6
Continuous
 62
     7
100
AcDbLine
 10
0.0
 20
0.0
 30
0.0
 11
0.0
 21
297.0
 31
0.0
  0
LWPOLYLINE
  5
2B5
330
224
100
AcDbEntity
  8
0
  6
Continuous
 62
     7
100
AcDbPolyline
 90
        2
 70
     0
 43
0.1000000003
 10
7.0536312849
 20
0.0
 10
7.0536312849
 20
297.0
  0
LWPOLYLINE
  5
2B6
330
224
100
AcDbEntity
  8
0
  6
Continuous
 62
     7
100
AcDbPolyline
 90
        2
 70
     0
 43
0.4999999952
 10
10.0536312849
 20
10.0318435754
 10
10.0536312849
 20
287.0
  0
LINE
  5
2B7
330
224
100
AcDbEntity
  8
0
  6
Continuous
 62
     7
100
AcDbLine
 10
0.0
 20
0.0
 30
0.0
 11
420.0
 21
0.0
 31
0.0
  0
LWPOLYLINE
  5
2B8
330
224
100
AcDbEntity
  8
0
  6
Continuous
 62
     7
100
AcDbPolyline
 90
        2
 70
     0
 43
0.1000000003
 10
0.0
 20
7.0318435754
 10
420.0
 20
7.0318435754
  0
LWPOLYLINE
  5
2B9
330
224
100
AcDbEntity
  8
0
  6
Continuous
 62
     7
100
AcDbPolyline
 90
        2
 70
     0
 43
0.4999999952
 10
10.0536312849
 20
10.0318435754
 10
410.0
 20
10.0318435754
  0
LINE
  5
2BA
330
224
100
AcDbEntity
  8
0
  6
Continuous
 62
     7
100
AcDbLine
 10
113.0
 20
297.0
 30
0.0
 11
113.0
 21
290.0
 31
0.0
  0
LINE
  5
2BB
330
224
100
AcDbEntity
  8
0
  6
Continuous
 62
     7
100
AcDbLine
 10
113.0
 20
7.0
 30
0.0
 11
113.0
 21
0.0
 31
0.0
  0
LWPOLYLINE
  5
2BC
330
224
100
AcDbEntity
  8
0
  6
Continuous
 62
     7
100
AcDbPolyline
 90
        2
 70
     0
 43
0.1000000003
 10
123.0
 20
10.0
 10
123.0
 20
0.0
  0
LWPOLYLINE
  5
2BD
330
224
100
AcDbEntity
  8
0
  6
Continuous
 62
     7
100
AcDbPolyline
 90
        2
 70
     0
 43
0.1000000003
 10
123.0
 20
287.0
 10
123.0
 20
297.0
  0
LINE
  5
2BE
330
224
100
AcDbEntity
  8
0
  6
Continuous
 62
     7
100
AcDbLine
 10
0.0
 20
99.9681564246
 30
0.0
 11
7.0
 21
99.9681564246
 31
0.0
  0
LINE
  5
2BF
330
224
100
AcDbEntity
  8
0
  6
Continuous
 62
     7
100
AcDbLine
 10
413.0
 20
107.0
 30
0.0
 11
420.0
 21
107.0
 31
0.0
  0
LWPOLYLINE
  5
2C0
330
224
100
AcDbEntity
  8
0
  6
Continuous
 62
     7
100
AcDbPolyline
 90
        2
 70
     0
 43
0.1000000003
 10
210.0
 20
10.0
 10
210.0
 20
0.0
  0
LWPOLYLINE
  5
2C1
330
224
100
AcDbEntity
  8
0
  6
Continuous
 62
     7
100
AcDbPolyline
 90
        2
 70
     0
 43
0.1000000003
 10
210.0
 20
287.0
 10
210.0
 20
297.0
  0
LWPOLYLINE
  5
2C2
330
224
100
AcDbEntity
  8
0
  6
Continuous
 62
     7
100
AcDbPolyline
 90
        2
 70
     0
 43
0.1000000003
 10
10.0
 20
148.5
 10
0.0
 20
148.5
  0
LWPOLYLINE
  5
2C3
330
224
100
AcDbEntity
  8
0
  6
Continuous
 62
     7
100
AcDbPolyline
 90
        2
 70
     0
 43
0.1000000003
 10
410.0
 20
148.5
 10
420.0
 20
148.5
  0
LINE
  5
2C4
330
224
100
AcDbEntity
  8
0
  6
Continuous
 62
     7
100
AcDbLine
 10
0.0
 20
199.9681564246
 30
0.0
 11
7.0
 21
199.9681564246
 31
0.0
  0
LWPOLYLINE
  5
2C5
330
224
100
AcDbEntity
  8
0
  6
Continuous
 62
     7
100
AcDbPolyline
 90
        2
 70
     0
 43
0.1000000003
 10
10.0
 20
202.9681564246
 10
0.0
 20
202.9681564246
  0
LWPOLYLINE
  5
2C6
330
224
100
AcDbEntity
  8
0
  6
Continuous
 62
     7
100
AcDbPolyline
 90
        2
 70
     0
 43
0.1000000003
 10
410.0
 20
210.0
 10
420.0
 20
210.0
  0
LINE
  5
2C7
330
224
100
AcDbEntity
  8
0
  6
Continuous
 62
     7
100
AcDbLine
 10
313.0
 20
297.0
 30
0.0
 11
313.0
 21
290.0
 31
0.0
  0
LINE
  5
2C8
330
224
100
AcDbEntity
  8
0
  6
Continuous
 62
     7
100
AcDbLine
 10
313.0
 20
7.0
 30
0.0
 11
313.0
 21
0.0
 31
0.0
  0
LWPOLYLINE
  5
2C9
330
224
100
AcDbEntity
  8
0
  6
Continuous
 62
     7
100
AcDbPolyline
 90
        2
 70
     0
 43
0.4999999952
 10
10.0536312849
 20
287.0
 10
410.0
 20
287.0
  0
LWPOLYLINE
  5
2CA
330
224
100
AcDbEntity
  8
0
  6
Continuous
 62
     7
100
AcDbPolyline
 90
        2
 70
     0
 43
0.1000000003
 10
0.0
 20
290.0
 10
420.0
 20
290.0
  0
LINE
  5
2CB
330
224
100
AcDbEntity
  8
0
  6
Continuous
 62
     7
100
AcDbLine
 10
0.0
 20
297.0
 30
0.0
 11
420.0
 21
297.0
 31
0.0
  0
LWPOLYLINE
  5
2CC
330
224
100
AcDbEntity
  8
0
  6
Continuous
 62
     7
100
AcDbPolyline
 90
        2
 70
     0
 43
0.4999999952
 10
410.0
 20
10.0318435754
 10
410.0
 20
287.0
  0
LWPOLYLINE
  5
2CD
330
224
100
AcDbEntity
  8
0
  6
Continuous
 62
     7
100
AcDbPolyline
 90
        2
 70
     0
 43
0.1000000003
 10
413.0
 20
0.0
 10
413.0
 20
297.0
  0
LINE
  5
2CE
330
224
100
AcDbEntity
  8
0
  6
Continuous
 62
     7
100
AcDbLine
 10
420.0
 20
0.0
 30
0.0
 11
420.0
 21
297.0
 31
0.0
  0
LINE
  5
2CF
330
224
100
AcDbEntity
  8
7_ALL_FEATURES
  6
Continuous
 62
     7
100
AcDbLine
 10
31.18821022729997
 20
142.8191637159267
 30
0.0
 11
31.18821022729997
 21
22.81916371592669
 31
0.0
  0
LINE
  5
2D0
330
224
100
AcDbEntity
  8
7_ALL_FEATURES
  6
Continuous
 62
     7
100
AcDbLine
 10
33.18821022729996
 20
140.8191637159267
 30
0.0
 11
33.18821022729996
 21
24.81916371592669
 31
0.0
  0
LINE
  5
2D1
330
224
100
AcDbEntity
  8
7_ALL_FEATURES
  6
Continuous
 62
     7
100
AcDbLine
 10
31.18821022729997
 20
22.81916371592669
 30
0.0
 11
151.1882102272999
 21
22.81916371592669
 31
0.0
  0
LINE
  5
2D2
330
224
100
AcDbEntity
  8
7_ALL_FEATURES
  6
Continuous
 62
     7
100
AcDbLine
 10
33.18821022729996
 20
24.81916371592669
 30
0.0
 11
149.1882102272999
 21
24.81916371592669
 31
0.0
  0
LINE
  5
2D3
330
224
100
AcDbEntity
  8
7_ALL_FEATURES
  6
Continuous
 62
     7
100
AcDbLine
 10
151.1882102272999
 20
142.8191637159267
 30
0.0
 11
149.1882102272999
 21
140.8191637159267
 31
0.0
  0
LINE
  5
2D4
330
224
100
AcDbEntity
  8
7_ALL_FEATURES
  6
Continuous
 62
     7
100
AcDbLine
 10
31.18821022729997
 20
22.81916371592669
 30
0.0
 11
33.18821022729996
 21
24.81916371592669
 31
0.0
  0
LINE
  5
2D5
330
224
100
AcDbEntity
  8
7_ALL_FEATURES
  6
Continuous
 62
     7
100
AcDbLine
 10
31.18821022729997
 20
142.8191637159267
 30
0.0
 11
33.18821022729996
 21
140.8191637159267
 31
0.0
  0
LINE
  5
2D6
330
224
100
AcDbEntity
  8
7_ALL_FEATURES
  6
Continuous
 62
     7
100
AcDbLine
 10
151.1882102272999
 20
22.81916371592669
 30
0.0
 11
149.1882102272999
 21
24.81916371592669
 31
0.0
  0
LINE
  5
2D7
330
224
100
AcDbEntity
  8
7_ALL_FEATURES
  6
Continuous
 62
     7
100
AcDbLine
 10
149.1882102272999
 20
24.81916371592669
 30
0.0
 11
149.1882102272999
 21
140.8191637159267
 31
0.0
  0
LINE
  5
2D8
330
224
100
AcDbEntity
  8
7_ALL_FEATURES
  6
Continuous
 62
     7
100
AcDbLine
 10
151.1882102272999
 20
22.81916371592669
 30
0.0
 11
151.1882102272999
 21
142.8191637159267
 31
0.0
  0
LINE
  5
2D9
330
224
100
AcDbEntity
  8
7_ALL_FEATURES
  6
Continuous
 62
     7
100
AcDbLine
 10
149.1882102272999
 20
140.8191637159267
 30
0.0
 11
33.18821022729996
 21
140.8191637159267
 31
0.0
  0
LINE
  5
2DA
330
224
100
AcDbEntity
  8
7_ALL_FEATURES
  6
Continuous
 62
     7
100
AcDbLine
 10
151.1882102272999
 20
142.8191637159267
 30
0.0
 11
31.18821022729997
 21
142.8191637159267
 31
0.0
  0
LINE
  5
2DB
330
224
100
AcDbEntity
  8
7_ALL_FEATURES
  6
Continuous
 62
     7
100
AcDbLine
 10
31.1882102273
 20
234.2793666237
 30
0.0
 11
33.1882102273
 21
236.2793666237
 31
0.0
  0
LINE
  5
2DC
330
224
100
AcDbEntity
  8
7_ALL_FEATURES
  6
Continuous
 62
     7
100
AcDbLine
 10
31.1882102273
 20
233.2793666237
 30
0.0
 11
31.1882102273
 21
234.2793666237
 31
0.0
  0
LINE
  5
2DD
330
224
100
AcDbEntity
  8
7_ALL_FEATURES
  6
Continuous
 62
     7
100
AcDbLine
 10
44.28823262436667
 20
233.2793666237
 30
0.0
 11
43.78821022730001
 21
232.7793439878333
 31
0.0
  0
LINE
  5
2DE
330
224
100
AcDbEntity
  8
02___PRT_ALL_AXES
  6
Continuous
 62
     7
100
AcDbLine
 10
43.78821022730001
 20
232.7793439878333
 30
0.0
 11
43.78821022730001
 21
217.0293682319667
 31
0.0
  0
LINE
  5
2DF
330
224
100
AcDbEntity
  8
7_ALL_FEATURES
  6
Continuous
 62
     7
100
AcDbLine
 10
51.97336106396667
 20
232.7793666237
 30
0.0
 11
51.97336106396667
 21
230.2793666237
 31
0.0
  0
LINE
  5
2E0
330
224
100
AcDbEntity
  8
7_ALL_FEATURES
  6
Continuous
 62
     7
100
AcDbLine
 10
56.6882102273
 20
215.5293662083666
 30
0.0
 11
56.6882102273
 21
211.5293666237
 31
0.0
  0
LINE
  5
2E1
330
224
100
AcDbEntity
  8
7_ALL_FEATURES
  6
Continuous
 62
     7
100
AcDbLine
 10
56.6882102273
 20
208.0293666237
 30
0.0
 11
56.6882102273
 21
205.2793666237
 31
0.0
  0
LINE
  5
2E2
330
224
100
AcDbEntity
  8
7_ALL_FEATURES
  6
Continuous
 62
     7
100
AcDbLine
 10
56.6882102273
 20
201.7793666237
 30
0.0
 11
56.6882102273
 21
199.2793666237
 31
0.0
  0
LINE
  5
2E3
330
224
100
AcDbEntity
  8
7_ALL_FEATURES
  6
Continuous
 62
     7
100
AcDbLine
 10
56.6882102273
 20
195.7793666237
 30
0.0
 11
56.6882102273
 21
193.2793666237
 31
0.0
  0
LINE
  5
2E4
330
224
100
AcDbEntity
  8
7_ALL_FEATURES
  6
Continuous
 62
     7
100
AcDbLine
 10
56.6882102273
 20
189.7793666237
 30
0.0
 11
56.6882102273
 21
186.7793700114333
 31
0.0
  0
LINE
  5
2E5
330
224
100
AcDbEntity
  8
02___PRT_ALL_AXES
  6
Continuous
 62
     7
100
AcDbLine
 10
57.73972541743334
 20
231.7793666237
 30
0.0
 11
57.73972541743334
 21
233.2793666237
 31
0.0
  0
LINE
  5
2E6
330
224
100
AcDbEntity
  8
02___PRT_ALL_AXES
  6
Continuous
 62
     7
100
AcDbLine
 10
58.48972541743334
 20
230.2793666237
 30
0.0
 11
58.48972541743334
 21
231.7793666237
 31
0.0
  0
LINE
  5
2E7
330
224
100
AcDbEntity
  8
02___PRT_ALL_AXES
  6
Continuous
 62
     7
100
AcDbLine
 10
87.69120007290002
 20
169.7793666237
 30
0.0
 11
94.68522038156667
 21
169.7793666237
 31
0.0
  0
LINE
  5
2E8
330
224
100
AcDbEntity
  8
7_ALL_FEATURES
  6
Continuous
 62
     7
100
AcDbLine
 10
87.6882102273
 20
169.7793666237
 30
0.0
 11
94.6882102273
 21
169.7793666237
 31
0.0
  0
LINE
  5
2E9
330
224
100
AcDbEntity
  8
7_ALL_FEATURES
  6
Continuous
 62
     7
100
AcDbLine
 10
57.6882056521
 20
185.7793587972999
 30
0.0
 11
56.68820214756666
 21
186.7793619317
 31
0.0
  0
LINE
  5
2EA
330
224
100
AcDbEntity
  8
7_ALL_FEATURES
  6
Continuous
 62
     7
100
AcDbLine
 10
60.1882102273
 20
211.5293666237
 30
0.0
 11
60.1882102273
 21
208.0293666237
 31
0.0
  0
LINE
  5
2EB
330
224
100
AcDbEntity
  8
7_ALL_FEATURES
  6
Continuous
 62
     7
100
AcDbLine
 10
60.1882102273
 20
205.2793666237
 30
0.0
 11
60.1882102273
 21
201.7793666237
 31
0.0
  0
LINE
  5
2EC
330
224
100
AcDbEntity
  8
7_ALL_FEATURES
  6
Continuous
 62
     7
100
AcDbLine
 10
63.1882102273
 20
199.2793666237
 30
0.0
 11
63.1882102273
 21
195.7793666237
 31
0.0
  0
LINE
  5
2ED
330
224
100
AcDbEntity
  8
7_ALL_FEATURES
  6
Continuous
 62
     7
100
AcDbLine
 10
63.1882102273
 20
193.2793666237
 30
0.0
 11
63.1882102273
 21
189.7793666237
 31
0.0
  0
LINE
  5
2EE
330
224
100
AcDbEntity
  8
02___PRT_ALL_AXES
  6
Continuous
 62
     9
100
AcDbLine
 10
98.1882102273
 20
173.2793666237
 30
0.0
 11
96.79429649396667
 21
173.2793666237
 31
0.0
  0
LINE
  5
2EF
330
224
100
AcDbEntity
  8
02___PRT_ALL_AXES
  6
Continuous
 62
     9
100
AcDbLine
 10
95.3800829317
 20
173.2793666237
 30
0.0
 11
90.36098510916668
 21
173.2793666237
 31
0.0
  0
LINE
  5
2F0
330
224
100
AcDbEntity
  8
02___PRT_ALL_AXES
  6
Continuous
 62
     9
100
AcDbLine
 10
84.1882102273
 20
173.2793666237
 30
0.0
 11
84.23726075223334
 21
173.2793666237
 31
0.0
  0
LINE
  5
2F1
330
224
100
AcDbEntity
  8
02___PRT_ALL_AXES
  6
Continuous
 62
     9
100
AcDbLine
 10
84.75489884249998
 20
173.2793666237
 30
0.0
 11
88.42913345663334
 21
173.2793666237
 31
0.0
  0
LINE
  5
2F2
330
224
100
AcDbEntity
  8
02___PRT_ALL_AXES
  6
Continuous
 62
     7
100
AcDbLine
 10
98.1882102273
 20
173.7793666237
 30
0.0
 11
96.79429649396667
 21
173.7793666237
 31
0.0
  0
LINE
  5
2F3
330
224
100
AcDbEntity
  8
02___PRT_ALL_AXES
  6
Continuous
 62
     7
100
AcDbLine
 10
95.3800829317
 20
173.7793666237
 30
0.0
 11
90.36098510916668
 21
173.7793666237
 31
0.0
  0
LINE
  5
2F4
330
224
100
AcDbEntity
  8
02___PRT_ALL_AXES
  6
Continuous
 62
     7
100
AcDbLine
 10
84.1882102273
 20
173.7793666237
 30
0.0
 11
84.23726075223334
 21
173.7793666237
 31
0.0
  0
LINE
  5
2F5
330
224
100
AcDbEntity
  8
02___PRT_ALL_AXES
  6
Continuous
 62
     7
100
AcDbLine
 10
84.75489884249998
 20
173.7793666237
 30
0.0
 11
88.42913345663334
 21
173.7793666237
 31
0.0
  0
LINE
  5
2F6
330
224
100
AcDbEntity
  8
02___PRT_ALL_AXES
  6
Continuous
 62
     7
100
AcDbLine
 10
64.48972541743333
 20
230.2793666237
 30
0.0
 11
64.48972541743333
 21
231.7793666237
 31
0.0
  0
LINE
  5
2F7
330
224
100
AcDbEntity
  8
7_ALL_FEATURES
  6
Continuous
 62
     7
100
AcDbLine
 10
64.5619899717
 20
232.7793666237
 30
0.0
 11
64.5619899717
 21
230.2793666237
 31
0.0
  0
LINE
  5
2F8
330
224
100
AcDbEntity
  8
02___PRT_ALL_AXES
  6
Continuous
 62
     7
100
AcDbLine
 10
98.91561683756666
 20
179.2793666237
 30
0.0
 11
83.4608036169
 21
179.2793666237
 31
0.0
  0
LINE
  5
2F9
330
224
100
AcDbEntity
  8
02___PRT_ALL_AXES
  6
Continuous
 62
     7
100
AcDbLine
 10
84.1882102273
 20
173.7793666237
 30
0.0
 11
84.00937306263333
 21
173.9582037883666
 31
0.0
  0
LINE
  5
2FA
330
224
100
AcDbEntity
  8
7_ALL_FEATURES
  6
Continuous
 62
     7
100
AcDbLine
 10
44.28821341263334
 20
216.5293682326333
 30
0.0
 11
43.78821184583334
 21
217.0293698505
 31
0.0
  0
LINE
  5
2FB
330
224
100
AcDbEntity
  8
02___PRT_ALL_AXES
  6
Continuous
 62
     7
100
AcDbLine
 10
98.91561683756666
 20
182.2793666237
 30
0.0
 11
83.4608036169
 21
182.2793666237
 31
0.0
  0
LINE
  5
2FC
330
224
100
AcDbEntity
  8
7_ALL_FEATURES
  6
Continuous
 62
     7
100
AcDbLine
 10
124.6880063525
 20
185.7793666237
 30
0.0
 11
57.6884141021
 21
185.7793666237
 31
0.0
  0
LINE
  5
2FD
330
224
100
AcDbEntity
  8
7_ALL_FEATURES
  6
Continuous
 62
     7
100
AcDbLine
 10
125.6882102271666
 20
186.7793710993
 30
0.0
 11
56.6882102273
 21
186.7793710993
 31
0.0
  0
LINE
  5
2FE
330
224
100
AcDbEntity
  8
7_ALL_FEATURES
  6
Continuous
 62
     7
100
AcDbLine
 10
125.6879828993
 20
189.7793666237
 30
0.0
 11
56.68843755516667
 21
189.7793666237
 31
0.0
  0
LINE
  5
2FF
330
224
100
AcDbEntity
  8
7_ALL_FEATURES
  6
Continuous
 62
     7
100
AcDbLine
 10
56.68820545143334
 20
215.5293614326333
 30
0.0
 11
55.68820488823334
 21
216.5293617070333
 31
0.0
  0
LINE
  5
300
330
224
100
AcDbEntity
  8
7_ALL_FEATURES
  6
Continuous
 62
     7
100
AcDbLine
 10
125.6879828993
 20
193.2793666237
 30
0.0
 11
56.68843755516667
 21
193.2793666237
 31
0.0
  0
LINE
  5
301
330
224
100
AcDbEntity
  8
02___PRT_ALL_AXES
  6
Continuous
 62
     7
100
AcDbLine
 10
83.4608036169
 20
185.7793666237
 30
0.0
 11
83.4608036169
 21
182.2793666237
 31
0.0
  0
LINE
  5
302
330
224
100
AcDbEntity
  8
02___PRT_ALL_AXES
  6
Continuous
 62
     7
100
AcDbLine
 10
83.4608036169
 20
179.2793666237
 30
0.0
 11
83.4608036169
 21
174.7793666237
 31
0.0
  0
LINE
  5
303
330
224
100
AcDbEntity
  8
02___PRT_ALL_AXES
  6
Continuous
 62
     7
100
AcDbLine
 10
84.1882102273
 20
173.2793666237
 30
0.0
 11
84.1882102273
 21
173.7793666237
 31
0.0
  0
LINE
  5
304
330
224
100
AcDbEntity
  8
02___PRT_ALL_AXES
  6
Continuous
 62
     7
100
AcDbLine
 10
84.23726075223334
 20
173.2793666237
 30
0.0
 11
84.23726075223334
 21
173.7793666237
 31
0.0
  0
LINE
  5
305
330
224
100
AcDbEntity
  8
02___PRT_ALL_AXES
  6
Continuous
 62
     7
100
AcDbLine
 10
84.75489884249998
 20
173.2793666237
 30
0.0
 11
84.75489884249998
 21
173.7793666237
 31
0.0
  0
LINE
  5
306
330
224
100
AcDbEntity
  8
02___PRT_ALL_AXES
  6
Continuous
 62
     7
100
AcDbLine
 10
85.1882102273
 20
179.2793666237
 30
0.0
 11
85.1882102273
 21
182.2793666237
 31
0.0
  0
LINE
  5
307
330
224
100
AcDbEntity
  8
02___PRT_ALL_AXES
  6
Continuous
 62
     7
100
AcDbLine
 10
85.53135597783333
 20
185.7793666237
 30
0.0
 11
85.53135597783333
 21
182.2793666237
 31
0.0
  0
LINE
  5
308
330
224
100
AcDbEntity
  8
02___PRT_ALL_AXES
  6
Continuous
 62
     7
100
AcDbLine
 10
85.53135597783333
 20
179.2793666237
 30
0.0
 11
85.53135597783333
 21
174.7793666237
 31
0.0
  0
LINE
  5
309
330
224
100
AcDbEntity
  8
7_ALL_FEATURES
  6
Continuous
 62
     7
100
AcDbLine
 10
125.6879828993
 20
195.7793666237
 30
0.0
 11
56.68843755516667
 21
195.7793666237
 31
0.0
  0
LINE
  5
30A
330
224
100
AcDbEntity
  8
02___PRT_ALL_AXES
  6
Continuous
 62
     7
100
AcDbLine
 10
88.42913345663334
 20
173.2793666237
 30
0.0
 11
88.42913345663334
 21
173.7793666237
 31
0.0
  0
LINE
  5
30B
330
224
100
AcDbEntity
  8
02___PRT_ALL_AXES
  6
Continuous
 62
     7
100
AcDbLine
 10
90.36098510916668
 20
173.2793666237
 30
0.0
 11
90.36098510916668
 21
173.7793666237
 31
0.0
  0
LINE
  5
30C
330
224
100
AcDbEntity
  8
7_ALL_FEATURES
  6
Continuous
 62
     7
100
AcDbLine
 10
125.6879828993
 20
199.2793666237
 30
0.0
 11
56.68843755516667
 21
199.2793666237
 31
0.0
  0
LINE
  5
30D
330
224
100
AcDbEntity
  8
7_ALL_FEATURES
  6
Continuous
 62
     7
100
AcDbLine
 10
125.6879828993
 20
201.7793666237
 30
0.0
 11
56.68843755516667
 21
201.7793666237
 31
0.0
  0
LINE
  5
30E
330
224
100
AcDbEntity
  8
02___PRT_ALL_AXES
  6
Continuous
 62
     7
100
AcDbLine
 10
93.25876258810001
 20
185.7793666237
 30
0.0
 11
93.25876258810001
 21
182.2793666237
 31
0.0
  0
LINE
  5
30F
330
224
100
AcDbEntity
  8
02___PRT_ALL_AXES
  6
Continuous
 62
     7
100
AcDbLine
 10
93.25876258810001
 20
179.2793666237
 30
0.0
 11
93.25876258810001
 21
174.7793666237
 31
0.0
  0
LINE
  5
310
330
224
100
AcDbEntity
  8
02___PRT_ALL_AXES
  6
Continuous
 62
     7
100
AcDbLine
 10
95.3800829317
 20
173.2793666237
 30
0.0
 11
95.3800829317
 21
173.7793666237
 31
0.0
  0
LINE
  5
311
330
224
100
AcDbEntity
  8
7_ALL_FEATURES
  6
Continuous
 62
     7
100
AcDbLine
 10
125.6879828993
 20
205.2793666237
 30
0.0
 11
56.68843755516667
 21
205.2793666237
 31
0.0
  0
LINE
  5
312
330
224
100
AcDbEntity
  8
7_ALL_FEATURES
  6
Continuous
 62
     7
100
AcDbLine
 10
125.6879828993
 20
208.0293666237
 30
0.0
 11
56.68843755516667
 21
208.0293666237
 31
0.0
  0
LINE
  5
313
330
224
100
AcDbEntity
  8
02___PRT_ALL_AXES
  6
Continuous
 62
     7
100
AcDbLine
 10
96.79429649396667
 20
173.2793666237
 30
0.0
 11
96.79429649396667
 21
173.7793666237
 31
0.0
  0
LINE
  5
314
330
224
100
AcDbEntity
  8
02___PRT_ALL_AXES
  6
Continuous
 62
     7
100
AcDbLine
 10
97.1882102273
 20
179.2793666237
 30
0.0
 11
97.1882102273
 21
182.2793666237
 31
0.0
  0
LINE
  5
315
330
224
100
AcDbEntity
  8
02___PRT_ALL_AXES
  6
Continuous
 62
     7
100
AcDbLine
 10
98.1882102273
 20
173.2793666237
 30
0.0
 11
98.1882102273
 21
173.7793666237
 31
0.0
  0
LINE
  5
316
330
224
100
AcDbEntity
  8
02___PRT_ALL_AXES
  6
Continuous
 62
     7
100
AcDbLine
 10
98.91561683756666
 20
185.7793666237
 30
0.0
 11
98.91561683756666
 21
182.2793666237
 31
0.0
  0
LINE
  5
317
330
224
100
AcDbEntity
  8
02___PRT_ALL_AXES
  6
Continuous
 62
     7
100
AcDbLine
 10
98.91561683756666
 20
179.2793666237
 30
0.0
 11
98.91561683756666
 21
174.7793666237
 31
0.0
  0
LINE
  5
318
330
224
100
AcDbEntity
  8
7_ALL_FEATURES
  6
Continuous
 62
     7
100
AcDbLine
 10
125.6879828993
 20
211.5293666237
 30
0.0
 11
56.68843755516667
 21
211.5293666237
 31
0.0
  0
LINE
  5
319
330
224
100
AcDbEntity
  8
7_ALL_FEATURES
  6
Continuous
 62
     7
100
AcDbLine
 10
56.68821024556667
 20
215.5293664391666
 30
0.0
 11
125.6882102090333
 21
215.5293664391666
 31
0.0
  0
LINE
  5
31A
330
224
100
AcDbEntity
  8
7_ALL_FEATURES
  6
Continuous
 62
     7
100
AcDbLine
 10
44.28830221183334
 20
216.5293666237
 30
0.0
 11
138.0881182426333
 21
216.5293666237
 31
0.0
  0
LINE
  5
31B
330
224
100
AcDbEntity
  8
7_ALL_FEATURES
  6
Continuous
 62
     7
100
AcDbLine
 10
43.7882102281
 20
217.0293685692999
 30
0.0
 11
138.5882102263667
 21
217.0293685692999
 31
0.0
  0
LINE
  5
31C
330
224
100
AcDbEntity
  8
7_ALL_FEATURES
  6
Continuous
 62
     7
100
AcDbLine
 10
125.6882150030333
 20
215.5293614326333
 30
0.0
 11
126.6882155663667
 21
216.5293617070333
 31
0.0
  0
LINE
  5
31D
330
224
100
AcDbEntity
  8
7_ALL_FEATURES
  6
Continuous
 62
     7
100
AcDbLine
 10
117.8144304827667
 20
232.7793666237
 30
0.0
 11
117.8144304827667
 21
230.2793666237
 31
0.0
  0
LINE
  5
31E
330
224
100
AcDbEntity
  8
02___PRT_ALL_AXES
  6
Continuous
 62
     7
100
AcDbLine
 10
117.8866950370333
 20
230.2793666237
 30
0.0
 11
117.8866950370333
 21
231.7793666237
 31
0.0
  0
LINE
  5
31F
330
224
100
AcDbEntity
  8
7_ALL_FEATURES
  6
Continuous
 62
     7
100
AcDbLine
 10
119.1882102273
 20
199.2793666237
 30
0.0
 11
119.1882102273
 21
195.7793666237
 31
0.0
  0
LINE
  5
320
330
224
100
AcDbEntity
  8
7_ALL_FEATURES
  6
Continuous
 62
     7
100
AcDbLine
 10
119.1882102273
 20
193.2793666237
 30
0.0
 11
119.1882102273
 21
189.7793666237
 31
0.0
  0
LINE
  5
321
330
224
100
AcDbEntity
  8
7_ALL_FEATURES
  6
Continuous
 62
     7
100
AcDbLine
 10
138.0882070418333
 20
216.5293682326333
 30
0.0
 11
138.5882086086333
 21
217.0293698505
 31
0.0
  0
LINE
  5
322
330
224
100
AcDbEntity
  8
02___PRT_ALL_AXES
  6
Continuous
 62
     7
100
AcDbLine
 10
98.1882102273
 20
173.7793666237
 30
0.0
 11
98.36704739183332
 21
173.9582037883666
 31
0.0
  0
LINE
  5
323
330
224
100
AcDbEntity
  8
02___PRT_ALL_AXES
  6
Continuous
 62
     7
100
AcDbLine
 10
130.4030593906333
 20
230.2793666237
 30
0.0
 11
117.8144304827667
 21
230.2793666237
 31
0.0
  0
LINE
  5
324
330
224
100
AcDbEntity
  8
02___PRT_ALL_AXES
  6
Continuous
 62
     7
100
AcDbLine
 10
64.5619899717
 20
230.2793666237
 30
0.0
 11
51.97336106396667
 21
230.2793666237
 31
0.0
  0
LINE
  5
325
330
224
100
AcDbEntity
  8
02___PRT_ALL_AXES
  6
Continuous
 62
     7
100
AcDbLine
 10
64.48972541743333
 20
230.6293666237
 30
0.0
 11
64.5619899717
 21
230.6293666237
 31
0.0
  0
LINE
  5
326
330
224
100
AcDbEntity
  8
02___PRT_ALL_AXES
  6
Continuous
 62
     7
100
AcDbLine
 10
117.8144304827667
 20
230.6293666237
 30
0.0
 11
117.8866950370333
 21
230.6293666237
 31
0.0
  0
LINE
  5
327
330
224
100
AcDbEntity
  8
7_ALL_FEATURES
  6
Continuous
 62
     7
100
AcDbLine
 10
122.1882102273
 20
211.5293666237
 30
0.0
 11
122.1882102273
 21
208.0293666237
 31
0.0
  0
LINE
  5
328
330
224
100
AcDbEntity
  8
7_ALL_FEATURES
  6
Continuous
 62
     7
100
AcDbLine
 10
122.1882102273
 20
205.2793666237
 30
0.0
 11
122.1882102273
 21
201.7793666237
 31
0.0
  0
LINE
  5
329
330
224
100
AcDbEntity
  8
02___PRT_ALL_AXES
  6
Continuous
 62
     7
100
AcDbLine
 10
57.73974259583333
 20
231.7793666237
 30
0.0
 11
64.5619899717
 21
231.7793666237
 31
0.0
  0
LINE
  5
32A
330
224
100
AcDbEntity
  8
02___PRT_ALL_AXES
  6
Continuous
 62
     7
100
AcDbLine
 10
117.8144304827667
 20
231.7793666237
 30
0.0
 11
124.6366778586333
 21
231.7793666237
 31
0.0
  0
LINE
  5
32B
330
224
100
AcDbEntity
  8
7_ALL_FEATURES
  6
Continuous
 62
     7
100
AcDbLine
 10
117.8144304827667
 20
232.7793666237
 30
0.0
 11
64.5619899717
 21
232.7793666237
 31
0.0
  0
LINE
  5
32C
330
224
100
AcDbEntity
  8
7_ALL_FEATURES
  6
Continuous
 62
     7
100
AcDbLine
 10
138.5882102273
 20
232.7793438231666
 30
0.0
 11
130.4030593906333
 21
232.7793666237
 31
0.0
  0
LINE
  5
32D
330
224
100
AcDbEntity
  8
7_ALL_FEATURES
  6
Continuous
 62
     7
100
AcDbLine
 10
51.97336106396667
 20
232.7793666237
 30
0.0
 11
43.78821022730001
 21
232.7793439878333
 31
0.0
  0
LINE
  5
32E
330
224
100
AcDbEntity
  8
02___PRT_ALL_AXES
  6
Continuous
 62
     7
100
AcDbLine
 10
31.1882102273
 20
233.2793666237
 30
0.0
 11
151.1882102273
 21
233.2793666237
 31
0.0
  0
LINE
  5
32F
330
224
100
AcDbEntity
  8
7_ALL_FEATURES
  6
Continuous
 62
     7
100
AcDbLine
 10
31.1882102273
 20
234.2793666237
 30
0.0
 11
151.1882102273
 21
234.2793666237
 31
0.0
  0
LINE
  5
330
330
224
100
AcDbEntity
  8
02___PRT_ALL_AXES
  6
Continuous
 62
     7
100
AcDbLine
 10
123.8866950370333
 20
230.2793666237
 30
0.0
 11
123.8866950370333
 21
231.7793666237
 31
0.0
  0
LINE
  5
331
330
224
100
AcDbEntity
  8
02___PRT_ALL_AXES
  6
Continuous
 62
     7
100
AcDbLine
 10
124.6366950370333
 20
231.7793666237
 30
0.0
 11
124.6366950370333
 21
233.2793666237
 31
0.0
  0
LINE
  5
332
330
224
100
AcDbEntity
  8
7_ALL_FEATURES
  6
Continuous
 62
     7
100
AcDbLine
 10
125.6882102273
 20
215.5293662083666
 30
0.0
 11
125.6882102273
 21
211.5293666237
 31
0.0
  0
LINE
  5
333
330
224
100
AcDbEntity
  8
7_ALL_FEATURES
  6
Continuous
 62
     7
100
AcDbLine
 10
125.6882102273
 20
208.0293666237
 30
0.0
 11
125.6882102273
 21
205.2793666237
 31
0.0
  0
LINE
  5
334
330
224
100
AcDbEntity
  8
7_ALL_FEATURES
  6
Continuous
 62
     7
100
AcDbLine
 10
125.6882102273
 20
201.7793666237
 30
0.0
 11
125.6882102273
 21
199.2793666237
 31
0.0
  0
LINE
  5
335
330
224
100
AcDbEntity
  8
7_ALL_FEATURES
  6
Continuous
 62
     7
100
AcDbLine
 10
125.6882102273
 20
195.7793666237
 30
0.0
 11
125.6882102273
 21
193.2793666237
 31
0.0
  0
LINE
  5
336
330
224
100
AcDbEntity
  8
7_ALL_FEATURES
  6
Continuous
 62
     7
100
AcDbLine
 10
125.6882102273
 20
189.7793666237
 30
0.0
 11
125.6882102273
 21
186.7793700114333
 31
0.0
  0
LINE
  5
337
330
224
100
AcDbEntity
  8
7_ALL_FEATURES
  6
Continuous
 62
     7
100
AcDbLine
 10
124.6882148025
 20
185.7793587972999
 30
0.0
 11
125.6882183070333
 21
186.7793619317
 31
0.0
  0
LINE
  5
338
330
224
100
AcDbEntity
  8
7_ALL_FEATURES
  6
Continuous
 62
     7
100
AcDbLine
 10
33.1882102273
 20
236.2793666237
 30
0.0
 11
149.1882102273
 21
236.2793666237
 31
0.0
  0
LINE
  5
339
330
224
100
AcDbEntity
  8
7_ALL_FEATURES
  6
Continuous
 62
     7
100
AcDbLine
 10
130.4030593906333
 20
232.7793666237
 30
0.0
 11
130.4030593906333
 21
230.2793666237
 31
0.0
  0
LINE
  5
33A
330
224
100
AcDbEntity
  8
02___PRT_ALL_AXES
  6
Continuous
 62
     7
100
AcDbLine
 10
138.5882102273
 20
232.7793438231666
 30
0.0
 11
138.5882102273
 21
217.0293682319667
 31
0.0
  0
LINE
  5
33B
330
224
100
AcDbEntity
  8
7_ALL_FEATURES
  6
Continuous
 62
     7
100
AcDbLine
 10
138.0881876671667
 20
233.2793666237
 30
0.0
 11
138.5882102273
 21
232.7793438231666
 31
0.0
  0
LINE
  5
33C
330
224
100
AcDbEntity
  8
7_ALL_FEATURES
  6
Continuous
 62
     7
100
AcDbLine
 10
151.1882102273
 20
233.2793666237
 30
0.0
 11
151.1882102273
 21
234.2793666237
 31
0.0
  0
LINE
  5
33D
330
224
100
AcDbEntity
  8
7_ALL_FEATURES
  6
Continuous
 62
     7
100
AcDbLine
 10
151.1882102273
 20
234.2793666237
 30
0.0
 11
149.1882102273
 21
236.2793666237
 31
0.0
  0
LINE
  5
33E
330
224
100
AcDbEntity
  8
7_ALL_FEATURES
  6
Continuous
 62
     7
100
AcDbLine
 10
165.3770739187667
 20
234.2793666237
 30
0.0
 11
167.3770739187667
 21
236.2793666237
 31
0.0
  0
LINE
  5
33F
330
224
100
AcDbEntity
  8
7_ALL_FEATURES
  6
Continuous
 62
     7
100
AcDbLine
 10
165.3770739187667
 20
233.2793666237
 30
0.0
 11
165.3770739187667
 21
234.2793666237
 31
0.0
  0
LINE
  5
340
330
224
100
AcDbEntity
  8
7_ALL_FEATURES
  6
Continuous
 62
     7
100
AcDbLine
 10
178.4771029642333
 20
233.2793666237
 30
0.0
 11
177.9770739187666
 21
232.7793372686333
 31
0.0
  0
LINE
  5
341
330
224
100
AcDbEntity
  8
02___PRT_ALL_AXES
  6
Continuous
 62
     7
100
AcDbLine
 10
177.9770739187666
 20
232.7793372686333
 30
0.0
 11
177.9770739187666
 21
217.0293679467666
 31
0.0
  0
LINE
  5
342
330
224
100
AcDbEntity
  8
7_ALL_FEATURES
  6
Continuous
 62
     7
100
AcDbLine
 10
186.1622247554333
 20
232.7793666237
 30
0.0
 11
186.1622247554333
 21
230.2793666237
 31
0.0
  0
LINE
  5
343
330
224
100
AcDbEntity
  8
7_ALL_FEATURES
  6
Continuous
 62
     7
100
AcDbLine
 10
190.8770739187667
 20
215.5293661813
 30
0.0
 11
190.8770739187667
 21
211.5293666237
 31
0.0
  0
LINE
  5
344
330
224
100
AcDbEntity
  8
7_ALL_FEATURES
  6
Continuous
 62
     7
100
AcDbLine
 10
190.8770739187667
 20
208.0293666237
 30
0.0
 11
190.8770739187667
 21
205.2793666237
 31
0.0
  0
LINE
  5
345
330
224
100
AcDbEntity
  8
7_ALL_FEATURES
  6
Continuous
 62
     7
100
AcDbLine
 10
190.8770739187667
 20
201.7793666237
 30
0.0
 11
190.8770739187667
 21
199.2793666237
 31
0.0
  0
LINE
  5
346
330
224
100
AcDbEntity
  8
7_ALL_FEATURES
  6
Continuous
 62
     7
100
AcDbLine
 10
190.8770739187667
 20
195.7793666237
 30
0.0
 11
190.8770739187667
 21
193.2793666237
 31
0.0
  0
LINE
  5
347
330
224
100
AcDbEntity
  8
7_ALL_FEATURES
  6
Continuous
 62
     7
100
AcDbLine
 10
190.8770739187667
 20
189.7793666237
 30
0.0
 11
190.8770739187667
 21
186.7793681506333
 31
0.0
  0
LINE
  5
348
330
224
100
AcDbEntity
  8
02___PRT_ALL_AXES
  6
Continuous
 62
     7
100
AcDbLine
 10
191.9285891089
 20
231.7793666237
 30
0.0
 11
191.9285891089
 21
233.2793666237
 31
0.0
  0
LINE
  5
349
330
224
100
AcDbEntity
  8
02___PRT_ALL_AXES
  6
Continuous
 62
     7
100
AcDbLine
 10
192.6785891089
 20
230.2793666237
 30
0.0
 11
192.6785891089
 21
231.7793666237
 31
0.0
  0
LINE
  5
34A
330
224
100
AcDbEntity
  8
02___PRT_ALL_AXES
  6
Continuous
 62
     7
100
AcDbLine
 10
221.8800637643667
 20
169.7793666237
 30
0.0
 11
228.8740840731666
 21
169.7793666237
 31
0.0
  0
LINE
  5
34B
330
224
100
AcDbEntity
  8
7_ALL_FEATURES
  6
Continuous
 62
     7
100
AcDbLine
 10
221.8770739187667
 20
169.7793666237
 30
0.0
 11
228.8770739187667
 21
169.7793666237
 31
0.0
  0
LINE
  5
34C
330
224
100
AcDbEntity
  8
7_ALL_FEATURES
  6
Continuous
 62
     7
100
AcDbLine
 10
191.8770684506333
 20
185.7793596902333
 30
0.0
 11
190.8770667694333
 21
186.7793610012999
 31
0.0
  0
LINE
  5
34D
330
224
100
AcDbEntity
  8
7_ALL_FEATURES
  6
Continuous
 62
     7
100
AcDbLine
 10
194.3770739187667
 20
211.5293666237
 30
0.0
 11
194.3770739187667
 21
208.0293666237
 31
0.0
  0
LINE
  5
34E
330
224
100
AcDbEntity
  8
7_ALL_FEATURES
  6
Continuous
 62
     7
100
AcDbLine
 10
194.3770739187667
 20
205.2793666237
 30
0.0
 11
194.3770739187667
 21
201.7793666237
 31
0.0
  0
LINE
  5
34F
330
224
100
AcDbEntity
  8
7_ALL_FEATURES
  6
Continuous
 62
     7
100
AcDbLine
 10
197.3770739187667
 20
199.2793666237
 30
0.0
 11
197.3770739187667
 21
195.7793666237
 31
0.0
  0
LINE
  5
350
330
224
100
AcDbEntity
  8
7_ALL_FEATURES
  6
Continuous
 62
     7
100
AcDbLine
 10
197.3770739187667
 20
193.2793666237
 30
0.0
 11
197.3770739187667
 21
189.7793666237
 31
0.0
  0
LINE
  5
351
330
224
100
AcDbEntity
  8
02___PRT_ALL_AXES
  6
Continuous
 62
     9
100
AcDbLine
 10
232.3770739187667
 20
173.2793666237
 30
0.0
 11
232.3280233938333
 21
173.2793666237
 31
0.0
  0
LINE
  5
352
330
224
100
AcDbEntity
  8
02___PRT_ALL_AXES
  6
Continuous
 62
     9
100
AcDbLine
 10
218.3770739187667
 20
173.2793666237
 30
0.0
 11
219.7709876519666
 21
173.2793666237
 31
0.0
  0
LINE
  5
353
330
224
100
AcDbEntity
  8
02___PRT_ALL_AXES
  6
Continuous
 62
     9
100
AcDbLine
 10
221.1852012143667
 20
173.2793666237
 30
0.0
 11
226.2042990367667
 21
173.2793666237
 31
0.0
  0
LINE
  5
354
330
224
100
AcDbEntity
  8
02___PRT_ALL_AXES
  6
Continuous
 62
     9
100
AcDbLine
 10
228.1361506894333
 20
173.2793666237
 30
0.0
 11
231.8103853035666
 21
173.2793666237
 31
0.0
  0
LINE
  5
355
330
224
100
AcDbEntity
  8
02___PRT_ALL_AXES
  6
Continuous
 62
     7
100
AcDbLine
 10
232.3770739187667
 20
173.7793666237
 30
0.0
 11
232.3280233938333
 21
173.7793666237
 31
0.0
  0
LINE
  5
356
330
224
100
AcDbEntity
  8
02___PRT_ALL_AXES
  6
Continuous
 62
     7
100
AcDbLine
 10
218.3770739187667
 20
173.7793666237
 30
0.0
 11
219.7709876519666
 21
173.7793666237
 31
0.0
  0
LINE
  5
357
330
224
100
AcDbEntity
  8
02___PRT_ALL_AXES
  6
Continuous
 62
     7
100
AcDbLine
 10
221.1852012143667
 20
173.7793666237
 30
0.0
 11
226.2042990367667
 21
173.7793666237
 31
0.0
  0
LINE
  5
358
330
224
100
AcDbEntity
  8
02___PRT_ALL_AXES
  6
Continuous
 62
     7
100
AcDbLine
 10
228.1361506894333
 20
173.7793666237
 30
0.0
 11
231.8103853035666
 21
173.7793666237
 31
0.0
  0
LINE
  5
359
330
224
100
AcDbEntity
  8
02___PRT_ALL_AXES
  6
Continuous
 62
     7
100
AcDbLine
 10
198.6785891089
 20
230.2793666237
 30
0.0
 11
198.6785891089
 21
231.7793666237
 31
0.0
  0
LINE
  5
35A
330
224
100
AcDbEntity
  8
7_ALL_FEATURES
  6
Continuous
 62
     7
100
AcDbLine
 10
198.7508536631666
 20
232.7793666237
 30
0.0
 11
198.7508536631666
 21
230.2793666237
 31
0.0
  0
LINE
  5
35B
330
224
100
AcDbEntity
  8
02___PRT_ALL_AXES
  6
Continuous
 62
     7
100
AcDbLine
 10
233.1044805290333
 20
179.2793666237
 30
0.0
 11
217.6496673085
 21
179.2793666237
 31
0.0
  0
LINE
  5
35C
330
224
100
AcDbEntity
  8
02___PRT_ALL_AXES
  6
Continuous
 62
     7
100
AcDbLine
 10
218.3770739187667
 20
173.7793666237
 30
0.0
 11
218.1982395267667
 21
173.9582010157
 31
0.0
  0
LINE
  5
35D
330
224
100
AcDbEntity
  8
7_ALL_FEATURES
  6
Continuous
 62
     7
100
AcDbLine
 10
178.4770769643667
 20
216.5293683723667
 30
0.0
 11
177.9770756799666
 21
217.0293697079666
 31
0.0
  0
LINE
  5
35E
330
224
100
AcDbEntity
  8
02___PRT_ALL_AXES
  6
Continuous
 62
     7
100
AcDbLine
 10
233.1044805290333
 20
182.2793666237
 30
0.0
 11
217.6496673085
 21
182.2793666237
 31
0.0
  0
LINE
  5
35F
330
224
100
AcDbEntity
  8
7_ALL_FEATURES
  6
Continuous
 62
     7
100
AcDbLine
 10
258.8768729594333
 20
185.7793666237
 30
0.0
 11
191.8772748781
 21
185.7793666237
 31
0.0
  0
LINE
  5
360
330
224
100
AcDbEntity
  8
7_ALL_FEATURES
  6
Continuous
 62
     7
100
AcDbLine
 10
259.8770739187667
 20
186.7793687585
 30
0.0
 11
190.8770739187667
 21
186.7793687585
 31
0.0
  0
LINE
  5
361
330
224
100
AcDbEntity
  8
7_ALL_FEATURES
  6
Continuous
 62
     7
100
AcDbLine
 10
259.8768465909
 20
189.7793666237
 30
0.0
 11
190.8773012466333
 21
189.7793666237
 31
0.0
  0
LINE
  5
362
330
224
100
AcDbEntity
  8
7_ALL_FEATURES
  6
Continuous
 62
     7
100
AcDbLine
 10
190.8770691565
 20
215.5293614190333
 30
0.0
 11
189.8770685661
 21
216.5293617206333
 31
0.0
  0
LINE
  5
363
330
224
100
AcDbEntity
  8
7_ALL_FEATURES
  6
Continuous
 62
     7
100
AcDbLine
 10
259.8768465909
 20
193.2793666237
 30
0.0
 11
190.8773012466333
 21
193.2793666237
 31
0.0
  0
LINE
  5
364
330
224
100
AcDbEntity
  8
02___PRT_ALL_AXES
  6
Continuous
 62
     7
100
AcDbLine
 10
217.6496673085
 20
185.7793666237
 30
0.0
 11
217.6496673085
 21
182.2793666237
 31
0.0
  0
LINE
  5
365
330
224
100
AcDbEntity
  8
02___PRT_ALL_AXES
  6
Continuous
 62
     7
100
AcDbLine
 10
217.6496673085
 20
179.2793666237
 30
0.0
 11
217.6496673085
 21
174.7793666237
 31
0.0
  0
LINE
  5
366
330
224
100
AcDbEntity
  8
02___PRT_ALL_AXES
  6
Continuous
 62
     7
100
AcDbLine
 10
218.3770739187667
 20
173.2793666237
 30
0.0
 11
218.3770739187667
 21
173.7793666237
 31
0.0
  0
LINE
  5
367
330
224
100
AcDbEntity
  8
02___PRT_ALL_AXES
  6
Continuous
 62
     7
100
AcDbLine
 10
219.3770739187667
 20
179.2793666237
 30
0.0
 11
219.3770739187667
 21
182.2793666237
 31
0.0
  0
LINE
  5
368
330
224
100
AcDbEntity
  8
02___PRT_ALL_AXES
  6
Continuous
 62
     7
100
AcDbLine
 10
219.7709876519666
 20
173.2793666237
 30
0.0
 11
219.7709876519666
 21
173.7793666237
 31
0.0
  0
LINE
  5
369
330
224
100
AcDbEntity
  8
02___PRT_ALL_AXES
  6
Continuous
 62
     7
100
AcDbLine
 10
221.1852012143667
 20
173.2793666237
 30
0.0
 11
221.1852012143667
 21
173.7793666237
 31
0.0
  0
LINE
  5
36A
330
224
100
AcDbEntity
  8
7_ALL_FEATURES
  6
Continuous
 62
     7
100
AcDbLine
 10
259.8768465909
 20
195.7793666237
 30
0.0
 11
190.8773012466333
 21
195.7793666237
 31
0.0
  0
LINE
  5
36B
330
224
100
AcDbEntity
  8
02___PRT_ALL_AXES
  6
Continuous
 62
     7
100
AcDbLine
 10
223.3065215579666
 20
185.7793666237
 30
0.0
 11
223.3065215579666
 21
182.2793666237
 31
0.0
  0
LINE
  5
36C
330
224
100
AcDbEntity
  8
02___PRT_ALL_AXES
  6
Continuous
 62
     7
100
AcDbLine
 10
223.3065215579666
 20
179.2793666237
 30
0.0
 11
223.3065215579666
 21
174.7793666237
 31
0.0
  0
LINE
  5
36D
330
224
100
AcDbEntity
  8
7_ALL_FEATURES
  6
Continuous
 62
     7
100
AcDbLine
 10
259.8768465909
 20
199.2793666237
 30
0.0
 11
190.8773012466333
 21
199.2793666237
 31
0.0
  0
LINE
  5
36E
330
224
100
AcDbEntity
  8
7_ALL_FEATURES
  6
Continuous
 62
     7
100
AcDbLine
 10
259.8768465909
 20
201.7793666237
 30
0.0
 11
190.8773012466333
 21
201.7793666237
 31
0.0
  0
LINE
  5
36F
330
224
100
AcDbEntity
  8
02___PRT_ALL_AXES
  6
Continuous
 62
     7
100
AcDbLine
 10
226.2042990367667
 20
173.2793666237
 30
0.0
 11
226.2042990367667
 21
173.7793666237
 31
0.0
  0
LINE
  5
370
330
224
100
AcDbEntity
  8
02___PRT_ALL_AXES
  6
Continuous
 62
     7
100
AcDbLine
 10
228.1361506894333
 20
173.2793666237
 30
0.0
 11
228.1361506894333
 21
173.7793666237
 31
0.0
  0
LINE
  5
371
330
224
100
AcDbEntity
  8
7_ALL_FEATURES
  6
Continuous
 62
     7
100
AcDbLine
 10
259.8768465909
 20
205.2793666237
 30
0.0
 11
190.8773012466333
 21
205.2793666237
 31
0.0
  0
LINE
  5
372
330
224
100
AcDbEntity
  8
7_ALL_FEATURES
  6
Continuous
 62
     7
100
AcDbLine
 10
259.8768465909
 20
208.0293666237
 30
0.0
 11
190.8773012466333
 21
208.0293666237
 31
0.0
  0
LINE
  5
373
330
224
100
AcDbEntity
  8
02___PRT_ALL_AXES
  6
Continuous
 62
     7
100
AcDbLine
 10
231.0339281682333
 20
185.7793666237
 30
0.0
 11
231.0339281682333
 21
182.2793666237
 31
0.0
  0
LINE
  5
374
330
224
100
AcDbEntity
  8
02___PRT_ALL_AXES
  6
Continuous
 62
     7
100
AcDbLine
 10
231.0339281682333
 20
179.2793666237
 30
0.0
 11
231.0339281682333
 21
174.7793666237
 31
0.0
  0
LINE
  5
375
330
224
100
AcDbEntity
  8
02___PRT_ALL_AXES
  6
Continuous
 62
     7
100
AcDbLine
 10
231.3770739187667
 20
179.2793666237
 30
0.0
 11
231.3770739187667
 21
182.2793666237
 31
0.0
  0
LINE
  5
376
330
224
100
AcDbEntity
  8
02___PRT_ALL_AXES
  6
Continuous
 62
     7
100
AcDbLine
 10
231.8103853035666
 20
173.2793666237
 30
0.0
 11
231.8103853035666
 21
173.7793666237
 31
0.0
  0
LINE
  5
377
330
224
100
AcDbEntity
  8
02___PRT_ALL_AXES
  6
Continuous
 62
     7
100
AcDbLine
 10
232.3280233938333
 20
173.2793666237
 30
0.0
 11
232.3280233938333
 21
173.7793666237
 31
0.0
  0
LINE
  5
378
330
224
100
AcDbEntity
  8
02___PRT_ALL_AXES
  6
Continuous
 62
     7
100
AcDbLine
 10
232.3770739187667
 20
173.2793666237
 30
0.0
 11
232.3770739187667
 21
173.7793666237
 31
0.0
  0
LINE
  5
379
330
224
100
AcDbEntity
  8
02___PRT_ALL_AXES
  6
Continuous
 62
     7
100
AcDbLine
 10
233.1044805290333
 20
185.7793666237
 30
0.0
 11
233.1044805290333
 21
182.2793666237
 31
0.0
  0
LINE
  5
37A
330
224
100
AcDbEntity
  8
02___PRT_ALL_AXES
  6
Continuous
 62
     7
100
AcDbLine
 10
233.1044805290333
 20
179.2793666237
 30
0.0
 11
233.1044805290333
 21
174.7793666237
 31
0.0
  0
LINE
  5
37B
330
224
100
AcDbEntity
  8
7_ALL_FEATURES
  6
Continuous
 62
     7
100
AcDbLine
 10
259.8768465909
 20
211.5293666237
 30
0.0
 11
190.8773012466333
 21
211.5293666237
 31
0.0
  0
LINE
  5
37C
330
224
100
AcDbEntity
  8
7_ALL_FEATURES
  6
Continuous
 62
     7
100
AcDbLine
 10
190.8770739367667
 20
215.5293664213
 30
0.0
 11
259.8770739007667
 21
215.5293664213
 31
0.0
  0
LINE
  5
37D
330
224
100
AcDbEntity
  8
7_ALL_FEATURES
  6
Continuous
 62
     7
100
AcDbLine
 10
178.4771656215667
 20
216.5293666237
 30
0.0
 11
272.2769822159667
 21
216.5293666237
 31
0.0
  0
LINE
  5
37E
330
224
100
AcDbEntity
  8
7_ALL_FEATURES
  6
Continuous
 62
     7
100
AcDbLine
 10
177.9770739195667
 20
217.0293682378333
 30
0.0
 11
272.7770739179667
 21
217.0293682378333
 31
0.0
  0
LINE
  5
37F
330
224
100
AcDbEntity
  8
7_ALL_FEATURES
  6
Continuous
 62
     7
100
AcDbLine
 10
259.8770786810334
 20
215.5293614190333
 30
0.0
 11
260.8770792714333
 21
216.5293617206333
 31
0.0
  0
LINE
  5
380
330
224
100
AcDbEntity
  8
7_ALL_FEATURES
  6
Continuous
 62
     7
100
AcDbLine
 10
252.0032941743666
 20
232.7793666237
 30
0.0
 11
252.0032941743666
 21
230.2793666237
 31
0.0
  0
LINE
  5
381
330
224
100
AcDbEntity
  8
02___PRT_ALL_AXES
  6
Continuous
 62
     7
100
AcDbLine
 10
252.0755587286333
 20
230.2793666237
 30
0.0
 11
252.0755587286333
 21
231.7793666237
 31
0.0
  0
LINE
  5
382
330
224
100
AcDbEntity
  8
7_ALL_FEATURES
  6
Continuous
 62
     7
100
AcDbLine
 10
253.3770739187666
 20
199.2793666237
 30
0.0
 11
253.3770739187666
 21
195.7793666237
 31
0.0
  0
LINE
  5
383
330
224
100
AcDbEntity
  8
7_ALL_FEATURES
  6
Continuous
 62
     7
100
AcDbLine
 10
253.3770739187666
 20
193.2793666237
 30
0.0
 11
253.3770739187666
 21
189.7793666237
 31
0.0
  0
LINE
  5
384
330
224
100
AcDbEntity
  8
7_ALL_FEATURES
  6
Continuous
 62
     7
100
AcDbLine
 10
272.2770708731667
 20
216.5293683723667
 30
0.0
 11
272.7770721575666
 21
217.0293697079666
 31
0.0
  0
LINE
  5
385
330
224
100
AcDbEntity
  8
02___PRT_ALL_AXES
  6
Continuous
 62
     7
100
AcDbLine
 10
232.3770739187667
 20
173.7793666237
 30
0.0
 11
232.5559083107667
 21
173.9582010157
 31
0.0
  0
LINE
  5
386
330
224
100
AcDbEntity
  8
02___PRT_ALL_AXES
  6
Continuous
 62
     7
100
AcDbLine
 10
264.5919230821
 20
230.2793666237
 30
0.0
 11
252.0032941743666
 21
230.2793666237
 31
0.0
  0
LINE
  5
387
330
224
100
AcDbEntity
  8
02___PRT_ALL_AXES
  6
Continuous
 62
     7
100
AcDbLine
 10
198.7508536631666
 20
230.2793666237
 30
0.0
 11
186.1622247554333
 21
230.2793666237
 31
0.0
  0
LINE
  5
388
330
224
100
AcDbEntity
  8
02___PRT_ALL_AXES
  6
Continuous
 62
     7
100
AcDbLine
 10
198.6785891089
 20
230.6293666237
 30
0.0
 11
198.7508536631666
 21
230.6293666237
 31
0.0
  0
LINE
  5
389
330
224
100
AcDbEntity
  8
02___PRT_ALL_AXES
  6
Continuous
 62
     7
100
AcDbLine
 10
252.0032941743666
 20
230.6293666237
 30
0.0
 11
252.0755587286333
 21
230.6293666237
 31
0.0
  0
LINE
  5
38A
330
224
100
AcDbEntity
  8
7_ALL_FEATURES
  6
Continuous
 62
     7
100
AcDbLine
 10
256.3770739187667
 20
211.5293666237
 30
0.0
 11
256.3770739187667
 21
208.0293666237
 31
0.0
  0
LINE
  5
38B
330
224
100
AcDbEntity
  8
7_ALL_FEATURES
  6
Continuous
 62
     7
100
AcDbLine
 10
256.3770739187667
 20
205.2793666237
 30
0.0
 11
256.3770739187667
 21
201.7793666237
 31
0.0
  0
LINE
  5
38C
330
224
100
AcDbEntity
  8
02___PRT_ALL_AXES
  6
Continuous
 62
     7
100
AcDbLine
 10
191.9286062874333
 20
231.7793666237
 30
0.0
 11
198.7508536631666
 21
231.7793666237
 31
0.0
  0
LINE
  5
38D
330
224
100
AcDbEntity
  8
02___PRT_ALL_AXES
  6
Continuous
 62
     7
100
AcDbLine
 10
252.0032941743666
 20
231.7793666237
 30
0.0
 11
258.8255415501
 21
231.7793666237
 31
0.0
  0
LINE
  5
38E
330
224
100
AcDbEntity
  8
7_ALL_FEATURES
  6
Continuous
 62
     7
100
AcDbLine
 10
252.0032941743666
 20
232.7793666237
 30
0.0
 11
198.7508536631666
 21
232.7793666237
 31
0.0
  0
LINE
  5
38F
330
224
100
AcDbEntity
  8
7_ALL_FEATURES
  6
Continuous
 62
     7
100
AcDbLine
 10
272.7770739187666
 20
232.7793380267667
 30
0.0
 11
264.5919230821
 21
232.7793666237
 31
0.0
  0
LINE
  5
390
330
224
100
AcDbEntity
  8
7_ALL_FEATURES
  6
Continuous
 62
     7
100
AcDbLine
 10
186.1622247554333
 20
232.7793666237
 30
0.0
 11
177.9770739187666
 21
232.7793372686333
 31
0.0
  0
LINE
  5
391
330
224
100
AcDbEntity
  8
02___PRT_ALL_AXES
  6
Continuous
 62
     7
100
AcDbLine
 10
165.3770739187667
 20
233.2793666237
 30
0.0
 11
285.3770739187667
 21
233.2793666237
 31
0.0
  0
LINE
  5
392
330
224
100
AcDbEntity
  8
7_ALL_FEATURES
  6
Continuous
 62
     7
100
AcDbLine
 10
165.3770739187667
 20
234.2793666237
 30
0.0
 11
285.3770739187667
 21
234.2793666237
 31
0.0
  0
LINE
  5
393
330
224
100
AcDbEntity
  8
02___PRT_ALL_AXES
  6
Continuous
 62
     7
100
AcDbLine
 10
258.0755587286333
 20
230.2793666237
 30
0.0
 11
258.0755587286333
 21
231.7793666237
 31
0.0
  0
LINE
  5
394
330
224
100
AcDbEntity
  8
02___PRT_ALL_AXES
  6
Continuous
 62
     7
100
AcDbLine
 10
258.8255587286333
 20
231.7793666237
 30
0.0
 11
258.8255587286333
 21
233.2793666237
 31
0.0
  0
LINE
  5
395
330
224
100
AcDbEntity
  8
7_ALL_FEATURES
  6
Continuous
 62
     7
100
AcDbLine
 10
259.8770739187667
 20
215.5293661813
 30
0.0
 11
259.8770739187667
 21
211.5293666237
 31
0.0
  0
LINE
  5
396
330
224
100
AcDbEntity
  8
7_ALL_FEATURES
  6
Continuous
 62
     7
100
AcDbLine
 10
259.8770739187667
 20
208.0293666237
 30
0.0
 11
259.8770739187667
 21
205.2793666237
 31
0.0
  0
LINE
  5
397
330
224
100
AcDbEntity
  8
7_ALL_FEATURES
  6
Continuous
 62
     7
100
AcDbLine
 10
259.8770739187667
 20
201.7793666237
 30
0.0
 11
259.8770739187667
 21
199.2793666237
 31
0.0
  0
LINE
  5
398
330
224
100
AcDbEntity
  8
7_ALL_FEATURES
  6
Continuous
 62
     7
100
AcDbLine
 10
259.8770739187667
 20
195.7793666237
 30
0.0
 11
259.8770739187667
 21
193.2793666237
 31
0.0
  0
LINE
  5
399
330
224
100
AcDbEntity
  8
7_ALL_FEATURES
  6
Continuous
 62
     7
100
AcDbLine
 10
259.8770739187667
 20
189.7793666237
 30
0.0
 11
259.8770739187667
 21
186.7793681506333
 31
0.0
  0
LINE
  5
39A
330
224
100
AcDbEntity
  8
7_ALL_FEATURES
  6
Continuous
 62
     7
100
AcDbLine
 10
258.8770793869
 20
185.7793596902333
 30
0.0
 11
259.8770810681
 21
186.7793610012999
 31
0.0
  0
LINE
  5
39B
330
224
100
AcDbEntity
  8
7_ALL_FEATURES
  6
Continuous
 62
     7
100
AcDbLine
 10
167.3770739187667
 20
236.2793666237
 30
0.0
 11
283.3770739187667
 21
236.2793666237
 31
0.0
  0
LINE
  5
39C
330
224
100
AcDbEntity
  8
7_ALL_FEATURES
  6
Continuous
 62
     7
100
AcDbLine
 10
264.5919230821
 20
232.7793666237
 30
0.0
 11
264.5919230821
 21
230.2793666237
 31
0.0
  0
LINE
  5
39D
330
224
100
AcDbEntity
  8
02___PRT_ALL_AXES
  6
Continuous
 62
     7
100
AcDbLine
 10
272.7770739187666
 20
232.7793380267667
 30
0.0
 11
272.7770739187666
 21
217.0293679467666
 31
0.0
  0
LINE
  5
39E
330
224
100
AcDbEntity
  8
7_ALL_FEATURES
  6
Continuous
 62
     7
100
AcDbLine
 10
272.2770456235667
 20
233.2793666237
 30
0.0
 11
272.7770739187666
 21
232.7793380267667
 31
0.0
  0
LINE
  5
39F
330
224
100
AcDbEntity
  8
7_ALL_FEATURES
  6
Continuous
 62
     7
100
AcDbLine
 10
285.3770739187667
 20
233.2793666237
 30
0.0
 11
285.3770739187667
 21
234.2793666237
 31
0.0
  0
LINE
  5
3A0
330
224
100
AcDbEntity
  8
7_ALL_FEATURES
  6
Continuous
 62
     7
100
AcDbLine
 10
285.3770739187667
 20
234.2793666237
 30
0.0
 11
283.3770739187667
 21
236.2793666237
 31
0.0
  0
LINE
  5
3A1
330
224
100
AcDbEntity
  8
7_ALL_FEATURES
  6
Continuous
 62
     7
100
AcDbLine
 10
284.7691235554
 20
116.3878048078
 30
0.0
 11
284.7821648274
 21
117.0577731076
 31
0.0
  0
LINE
  5
3A2
330
224
100
AcDbEntity
  8
7_ALL_FEATURES
  6
Continuous
 62
     7
100
AcDbLine
 10
292.7910188256
 20
157.2018057328
 30
0.0
 11
284.7821648274
 21
117.0577731076
 31
0.0
  0
LINE
  5
3A3
330
224
100
AcDbEntity
  8
7_ALL_FEATURES
  6
Continuous
 62
     7
100
AcDbLine
 10
294.1774419282
 20
157.7894947339
 30
0.0
 11
286.43554973
 21
118.9835965296
 31
0.0
  0
LINE
  5
3A4
330
224
100
AcDbEntity
  8
7_ALL_FEATURES
  6
Continuous
 62
     7
100
AcDbLine
 10
292.7910188256
 20
157.2018057328
 30
0.0
 11
294.1774419282
 21
157.7894947339
 31
0.0
  0
LINE
  5
3A5
330
224
100
AcDbEntity
  8
02___PRT_ALL_AXES
  6
Continuous
 62
     7
100
AcDbLine
 10
298.5225138515
 20
137.9290534971
 30
0.0
 11
298.508141936
 21
137.7926263187
 31
0.0
  0
LINE
  5
3A6
330
224
100
AcDbEntity
  8
7_ALL_FEATURES
  6
Continuous
 62
     7
100
AcDbLine
 10
284.7821648274
 20
117.0577731076
 30
0.0
 11
286.43554973
 21
118.9835965296
 31
0.0
  0
LINE
  5
3A7
330
224
100
AcDbEntity
  8
7_ALL_FEATURES
  6
Continuous
 62
     7
100
AcDbLine
 10
311.1428571826
 20
96.8918710512
 30
0.0
 11
310.5043796483
 21
97.405151544
 31
0.0
  0
LINE
  5
3A8
330
224
100
AcDbEntity
  8
02___PRT_ALL_AXES
  6
Continuous
 62
     7
100
AcDbLine
 10
305.9916211446
 20
137.5131515566
 30
0.0
 11
306.0059930601
 21
137.649578735
 31
0.0
  0
LINE
  5
3A9
330
224
100
AcDbEntity
  8
7_ALL_FEATURES
  6
Continuous
 62
     7
100
AcDbLine
 10
307.2921890755
 20
112.587949732
 30
0.0
 11
307.2746917682
 21
111.6890618583
 31
0.0
  0
LINE
  5
3AA
330
224
100
AcDbEntity
  8
7_ALL_FEATURES
  6
Continuous
 62
     7
100
AcDbLine
 10
307.2290473162
 20
109.344172809
 30
0.0
 11
307.1964441362
 21
107.6692520595
 31
0.0
  0
LINE
  5
3AB
330
224
100
AcDbEntity
  8
7_ALL_FEATURES
  6
Continuous
 62
     7
100
AcDbLine
 10
307.1507996842
 20
105.3243630101
 30
0.0
 11
307.1116759021
 21
103.3144598495
 31
0.0
  0
LINE
  5
3AC
330
224
100
AcDbEntity
  8
02___PRT_ALL_AXES
  6
Continuous
 62
     7
100
AcDbLine
 10
310.3562911442
 20
135.1203617109
 30
0.0
 11
310.3476539609
 21
134.6766443374
 31
0.0
  0
LINE
  5
3AD
330
224
100
AcDbEntity
  8
7_ALL_FEATURES
  6
Continuous
 62
     7
100
AcDbLine
 10
310.0940770429
 20
136.100957892
 30
0.0
 11
310.186473361
 21
136.9442225652
 31
0.0
  0
LINE
  5
3AE
330
224
100
AcDbEntity
  8
02___PRT_ALL_AXES
  6
Continuous
 62
     7
100
AcDbLine
 10
284.7691235554
 20
116.3878048078
 30
0.0
 11
374.3984110728
 21
111.3969815215
 31
0.0
  0
LINE
  5
3AF
330
224
100
AcDbEntity
  8
7_ALL_FEATURES
  6
Continuous
 62
     7
100
AcDbLine
 10
284.7821648274
 20
117.0577731076
 30
0.0
 11
374.4114523448
 21
112.0669498213
 31
0.0
  0
LINE
  5
3B0
330
224
100
AcDbEntity
  8
7_ALL_FEATURES
  6
Continuous
 62
     7
100
AcDbLine
 10
286.43554973
 20
118.9835965296
 30
0.0
 11
373.0771943301
 21
114.1591340195
 31
0.0
  0
LINE
  5
3B1
330
224
100
AcDbEntity
  8
02___PRT_ALL_AXES
  6
Continuous
 62
     7
100
AcDbLine
 10
356.7978676113
 20
134.6053401243
 30
0.0
 11
356.9827991766
 21
134.624564625
 31
0.0
  0
LINE
  5
3B2
330
224
100
AcDbEntity
  8
02___PRT_ALL_AXES
  6
Continuous
 62
     7
100
AcDbLine
 10
356.8474840841
 20
134.2153871134
 30
0.0
 11
356.8385635225
 21
133.7571117619
 31
0.0
  0
LINE
  5
3B3
330
224
100
AcDbEntity
  8
7_ALL_FEATURES
  6
Continuous
 62
     7
100
AcDbLine
 10
357.1475199993
 20
135.1778081773
 30
0.0
 11
357.0551216253
 21
134.3344378884
 31
0.0
  0
LINE
  5
3B4
330
224
100
AcDbEntity
  8
7_ALL_FEATURES
  6
Continuous
 62
     7
100
AcDbLine
 10
359.0325979776
 20
111.5916047009
 30
0.0
 11
359.0148903626
 21
110.6819127094
 31
0.0
  0
LINE
  5
3B5
330
224
100
AcDbEntity
  8
7_ALL_FEATURES
  6
Continuous
 62
     7
100
AcDbLine
 10
358.9692459106
 20
108.3370236601
 30
0.0
 11
358.9366427306
 21
106.6621029106
 31
0.0
  0
LINE
  5
3B6
330
224
100
AcDbEntity
  8
7_ALL_FEATURES
  6
Continuous
 62
     7
100
AcDbLine
 10
358.8909982786
 20
104.3172138613
 30
0.0
 11
358.8518744965
 21
102.3073107006
 31
0.0
  0
LINE
  5
3B7
330
224
100
AcDbEntity
  8
02___PRT_ALL_AXES
  6
Continuous
 62
     7
100
AcDbLine
 10
361.2630151137
 20
134.4354771967
 30
0.0
 11
361.2486431982
 21
134.2990500183
 31
0.0
  0
LINE
  5
3B8
330
224
100
AcDbEntity
  8
7_ALL_FEATURES
  6
Continuous
 62
     7
100
AcDbLine
 10
374.4114523448
 20
112.0669498213
 30
0.0
 11
373.0771943301
 21
114.1591340195
 31
0.0
  0
LINE
  5
3B9
330
224
100
AcDbEntity
  8
7_ALL_FEATURES
  6
Continuous
 62
     7
100
AcDbLine
 10
380.8190865284
 20
152.9650322237
 30
0.0
 11
294.1774419282
 21
157.7894947339
 31
0.0
  0
LINE
  5
3BA
330
224
100
AcDbEntity
  8
02___PRT_ALL_AXES
  6
Continuous
 62
     7
100
AcDbLine
 10
368.7321224068
 20
134.0195752562
 30
0.0
 11
368.7464943223
 21
134.1560024346
 31
0.0
  0
LINE
  5
3BB
330
224
100
AcDbEntity
  8
7_ALL_FEATURES
  6
Continuous
 62
     7
100
AcDbLine
 10
354.5738058756
 20
96.046467268
 30
0.0
 11
355.2317703988
 21
96.5345085802
 31
0.0
  0
LINE
  5
3BC
330
224
100
AcDbEntity
  8
7_ALL_FEATURES
  6
Continuous
 62
     7
100
AcDbLine
 10
374.3984110728
 20
111.3969815215
 30
0.0
 11
374.4114523448
 21
112.0669498213
 31
0.0
  0
LINE
  5
3BD
330
224
100
AcDbEntity
  8
7_ALL_FEATURES
  6
Continuous
 62
     7
100
AcDbLine
 10
373.0771943301
 20
114.1591340195
 30
0.0
 11
380.8190865284
 21
152.9650322237
 31
0.0
  0
LINE
  5
3BE
330
224
100
AcDbEntity
  8
7_ALL_FEATURES
  6
Continuous
 62
     7
100
AcDbLine
 10
374.4114523448
 20
112.0669498213
 30
0.0
 11
382.420306343
 21
152.2109824465
 31
0.0
  0
LINE
  5
3BF
330
224
100
AcDbEntity
  8
02___PRT_ALL_AXES
  6
Continuous
 62
     7
100
AcDbLine
 10
374.3984110728
 20
111.3969815215
 30
0.0
 11
382.407265071
 21
151.5410141466
 31
0.0
  0
LINE
  5
3C0
330
224
100
AcDbEntity
  8
7_ALL_FEATURES
  6
Continuous
 62
     7
100
AcDbLine
 10
382.420306343
 20
152.2109824465
 30
0.0
 11
380.8190865284
 21
152.9650322237
 31
0.0
  0
LINE
  5
3C1
330
224
100
AcDbEntity
  8
7_ALL_FEATURES
  6
Continuous
 62
     7
100
AcDbLine
 10
382.407265071
 20
151.5410141466
 30
0.0
 11
382.420306343
 21
152.2109824465
 31
0.0
  0
CIRCLE
  5
3C2
330
224
100
AcDbEntity
  8
7_ALL_FEATURES
  6
Continuous
 62
     7
100
AcDbCircle
 10
91.18821022729998
 20
82.81916371592672
 30
0.0
 40
31.87500331093333
  0
CIRCLE
  5
3C3
330
224
100
AcDbEntity
  8
7_ALL_FEATURES
  6
Continuous
 62
     7
100
AcDbCircle
 10
91.18821022729998
 20
82.81916371592672
 30
0.0
 40
31.375
  0
CIRCLE
  5
3C4
330
224
100
AcDbEntity
  8
7_ALL_FEATURES
  6
Continuous
 62
     7
100
AcDbCircle
 10
91.18821022729998
 20
82.81916371592672
 30
0.0
 40
31.0
  0
CIRCLE
  5
3C5
330
224
100
AcDbEntity
  8
7_ALL_FEATURES
  6
Continuous
 62
     7
100
AcDbCircle
 10
91.18821022729998
 20
82.81916371592672
 30
0.0
 40
30.50000026533333
  0
CIRCLE
  5
3C6
330
224
100
AcDbEntity
  8
02___PRT_ALL_AXES
  6
Continuous
 62
     7
100
AcDbCircle
 10
49.18821022729996
 20
82.81916371592672
 30
0.0
 40
5.0
  0
CIRCLE
  5
3C7
330
224
100
AcDbEntity
  8
02___PRT_ALL_AXES
  6
Continuous
 62
     7
100
AcDbCircle
 10
133.1882102272999
 20
82.81916371592672
 30
0.0
 40
5.0
  0
CIRCLE
  5
3C8
330
224
100
AcDbEntity
  8
02___PRT_ALL_AXES
  6
Continuous
 62
     7
100
AcDbCircle
 10
133.1882102272999
 20
82.81916371592672
 30
0.0
 40
3.5
  0
CIRCLE
  5
3C9
330
224
100
AcDbEntity
  8
02___PRT_ALL_AXES
  6
Continuous
 62
     7
100
AcDbCircle
 10
49.18821022729996
 20
82.81916371592672
 30
0.0
 40
3.5
  0
ARC
  5
3CA
330
224
100
AcDbEntity
  8
7_ALL_FEATURES
  6
Continuous
 62
     7
100
AcDbCircle
 10
48.65148747343333
 20
251.9790885211667
 30
0.0
 40
24.93538471106666
100
AcDbArc
 50
309.647999365
 51
311.4159325296998
  0
ARC
  5
3CB
330
224
100
AcDbEntity
  8
7_ALL_FEATURES
  6
Continuous
 62
     7
100
AcDbCircle
 10
133.7190970111667
 20
251.9722631926333
 30
0.0
 40
24.92640559893333
100
AcDbArc
 50
228.5837490182
 51
230.3523190869999
  0
ARC
  5
3CC
330
224
100
AcDbEntity
  8
7_ALL_FEATURES
  6
Continuous
 62
     7
100
AcDbCircle
 10
62.77062157796667
 20
228.5587826321
 30
0.0
 40
11.59284968573333
100
AcDbArc
 50
155.9710679167998
 51
158.6497714450998
  0
ARC
  5
3CD
330
224
100
AcDbEntity
  8
7_ALL_FEATURES
  6
Continuous
 62
     7
100
AcDbCircle
 10
119.9438242515667
 20
228.7001094857
 30
0.0
 40
11.22657287386667
100
AcDbArc
 50
21.30652267070002
 51
24.07263796729988
  0
ARC
  5
3CE
330
224
100
AcDbEntity
  8
02___PRT_ALL_AXES
  6
Continuous
 62
     7
100
AcDbCircle
 10
94.6882102273
 20
173.2793666237
 30
0.0
 40
3.5
100
AcDbArc
 50
270.0
 51
0.0
  0
ARC
  5
3CF
330
224
100
AcDbEntity
  8
02___PRT_ALL_AXES
  6
Continuous
 62
     7
100
AcDbCircle
 10
87.6882102273
 20
173.2793666237
 30
0.0
 40
3.5
100
AcDbArc
 50
180.0
 51
270.0
  0
ARC
  5
3D0
330
224
100
AcDbEntity
  8
02___PRT_ALL_AXES
  6
Continuous
 62
     7
100
AcDbCircle
 10
84.59780007756666
 20
174.4319329691667
 30
0.0
 40
0.7455410386666667
100
AcDbArc
 50
238.2447371666997
 51
241.0795905091012
  0
ARC
  5
3D1
330
224
100
AcDbEntity
  8
7_ALL_FEATURES
  6
Continuous
 62
     7
100
AcDbCircle
 10
182.8239104457
 20
251.9983163973
 30
0.0
 40
24.960680092
100
AcDbArc
 50
309.6488952558001
 51
311.415036639
  0
ARC
  5
3D2
330
224
100
AcDbEntity
  8
7_ALL_FEATURES
  6
Continuous
 62
     7
100
AcDbCircle
 10
267.8901988769
 20
251.9514902457
 30
0.0
 40
24.89907759746666
100
AcDbArc
 50
228.5827783932999
 51
230.3532897119
  0
ARC
  5
3D3
330
224
100
AcDbEntity
  8
7_ALL_FEATURES
  6
Continuous
 62
     7
100
AcDbCircle
 10
196.9539925486333
 20
228.5610791134333
 30
0.0
 40
11.58689784293333
100
AcDbArc
 50
155.9703798064001
 51
158.6504595555002
  0
ARC
  5
3D4
330
224
100
AcDbEntity
  8
7_ALL_FEATURES
  6
Continuous
 62
     7
100
AcDbCircle
 10
254.1279961565
 20
228.6981478714333
 30
0.0
 40
11.23165674373333
100
AcDbArc
 50
21.30714881609994
 51
24.07201182189993
  0
ARC
  5
3D5
330
224
100
AcDbEntity
  8
02___PRT_ALL_AXES
  6
Continuous
 62
     7
100
AcDbCircle
 10
228.8770739187667
 20
173.2793666237
 30
0.0
 40
3.5
100
AcDbArc
 50
270.0
 51
0.0
  0
ARC
  5
3D6
330
224
100
AcDbEntity
  8
02___PRT_ALL_AXES
  6
Continuous
 62
     7
100
AcDbCircle
 10
221.8770739187667
 20
173.2793666237
 30
0.0
 40
3.5
100
AcDbArc
 50
180.0
 51
270.0
  0
ARC
  5
3D7
330
224
100
AcDbEntity
  8
02___PRT_ALL_AXES
  6
Continuous
 62
     7
100
AcDbCircle
 10
231.9674848011666
 20
174.4319316649
 30
0.0
 40
0.7455395426666667
100
AcDbArc
 50
298.9204086754991
 51
301.7552064422993
  0
ARC
  5
3D8
330
224
100
AcDbEntity
  8
7_ALL_FEATURES
  6
Continuous
 62
     7
100
AcDbCircle
 10
335.4862040072
 20
149.1856099072
 30
0.0
 40
45.5179177087
100
AcDbArc
 50
279.8955940801
 51
281.5168767794
  0
ARC
  5
3D9
330
224
100
AcDbEntity
  8
7_ALL_FEATURES
  6
Continuous
 62
     7
100
AcDbCircle
 10
335.7227834551
 20
148.0096404805
 30
0.0
 40
44.3183907834
100
AcDbArc
 50
281.5207214724999
 51
281.6559185291
  0
ARC
  5
3DA
330
224
100
AcDbEntity
  8
7_ALL_FEATURES
  6
Continuous
 62
     7
100
AcDbCircle
 10
335.8503415109
 20
147.3957152391
 30
0.0
 40
43.6913545412
100
AcDbArc
 50
281.6547462383
 51
282.2778511711
  0
ARC
  5
3DB
330
224
100
AcDbEntity
  8
7_ALL_FEATURES
  6
Continuous
 62
     7
100
AcDbCircle
 10
338.8175804341
 20
123.5166497861
 30
0.0
 40
31.7586404002
100
AcDbArc
 50
288.7683334759
 51
289.7985005818
  0
ARC
  5
3DC
330
224
100
AcDbEntity
  8
7_ALL_FEATURES
  6
Continuous
 62
     7
100
AcDbCircle
 10
321.3526986333
 20
140.8336438862
 30
0.0
 40
31.5095629109
100
AcDbArc
 50
241.0596102907
 51
241.6756186771
  0
ARC
  5
3DD
330
224
100
AcDbEntity
  8
7_ALL_FEATURES
  6
Continuous
 62
     7
100
AcDbCircle
 10
321.0213370345
 20
139.4948588003
 30
0.0
 40
30.2440821739
100
AcDbArc
 50
240.3445342715
 51
241.059923571
  0
ARC
  5
3DE
330
224
100
AcDbEntity
  8
7_ALL_FEATURES
  6
Continuous
 62
     7
100
AcDbCircle
 10
339.1662546701
 20
120.7808966274
 30
0.0
 40
29.2793032531
100
AcDbArc
 50
289.7925023954
 51
291.0334094152
  0
ARC
  5
3DF
330
224
100
AcDbEntity
  8
7_ALL_FEATURES
  6
Continuous
 62
     7
100
AcDbCircle
 10
345.3997954469
 20
109.8648896978
 30
0.0
 40
16.5646918678
100
AcDbArc
 50
303.5951501802
 51
303.8875229097
  0
ARC
  5
3E0
330
224
100
AcDbEntity
  8
7_ALL_FEATURES
  6
Continuous
 62
     7
100
AcDbCircle
 10
320.4337473269
 20
109.7767317388
 30
0.0
 40
15.86340304
100
AcDbArc
 50
231.2497043515
 51
234.1348647864
  0
ARC
  5
3E1
330
224
100
AcDbEntity
  8
7_ALL_FEATURES
  6
Continuous
 62
     7
100
AcDbCircle
 10
346.0227458018
 20
108.9546153942
 30
0.0
 40
15.4617105404
100
AcDbArc
 50
303.8519649154
 51
306.5496035174
  0
ARC
  5
3E2
330
224
100
AcDbEntity
  8
7_ALL_FEATURES
  6
Continuous
 62
     7
100
AcDbCircle
 10
321.4806492983
 20
130.3812132375
 30
0.0
 40
12.661936558
100
AcDbArc
 50
126.553377499
 51
128.4530571358
  0
ARC
  5
3E3
330
224
100
AcDbEntity
  8
7_ALL_FEATURES
  6
Continuous
 62
     7
100
AcDbCircle
 10
345.6565169981
 20
130.0446363061
 30
0.0
 40
12.490612648
100
AcDbArc
 50
49.27949091439999
 51
51.22341653579999
  0
ARC
  5
3E4
330
224
100
AcDbEntity
  8
7_ALL_FEATURES
  6
Continuous
 62
     7
100
AcDbCircle
 10
347.1553152628
 20
137.9196889505
 30
0.0
 40
10.4431066669
100
AcDbArc
 50
312.2470563984
 51
312.45994017
  0
ARC
  5
3E5
330
224
100
AcDbEntity
  8
7_ALL_FEATURES
  6
Continuous
 62
     7
100
AcDbCircle
 10
320.080918563
 20
138.3396715588
 30
0.0
 40
10.2950651867
100
AcDbArc
 50
224.5366700074
 51
225.4445816902
  0
ARC
  5
3E6
330
224
100
AcDbEntity
  8
7_ALL_FEATURES
  6
Continuous
 62
     9
100
AcDbCircle
 10
351.0621699139
 20
131.2567309385
 30
0.0
 40
6.5920274681
100
AcDbArc
 50
27.1242904932
 51
28.3469595454
  0
ARC
  5
3E7
330
224
100
AcDbEntity
  8
7_ALL_FEATURES
  6
Continuous
 62
     9
100
AcDbCircle
 10
316.0114208004
 20
131.9447376936
 30
0.0
 40
6.5798177757
100
AcDbArc
 50
149.7306688491
 51
150.5589377851
  0
ARC
  5
3E8
330
224
100
AcDbEntity
  8
7_ALL_FEATURES
  6
Continuous
 62
     9
100
AcDbCircle
 10
315.9413616688
 20
131.9844160287
 30
0.0
 40
6.4993029446
100
AcDbArc
 50
150.559980859
 51
150.8876524909
  0
ARC
  5
3E9
330
224
100
AcDbEntity
  8
7_ALL_FEATURES
  6
Continuous
 62
     9
100
AcDbCircle
 10
315.8381236353
 20
132.0414768642
 30
0.0
 40
6.3813458047
100
AcDbArc
 50
150.884280514
 51
152.3368461736
  0
ARC
  5
3EA
330
224
100
AcDbEntity
  8
7_ALL_FEATURES
  6
Continuous
 62
     9
100
AcDbCircle
 10
351.2556366596
 20
131.3551481352
 30
0.0
 40
6.3749649935
100
AcDbArc
 50
25.3484478669
 51
26.8966100652
  0
ARC
  5
3EB
330
224
100
AcDbEntity
  8
02___PRT_ALL_AXES
  6
Continuous
 62
     7
100
AcDbCircle
 10
315.5717961378
 20
134.1262170777
 30
0.0
 40
5.540508107
100
AcDbArc
 50
155.8200584886
 51
160.5259963537
  0
ARC
  5
3EC
330
224
100
AcDbEntity
  8
7_ALL_FEATURES
  6
Continuous
 62
     7
100
AcDbCircle
 10
353.5346774702
 20
112.5042834209
 30
0.0
 40
5.5175824599
100
AcDbArc
 50
342.0054879059
 51
349.9068997146001
  0
ARC
  5
3ED
330
224
100
AcDbEntity
  8
02___PRT_ALL_AXES
  6
Continuous
 62
     7
100
AcDbCircle
 10
351.6442639936
 20
133.4403788958
 30
0.0
 40
5.4911431345
100
AcDbArc
 50
17.0919991788
 51
20.39727890130001
  0
ARC
  5
3EE
330
224
100
AcDbEntity
  8
7_ALL_FEATURES
  6
Continuous
 62
     7
100
AcDbCircle
 10
353.657228246
 20
108.4351726842
 30
0.0
 40
5.3129100279
100
AcDbArc
 50
358.9482154858
 51
10.2178978956
  0
ARC
  5
3EF
330
224
100
AcDbEntity
  8
7_ALL_FEATURES
  6
Continuous
 62
     7
100
AcDbCircle
 10
353.578980614
 20
104.4153628854
 30
0.0
 40
5.3129100279
100
AcDbArc
 50
358.9482154858
 51
10.2178978956
  0
ARC
  5
3F0
330
224
100
AcDbEntity
  8
02___PRT_ALL_AXES
  6
Continuous
 62
     7
100
AcDbCircle
 10
351.9036590958
 20
133.5198085268
 30
0.0
 40
5.219859556
100
AcDbArc
 50
12.8892574856
 51
17.0954727082
  0
ARC
  5
3F1
330
224
100
AcDbEntity
  8
7_ALL_FEATURES
  6
Continuous
 62
     7
100
AcDbCircle
 10
352.4338684001
 20
135.6481592979
 30
0.0
 40
5.1001332043
100
AcDbArc
 50
344.0242608674
 51
348.6979273242999
  0
ARC
  5
3F2
330
224
100
AcDbEntity
  8
02___PRT_ALL_AXES
  6
Continuous
 62
     7
100
AcDbCircle
 10
352.0833589825
 20
133.5622942007
 30
0.0
 40
5.0352105699
100
AcDbArc
 50
10.7554350036
 51
12.8741235436
  0
ARC
  5
3F3
330
224
100
AcDbEntity
  8
02___PRT_ALL_AXES
  6
Continuous
 62
     7
100
AcDbCircle
 10
352.1691493164
 20
133.5787360986
 30
0.0
 40
4.9478590013
100
AcDbArc
 50
8.7773900176
 51
10.7537778746
  0
ARC
  5
3F4
330
224
100
AcDbEntity
  8
7_ALL_FEATURES
  6
Continuous
 62
     7
100
AcDbCircle
 10
352.0780654153
 20
134.3127419498
 30
0.0
 40
4.7704099796
100
AcDbArc
 50
347.9800844444
 51
358.8298701250001
  0
ARC
  5
3F5
330
224
100
AcDbEntity
  8
7_ALL_FEATURES
  6
Continuous
 62
     7
100
AcDbCircle
 10
315.0814498548
 20
135.0293212834
 30
0.0
 40
4.726033399
100
AcDbArc
 50
178.8954483536
 51
188.4426828783
  0
ARC
  5
3F6
330
224
100
AcDbEntity
  8
7_ALL_FEATURES
  6
Continuous
 62
     7
100
AcDbCircle
 10
352.1434030396
 20
134.3063869072
 30
0.0
 40
4.7049588803
100
AcDbArc
 50
358.8909956436
 51
3.6568078616
  0
ARC
  5
3F7
330
224
100
AcDbEntity
  8
02___PRT_ALL_AXES
  6
Continuous
 62
     7
100
AcDbCircle
 10
301.4209979834
 20
140.4860645816
 30
0.0
 40
4.3152673848
100
AcDbArc
 50
245.6341373162
 51
248.8067842109
  0
ARC
  5
3F8
330
224
100
AcDbEntity
  8
02___PRT_ALL_AXES
  6
Continuous
 62
     7
100
AcDbCircle
 10
364.1614992456
 20
136.9924882811
 30
0.0
 40
4.3152673848
100
AcDbArc
 50
245.6341373162
 51
248.8067842109
  0
ARC
  5
3F9
330
224
100
AcDbEntity
  8
02___PRT_ALL_AXES
  6
Continuous
 62
     7
100
AcDbCircle
 10
305.0556392975
 20
137.1417736466
 30
0.0
 40
0.9498330439
100
AcDbArc
 50
21.13021953
 51
26.652150419
  0
ARC
  5
3FA
330
224
100
AcDbEntity
  8
02___PRT_ALL_AXES
  6
Continuous
 62
     7
100
AcDbCircle
 10
367.7961405597
 20
133.6481973462
 30
0.0
 40
0.9498330439
100
AcDbArc
 50
21.1302195299
 51
26.652150419
  0
ARC
  5
3FB
330
224
100
AcDbEntity
  8
02___PRT_ALL_AXES
  6
Continuous
 62
     7
100
AcDbCircle
 10
299.3880826595
 20
137.8073766277
 30
0.0
 40
0.8839965497
100
AcDbArc
 50
198.7849176792
 51
200.7731951509
  0
ARC
  5
3FC
330
224
100
AcDbEntity
  8
02___PRT_ALL_AXES
  6
Continuous
 62
     7
100
AcDbCircle
 10
362.1285839218
 20
134.3138003274
 30
0.0
 40
0.8839965498
100
AcDbArc
 50
198.7849176793
 51
200.7731951506
  0
ARC
  5
3FD
330
224
100
AcDbEntity
  8
02___PRT_ALL_AXES
  6
Continuous
 62
     7
100
AcDbCircle
 10
305.1226043708
 20
137.1682424975
 30
0.0
 40
0.8778289123
100
AcDbArc
 50
17.3362886566
 51
21.0943851813
  0
ARC
  5
3FE
330
224
100
AcDbEntity
  8
02___PRT_ALL_AXES
  6
Continuous
 62
     7
100
AcDbCircle
 10
367.863105633
 20
133.6746661971
 30
0.0
 40
0.8778289124
100
AcDbArc
 50
17.3362886567
 51
21.0943851812
  0
SPLINE
  5
3FF
330
224
100
AcDbEntity
  8
02___PRT_ALL_AXES
  6
Continuous
 62
     7
100
AcDbSpline
210
0.0
220
0.0
230
1.0
 70
     8
 71
     3
 72
    10
 73
     6
 74
     0
 42
0.000000001
 43
0.0000001
 40
0.0
 40
0.0
 40
0.0
 40
0.0
 40
0.5432113531
 40
0.7835899175
 40
1.0
 40
1.0
 40
1.0
 40
1.0
 10
98.91561683756666
 20
174.7793666237
 30
0.0
 10
98.83248894156668
 20
174.6187758605
 30
0.0
 10
98.70452618316665
 20
174.3906499175666
 30
0.0
 10
98.5119225345
 20
174.1188025003667
 30
0.0
 10
98.41221957996666
 20
174.0034232365
 30
0.0
 10
98.36130330809999
 20
173.9524580651666
 30
0.0
  0
SPLINE
  5
400
330
224
100
AcDbEntity
  8
02___PRT_ALL_AXES
  6
Continuous
 62
     7
100
AcDbSpline
210
0.0
220
0.0
230
1.0
 70
     8
 71
     3
 72
    10
 73
     6
 74
     0
 42
0.000000001
 43
0.0000001
 40
0.0
 40
0.0
 40
0.0
 40
0.0
 40
0.5432113531
 40
0.7835899175
 40
1.0
 40
1.0
 40
1.0
 40
1.0
 10
83.4608036169
 20
174.7793666237
 30
0.0
 10
83.5439315129
 20
174.6187758605
 30
0.0
 10
83.67189427143333
 20
174.3906499175666
 30
0.0
 10
83.86449791996665
 20
174.1188025003667
 30
0.0
 10
83.96420087463332
 20
174.0034232365
 30
0.0
 10
84.01511714636666
 20
173.9524580651666
 30
0.0
  0
SPLINE
  5
401
330
224
100
AcDbEntity
  8
02___PRT_ALL_AXES
  6
Continuous
 62
     7
100
AcDbSpline
210
0.0
220
0.0
230
1.0
 70
     8
 71
     3
 72
    23
 73
    19
 74
     0
 42
0.000000001
 43
0.0000001
 40
0.0
 40
0.0
 40
0.0
 40
0.0
 40
0.1041170889
 40
0.1987311506
 40
0.2791747916
 40
0.3449979218
 40
0.3976280174
 40
0.4391112132
 40
0.4720285887
 40
0.5000276534
 40
0.5280319966
 40
0.5609638799
 40
0.6024544255
 40
0.6550865092
 40
0.720913556
 40
0.8013534514
 40
0.8959302724
 40
1.0
 40
1.0
 40
1.0
 40
1.0
 10
84.23726075223334
 20
173.2793666237
 30
0.0
 10
84.23726075223334
 20
173.2240126445
 30
0.0
 10
84.24174872356667
 20
173.1182938450333
 30
0.0
 10
84.26096446196667
 20
172.9709249585
 30
0.0
 10
84.28949547756667
 20
172.8458530102333
 30
0.0
 10
84.32425109823333
 20
172.7457176454333
 30
0.0
 10
84.36298532343335
 20
172.6696291174333
 30
0.0
 10
84.40447544116665
 20
172.6157014390333
 30
0.0
 10
84.44865043556666
 20
172.5822339509
 30
0.0
 10
84.49612877956667
 20
172.5703260449
 30
0.0
 10
84.54360722676665
 20
172.5822724441
 30
0.0
 10
84.58776066903334
 20
172.6157915653
 30
0.0
 10
84.62923641756666
 20
172.6697421631667
 30
0.0
 10
84.66796363610001
 20
172.7458425191666
 30
0.0
 10
84.7027025113
 20
172.8459849042333
 30
0.0
 10
84.73121244103334
 20
172.9710411137
 30
0.0
 10
84.75041433370001
 20
173.1183640566333
 30
0.0
 10
84.75489884249998
 20
173.2240378241
 30
0.0
 10
84.75489884249998
 20
173.2793666237
 30
0.0
  0
SPLINE
  5
402
330
224
100
AcDbEntity
  8
02___PRT_ALL_AXES
  6
Continuous
 62
     7
100
AcDbSpline
210
0.0
220
0.0
230
1.0
 70
     8
 71
     3
 72
    10
 73
     6
 74
     0
 42
0.000000001
 43
0.0000001
 40
0.0
 40
0.0
 40
0.0
 40
0.0
 40
0.2421734631
 40
0.6149310735
 40
1.0
 40
1.0
 40
1.0
 40
1.0
 10
96.79429649396667
 20
173.7793666237
 30
0.0
 10
96.98105311169999
 20
173.8170971582333
 30
0.0
 10
97.44842277116666
 20
173.9490042739667
 30
0.0
 10
98.16519679796667
 20
174.2820209830333
 30
0.0
 10
98.66825691263332
 20
174.6044567434333
 30
0.0
 10
98.91561683756666
 20
174.7793666237
 30
0.0
  0
SPLINE
  5
403
330
224
100
AcDbEntity
  8
02___PRT_ALL_AXES
  6
Continuous
 62
     7
100
AcDbSpline
210
0.0
220
0.0
230
1.0
 70
     8
 71
     3
 72
    17
 73
    13
 74
     0
 42
0.000000001
 43
0.0000001
 40
0.0
 40
0.0
 40
0.0
 40
0.0
 40
0.0756330934
 40
0.1477259157
 40
0.2767176744
 40
0.3915979064
 40
0.500051026
 40
0.6084998144
 40
0.7233726472
 40
0.8523499488
 40
0.9244006269
 40
1.0
 40
1.0
 40
1.0
 40
1.0
 10
95.3800829317
 20
173.2793666237
 30
0.0
 10
95.3800829317
 20
173.2236802849
 30
0.0
 10
95.39309449556666
 20
173.1144324241
 30
0.0
 10
95.46329725436667
 20
172.9216771589
 30
0.0
 10
95.61156440596665
 20
172.7331832330333
 30
0.0
 10
95.84186894250001
 20
172.6021968870333
 30
0.0
 10
96.0873024393
 20
172.5604077903666
 30
0.0
 10
96.33271169823334
 20
172.6022820601
 30
0.0
 10
96.56297154836665
 20
172.7333084910333
 30
0.0
 10
96.7111455289
 20
172.9218140375667
 30
0.0
 10
96.78129693863332
 20
173.1145132882333
 30
0.0
 10
96.79429649396667
 20
173.2237051121
 30
0.0
 10
96.79429649396667
 20
173.2793666237
 30
0.0
  0
SPLINE
  5
404
330
224
100
AcDbEntity
  8
02___PRT_ALL_AXES
  6
Continuous
 62
     7
100
AcDbSpline
210
0.0
220
0.0
230
1.0
 70
     8
 71
     3
 72
    10
 73
     6
 74
     0
 42
0.000000001
 43
0.0000001
 40
0.0
 40
0.0
 40
0.0
 40
0.0
 40
0.2494403395
 40
0.4992795929
 40
1.0
 40
1.0
 40
1.0
 40
1.0
 10
90.36098510916668
 20
173.7793666237
 30
0.0
 10
90.61414020703333
 20
173.8168074011666
 30
0.0
 10
91.11701538583333
 20
173.9202119689
 30
0.0
 10
92.09783458583334
 20
174.2249465465
 30
0.0
 10
92.80255458236667
 20
174.5432159829
 30
0.0
 10
93.25876258810001
 20
174.7793666237
 30
0.0
  0
SPLINE
  5
405
330
224
100
AcDbEntity
  8
02___PRT_ALL_AXES
  6
Continuous
 62
     7
100
AcDbSpline
210
0.0
220
0.0
230
1.0
 70
     8
 71
     3
 72
    19
 73
    15
 74
     0
 42
0.000000001
 43
0.0000001
 40
0.0
 40
0.0
 40
0.0
 40
0.0
 40
0.0638036974
 40
0.1272626836
 40
0.1902376798
 40
0.2527732141
 40
0.3766396511
 40
0.5000560147
 40
0.6234651895
 40
0.7473195124
 40
0.8098500054
 40
0.8728049193
 40
0.9362224762
 40
1.0
 40
1.0
 40
1.0
 40
1.0
 10
88.42913345663334
 20
173.2793666237
 30
0.0
 10
88.42913345663334
 20
173.2233462093
 30
0.0
 10
88.44782525236667
 20
173.1108462639666
 30
0.0
 10
88.5246347037
 20
172.9601627957
 30
0.0
 10
88.6357316045
 20
172.8349319722333
 30
0.0
 10
88.81257862543333
 20
172.7038451626333
 30
0.0
 10
89.06900996796668
 20
172.6003561598333
 30
0.0
 10
89.3952028621
 20
172.5609488638333
 30
0.0
 10
89.72137334516668
 20
172.6004353522333
 30
0.0
 10
89.97776594996668
 20
172.7039617838333
 30
0.0
 10
90.15455455036667
 20
172.8350761683666
 30
0.0
 10
90.26556337356666
 20
172.9603053442333
 30
0.0
 10
90.34231176876665
 20
173.1109284673
 30
0.0
 10
90.36098510916668
 20
173.2233691899667
 30
0.0
 10
90.36098510916668
 20
173.2793666237
 30
0.0
  0
SPLINE
  5
406
330
224
100
AcDbEntity
  8
02___PRT_ALL_AXES
  6
Continuous
 62
     7
100
AcDbSpline
210
0.0
220
0.0
230
1.0
 70
     8
 71
     3
 72
    10
 73
     6
 74
     0
 42
0.000000001
 43
0.0000001
 40
0.0
 40
0.0
 40
0.0
 40
0.0
 40
0.5007204287
 40
0.7505596794
 40
1.0
 40
1.0
 40
1.0
 40
1.0
 10
85.53135597783333
 20
174.7793666237
 30
0.0
 10
85.98756400316665
 20
174.5432159727667
 30
0.0
 10
86.69228401729998
 20
174.2249465267666
 30
0.0
 10
87.67310322076668
 20
173.9202119601
 30
0.0
 10
88.17597837796666
 20
173.8168073983666
 30
0.0
 10
88.42913345663334
 20
173.7793666237
 30
0.0
  0
SPLINE
  5
407
330
224
100
AcDbEntity
  8
02___PRT_ALL_AXES
  6
Continuous
 62
     7
100
AcDbSpline
210
0.0
220
0.0
230
1.0
 70
     8
 71
     3
 72
     9
 73
     5
 74
     0
 42
0.000000001
 43
0.0000001
 40
0.0
 40
0.0
 40
0.0
 40
0.0
 40
0.2660030251
 40
1.0
 40
1.0
 40
1.0
 40
1.0
 10
84.01511714636666
 20
173.9524580651666
 30
0.0
 10
84.03049527183333
 20
173.9370651706333
 30
0.0
 10
84.08957383383333
 20
173.8805279786333
 30
0.0
 10
84.15436347956665
 20
173.8295740399666
 30
0.0
 10
84.20542777129998
 20
173.7979965263667
 30
0.0
  0
SPLINE
  5
408
330
224
100
AcDbEntity
  8
02___PRT_ALL_AXES
  6
Continuous
 62
     7
100
AcDbSpline
210
0.0
220
0.0
230
1.0
 70
     8
 71
     3
 72
    10
 73
     6
 74
     0
 42
0.000000001
 43
0.0000001
 40
0.0
 40
0.0
 40
0.0
 40
0.0
 40
0.258124603
 40
0.6351527744
 40
1.0
 40
1.0
 40
1.0
 40
1.0
 10
93.25876258810001
 20
174.7793666237
 30
0.0
 10
93.42454696076666
 20
174.6621393695667
 30
0.0
 10
93.8415458481
 20
174.3862566679666
 30
0.0
 10
94.53922317676665
 20
174.0178091850333
 30
0.0
 10
95.0987738073
 20
173.8361996493
 30
0.0
 10
95.3800829317
 20
173.7793666237
 30
0.0
  0
SPLINE
  5
409
330
224
100
AcDbEntity
  8
02___PRT_ALL_AXES
  6
Continuous
 62
     7
100
AcDbSpline
210
0.0
220
0.0
230
1.0
 70
     8
 71
     3
 72
    11
 73
     7
 74
     0
 42
0.000000001
 43
0.0000001
 40
0.0
 40
0.0
 40
0.0
 40
0.0
 40
0.1976182287
 40
0.4318039509
 40
0.7009288274
 40
1.0
 40
1.0
 40
1.0
 40
1.0
 10
84.75489884249998
 20
173.7793666237
 30
0.0
 10
84.82874142516667
 20
173.8201245995667
 30
0.0
 10
84.9744283521
 20
173.9370850130333
 30
0.0
 10
85.16749298263335
 20
174.1665874814333
 30
0.0
 10
85.35572912356668
 20
174.4533807330333
 30
0.0
 10
85.47267762156667
 20
174.6660087443666
 30
0.0
 10
85.53135597783333
 20
174.7793666237
 30
0.0
  0
SPLINE
  5
40A
330
224
100
AcDbEntity
  8
02___PRT_ALL_AXES
  6
Continuous
 62
     7
100
AcDbSpline
210
0.0
220
0.0
230
1.0
 70
     8
 71
     3
 72
    10
 73
     6
 74
     0
 42
0.000000001
 43
0.0000001
 40
0.0
 40
0.0
 40
0.0
 40
0.0
 40
0.2164101934
 40
0.456788783
 40
1.0
 40
1.0
 40
1.0
 40
1.0
 10
232.5501682554333
 20
173.9524593195666
 30
0.0
 10
232.6010844034333
 20
174.0034244861
 30
0.0
 10
232.7007871058333
 20
174.1188036655666
 30
0.0
 10
232.8933903042333
 20
174.3906506745
 30
0.0
 10
233.0213528013
 20
174.6187761855667
 30
0.0
 10
233.1044805290333
 20
174.7793666237
 30
0.0
  0
SPLINE
  5
40B
330
224
100
AcDbEntity
  8
02___PRT_ALL_AXES
  6
Continuous
 62
     7
100
AcDbSpline
210
0.0
220
0.0
230
1.0
 70
     8
 71
     3
 72
    10
 73
     6
 74
     0
 42
0.000000001
 43
0.0000001
 40
0.0
 40
0.0
 40
0.0
 40
0.0
 40
0.2164101934
 40
0.456788783
 40
1.0
 40
1.0
 40
1.0
 40
1.0
 10
218.2039795821
 20
173.9524593195666
 30
0.0
 10
218.1530634341
 20
174.0034244861
 30
0.0
 10
218.0533607317
 20
174.1188036655666
 30
0.0
 10
217.8607575333
 20
174.3906506745
 30
0.0
 10
217.7327950362333
 20
174.6187761855667
 30
0.0
 10
217.6496673085
 20
174.7793666237
 30
0.0
  0
SPLINE
  5
40C
330
224
100
AcDbEntity
  8
02___PRT_ALL_AXES
  6
Continuous
 62
     7
100
AcDbSpline
210
0.0
220
0.0
230
1.0
 70
     8
 71
     3
 72
    19
 73
    15
 74
     0
 42
0.000000001
 43
0.0000001
 40
0.0
 40
0.0
 40
0.0
 40
0.0
 40
0.0638114962
 40
0.1272689962
 40
0.1902443843
 40
0.2527839854
 40
0.3766579829
 40
0.5000634573
 40
0.6234641555
 40
0.7473062116
 40
0.8098329522
 40
0.8727912221
 40
0.9362181193
 40
1.0
 40
1.0
 40
1.0
 40
1.0
 10
226.2042990367667
 20
173.2793666237
 30
0.0
 10
226.2042990367667
 20
173.2233393693
 30
0.0
 10
226.2229922369
 20
173.1108331702333
 30
0.0
 10
226.2998120878333
 20
172.9601483947666
 30
0.0
 10
226.4109128809
 20
172.8349181059667
 30
0.0
 10
226.5877709337
 20
172.7038277277
 30
0.0
 10
226.8442086381
 20
172.6003519421
 30
0.0
 10
227.1703903067666
 20
172.5609495441
 30
0.0
 10
227.4965327526333
 20
172.6004367271667
 30
0.0
 10
227.7529046894333
 20
172.7039522871667
 30
0.0
 10
227.9296904447666
 20
172.8350506562333
 30
0.0
 10
228.0407145998333
 20
172.9602771955667
 30
0.0
 10
228.1174732558333
 20
173.1109128987666
 30
0.0
 10
228.1361506894333
 20
173.2233653721
 30
0.0
 10
228.1361506894333
 20
173.2793666237
 30
0.0
  0
SPLINE
  5
40D
330
224
100
AcDbEntity
  8
02___PRT_ALL_AXES
  6
Continuous
 62
     7
100
AcDbSpline
210
0.0
220
0.0
230
1.0
 70
     8
 71
     3
 72
    10
 73
     6
 74
     0
 42
0.000000001
 43
0.0000001
 40
0.0
 40
0.0
 40
0.0
 40
0.0
 40
0.258124603
 40
0.6351527744
 40
1.0
 40
1.0
 40
1.0
 40
1.0
 10
217.6496673085
 20
174.7793666237
 30
0.0
 10
217.8154516811666
 20
174.6621393695667
 30
0.0
 10
218.2324505685
 20
174.3862566679666
 30
0.0
 10
218.9301278971667
 20
174.0178091850333
 30
0.0
 10
219.4896785277
 20
173.8361996493
 30
0.0
 10
219.7709876519666
 20
173.7793666237
 30
0.0
  0
SPLINE
  5
40E
330
224
100
AcDbEntity
  8
02___PRT_ALL_AXES
  6
Continuous
 62
     7
100
AcDbSpline
210
0.0
220
0.0
230
1.0
 70
     8
 71
     3
 72
     9
 73
     5
 74
     0
 42
0.000000001
 43
0.0000001
 40
0.0
 40
0.0
 40
0.0
 40
0.0
 40
0.2347660415
 40
1.0
 40
1.0
 40
1.0
 40
1.0
 10
232.3598556962333
 20
173.7979961078333
 30
0.0
 10
232.3761910945
 20
173.8080976901
 30
0.0
 10
232.4441883273
 20
173.8536917421
 30
0.0
 10
232.5059214726333
 20
173.9081699389
 30
0.0
 10
232.5501682554333
 20
173.9524593195666
 30
0.0
  0
SPLINE
  5
40F
330
224
100
AcDbEntity
  8
02___PRT_ALL_AXES
  6
Continuous
 62
     7
100
AcDbSpline
210
0.0
220
0.0
230
1.0
 70
     8
 71
     3
 72
    10
 73
     6
 74
     0
 42
0.000000001
 43
0.0000001
 40
0.0
 40
0.0
 40
0.0
 40
0.0
 40
0.2421734631
 40
0.6149310735
 40
1.0
 40
1.0
 40
1.0
 40
1.0
 10
221.1852012143667
 20
173.7793666237
 30
0.0
 10
221.3719578321
 20
173.8170971582333
 30
0.0
 10
221.8393274915666
 20
173.9490042739667
 30
0.0
 10
222.5561015183666
 20
174.2820209830333
 30
0.0
 10
223.0591616330333
 20
174.6044567434333
 30
0.0
 10
223.3065215579666
 20
174.7793666237
 30
0.0
  0
SPLINE
  5
410
330
224
100
AcDbEntity
  8
02___PRT_ALL_AXES
  6
Continuous
 62
     7
100
AcDbSpline
210
0.0
220
0.0
230
1.0
 70
     8
 71
     3
 72
    17
 73
    13
 74
     0
 42
0.000000001
 43
0.0000001
 40
0.0
 40
0.0
 40
0.0
 40
0.0
 40
0.0756330934
 40
0.1477259157
 40
0.2767176744
 40
0.3915979064
 40
0.500051026
 40
0.6084998144
 40
0.7233726472
 40
0.8523499488
 40
0.9244006269
 40
1.0
 40
1.0
 40
1.0
 40
1.0
 10
219.7709876519666
 20
173.2793666237
 30
0.0
 10
219.7709876519666
 20
173.2236802849
 30
0.0
 10
219.7839992159666
 20
173.1144324241
 30
0.0
 10
219.8542019747667
 20
172.9216771589
 30
0.0
 10
220.0024691263667
 20
172.7331832330333
 30
0.0
 10
220.2327736627667
 20
172.6021968870333
 30
0.0
 10
220.4782071595666
 20
172.5604077903666
 30
0.0
 10
220.7236164186333
 20
172.6022820601
 30
0.0
 10
220.9538762687666
 20
172.7333084910333
 30
0.0
 10
221.1020502493
 20
172.9218140375667
 30
0.0
 10
221.1722016590333
 20
173.1145132882333
 30
0.0
 10
221.1852012143667
 20
173.2237051121
 30
0.0
 10
221.1852012143667
 20
173.2793666237
 30
0.0
  0
SPLINE
  5
411
330
224
100
AcDbEntity
  8
02___PRT_ALL_AXES
  6
Continuous
 62
     7
100
AcDbSpline
210
0.0
220
0.0
230
1.0
 70
     8
 71
     3
 72
    23
 73
    19
 74
     0
 42
0.000000001
 43
0.0000001
 40
0.0
 40
0.0
 40
0.0
 40
0.0
 40
0.1041045604
 40
0.198722586
 40
0.2791671156
 40
0.344987429
 40
0.3976144983
 40
0.4391006973
 40
0.4720229716
 40
0.500024351
 40
0.5280300251
 40
0.560964335
 40
0.6024594955
 40
0.6550984182
 40
0.7209332483
 40
0.8013730741
 40
0.8959372264
 40
1.0
 40
1.0
 40
1.0
 40
1.0
 10
231.8103853035666
 20
173.2793666237
 30
0.0
 10
231.8103853035666
 20
173.2240192890333
 30
0.0
 10
231.8148731891666
 20
173.1183051066333
 30
0.0
 10
231.8340858155666
 20
172.9709398163667
 30
0.0
 10
231.8626163418333
 20
172.8458667597
 30
0.0
 10
231.8973687451667
 20
172.7457327154333
 30
0.0
 10
231.9361033986333
 20
172.6696466589
 30
0.0
 10
231.9775872834333
 20
172.6157111783667
 30
0.0
 10
232.0217649375666
 20
172.5822370009
 30
0.0
 10
232.0692472333
 20
172.5703264257
 30
0.0
 10
232.1167299277
 20
172.5822699213
 30
0.0
 10
232.1608871658333
 20
172.6157924421
 30
0.0
 10
232.2023661071667
 20
172.6697497958333
 30
0.0
 10
232.2410971553
 20
172.7458598394333
 30
0.0
 10
232.2758345222333
 20
172.8460110855667
 30
0.0
 10
232.3043399950333
 20
172.9710655097
 30
0.0
 10
232.3235399174333
 20
173.1183781107667
 30
0.0
 10
232.3280233938333
 20
173.2240415051667
 30
0.0
 10
232.3280233938333
 20
173.2793666237
 30
0.0
  0
SPLINE
  5
412
330
224
100
AcDbEntity
  8
02___PRT_ALL_AXES
  6
Continuous
 62
     7
100
AcDbSpline
210
0.0
220
0.0
230
1.0
 70
     8
 71
     3
 72
    11
 73
     7
 74
     0
 42
0.000000001
 43
0.0000001
 40
0.0
 40
0.0
 40
0.0
 40
0.0
 40
0.299071183
 40
0.5681960717
 40
0.8023817875
 40
1.0
 40
1.0
 40
1.0
 40
1.0
 10
231.0339281682333
 20
174.7793666237
 30
0.0
 10
231.0926065265
 20
174.6660087403667
 30
0.0
 10
231.2095550281
 20
174.4533807198333
 30
0.0
 10
231.3977911746333
 20
174.1665874633
 30
0.0
 10
231.5908558065
 20
173.9370850015666
 30
0.0
 10
231.7365427269
 20
173.8201245962333
 30
0.0
 10
231.8103853035666
 20
173.7793666237
 30
0.0
  0
SPLINE
  5
413
330
224
100
AcDbEntity
  8
02___PRT_ALL_AXES
  6
Continuous
 62
     7
100
AcDbSpline
210
0.0
220
0.0
230
1.0
 70
     8
 71
     3
 72
    10
 73
     6
 74
     0
 42
0.000000001
 43
0.0000001
 40
0.0
 40
0.0
 40
0.0
 40
0.0
 40
0.5007204287
 40
0.7505596794
 40
1.0
 40
1.0
 40
1.0
 40
1.0
 10
223.3065215579666
 20
174.7793666237
 30
0.0
 10
223.7627295833
 20
174.5432159727667
 30
0.0
 10
224.4674495974333
 20
174.2249465267666
 30
0.0
 10
225.4482688009
 20
173.9202119601
 30
0.0
 10
225.9511439581
 20
173.8168073983666
 30
0.0
 10
226.2042990367667
 20
173.7793666237
 30
0.0
  0
SPLINE
  5
414
330
224
100
AcDbEntity
  8
02___PRT_ALL_AXES
  6
Continuous
 62
     7
100
AcDbSpline
210
0.0
220
0.0
230
1.0
 70
     8
 71
     3
 72
    10
 73
     6
 74
     0
 42
0.000000001
 43
0.0000001
 40
0.0
 40
0.0
 40
0.0
 40
0.0
 40
0.2494403395
 40
0.4992795929
 40
1.0
 40
1.0
 40
1.0
 40
1.0
 10
228.1361506894333
 20
173.7793666237
 30
0.0
 10
228.3893057871666
 20
173.8168074011666
 30
0.0
 10
228.8921809661
 20
173.9202119689
 30
0.0
 10
229.8730001659667
 20
174.2249465465
 30
0.0
 10
230.5777201626333
 20
174.5432159829
 30
0.0
 10
231.0339281682333
 20
174.7793666237
 30
0.0
  0
SPLINE
  5
415
330
224
100
AcDbEntity
  8
02___PRT_ALL_AXES
  6
Continuous
 62
     7
100
AcDbSpline
 70
     0
 71
     3
 72
     9
 73
     5
 74
     0
 42
0.000000001
 43
0.0000001
 40
0.0
 40
0.0
 40
0.0
 40
0.0
 40
0.2494808282
 40
1.0
 40
1.0
 40
1.0
 40
1.0
 10
328.9987623711
 20
91.080548499
 30
0.0
 10
329.0402072745
 20
91.0495844967
 30
0.0
 10
329.2085857882
 20
90.9285018958
 30
0.0
 10
329.3855396917
 20
90.8194628442
 30
0.0
 10
329.5217365566
 20
90.7441480534
 30
0.0
  0
SPLINE
  5
416
330
224
100
AcDbEntity
  8
02___PRT_ALL_AXES
  6
Continuous
 62
     7
100
AcDbSpline
 70
     0
 71
     3
 72
    15
 73
    11
 74
     0
 42
0.000000001
 43
0.0000001
 40
0.0
 40
0.0
 40
0.0
 40
0.0
 40
0.1208154983
 40
0.2453481743
 40
0.3737173271
 40
0.5039347362
 40
0.6331197202
 40
0.7588920424
 40
0.8806574653
 40
1.0
 40
1.0
 40
1.0
 40
1.0
 10
329.5217365566
 20
90.7441480534
 30
0.0
 10
329.7781072346
 20
90.6023789753
 30
0.0
 10
330.3250440156
 20
90.3605979917
 30
0.0
 10
331.2003835751
 20
90.117026114
 30
0.0
 10
332.1213012021
 20
89.97929298
 30
0.0
 10
333.0628936871
 20
89.94556614
 30
0.0
 10
333.9962256113
 20
90.0160087963
 30
0.0
 10
334.8949627376
 20
90.1929363825
 30
0.0
 10
335.7391127042
 20
90.4831492333
 30
0.0
 10
336.2563234502
 20
90.7642385579
 30
0.0
 10
336.4952204592
 20
90.9275562145
 30
0.0
  0
SPLINE
  5
417
330
224
100
AcDbEntity
  8
7_ALL_FEATURES
  6
Continuous
 62
     7
100
AcDbSpline
 70
     0
 71
     3
 72
     9
 73
     5
 74
     0
 42
0.000000001
 43
0.0000001
 40
0.0
 40
0.0
 40
0.0
 40
0.0
 40
0.2610168268
 40
1.0
 40
1.0
 40
1.0
 40
1.0
 10
318.9393412701
 20
143.1146308572
 30
0.0
 10
318.6831835621
 20
143.0224049571
 30
0.0
 10
317.7071952774
 20
142.6545116913
 30
0.0
 10
316.75300891
 20
142.2269008774
 30
0.0
 10
316.0694918867
 20
141.8706222079
 30
0.0
  0
SPLINE
  5
418
330
224
100
AcDbEntity
  8
7_ALL_FEATURES
  6
Continuous
 62
     7
100
AcDbSpline
 70
     0
 71
     3
 72
     9
 73
     5
 74
     0
 42
0.000000001
 43
0.0000001
 40
0.0
 40
0.0
 40
0.0
 40
0.0
 40
0.2623270847
 40
1.0
 40
1.0
 40
1.0
 40
1.0
 10
316.0694918867
 20
141.8706222079
 30
0.0
 10
315.8751616788
 20
141.7693288889
 30
0.0
 10
315.1410945966
 20
141.3706430195
 30
0.0
 10
314.4345536038
 20
140.9196454586
 30
0.0
 10
313.9395618625
 20
140.5525768474
 30
0.0
  0
SPLINE
  5
419
330
224
100
AcDbEntity
  8
7_ALL_FEATURES
  6
Continuous
 62
     7
100
AcDbSpline
 70
     0
 71
     3
 72
    17
 73
    13
 74
     0
 42
0.000000001
 43
0.0000001
 40
0.0
 40
0.0
 40
0.0
 40
0.0
 40
0.0464021981
 40
0.0969802077
 40
0.1515744574
 40
0.2098862339
 40
0.335892325
 40
0.4709162104
 40
0.6100156036
 40
0.7479253339
 40
0.8794690913
 40
1.0
 40
1.0
 40
1.0
 40
1.0
 10
353.4792034256
 20
139.782242859
 30
0.0
 10
353.047255583
 20
140.1294742233
 30
0.0
 10
352.098161969
 20
140.7984360521
 30
0.0
 10
350.5191965789
 20
141.6887253738
 30
0.0
 10
348.740743302
 20
142.4999755489
 30
0.0
 10
346.0617988567
 20
143.488690853
 30
0.0
 10
342.3594574896
 20
144.447027885
 30
0.0
 10
337.6227539269
 20
145.1380343305
 30
0.0
 10
332.6989854124
 20
145.3647287393
 30
0.0
 10
327.8175376821
 20
145.1164163755
 30
0.0
 10
323.2061439605
 20
144.4054889336
 30
0.0
 10
320.2938033314
 20
143.6022854547
 30
0.0
 10
318.9393412701
 20
143.1146308572
 30
0.0
  0
SPLINE
  5
41A
330
224
100
AcDbEntity
  8
7_ALL_FEATURES
  6
Continuous
 62
     7
100
AcDbSpline
 70
     0
 71
     3
 72
    12
 73
     8
 74
     0
 42
0.000000001
 43
0.0000001
 40
0.0
 40
0.0
 40
0.0
 40
0.0
 40
0.2897181134
 40
0.5476921844
 40
0.7806132735
 40
0.891224807
 40
1.0
 40
1.0
 40
1.0
 40
1.0
 10
313.6103558537
 20
140.30838989
 30
0.0
 10
313.1190124899
 20
139.9440087189
 30
0.0
 10
312.2346454453
 20
139.1897019155
 30
0.0
 10
311.1889178841
 20
137.9018703515
 30
0.0
 10
310.6301257856
 20
136.7440197321
 30
0.0
 10
310.4041740422
 20
135.8132253893
 30
0.0
 10
310.3607596069
 20
135.3500495006
 30
0.0
 10
310.3562946289
 20
135.1204244097
 30
0.0
  0
SPLINE
  5
41B
330
224
100
AcDbEntity
  8
7_ALL_FEATURES
  6
Continuous
 62
     7
100
AcDbSpline
 70
     0
 71
     3
 72
    11
 73
     7
 74
     0
 42
0.000000001
 43
0.0000001
 40
0.0
 40
0.0
 40
0.0
 40
0.0
 40
0.2189507675
 40
0.4533466082
 40
0.7119220289
 40
1.0
 40
1.0
 40
1.0
 40
1.0
 10
356.8387825394
 20
134.6064692611
 30
0.0
 10
356.8111496874
 20
135.0391824006
 30
0.0
 10
356.6274454243
 20
135.930627091
 30
0.0
 10
356.0029542253
 20
137.2077233584
 30
0.0
 10
355.045963874
 20
138.4341245394
 30
0.0
 10
354.2435841708
 20
139.1677267439
 30
0.0
 10
353.7989667554
 20
139.5251805629
 30
0.0
  0
SPLINE
  5
41C
330
224
100
AcDbEntity
  8
7_ALL_FEATURES
  6
Continuous
 62
     7
100
AcDbSpline
 70
     0
 71
     3
 72
    15
 73
    11
 74
     0
 42
0.000000001
 43
0.0000001
 40
0.0
 40
0.0
 40
0.0
 40
0.0
 40
0.1373967423
 40
0.2620671543
 40
0.3776158009
 40
0.489065069
 40
0.602206011
 40
0.7225016977
 40
0.8541912597
 40
1.0
 40
1.0
 40
1.0
 40
1.0
 10
354.3118461793
 20
130.3142796695
 30
0.0
 10
354.6684324407
 20
130.6499922533
 30
0.0
 10
355.3044019796
 20
131.3411512717
 30
0.0
 10
356.0209111231
 20
132.4914804091
 30
0.0
 10
356.4331425025
 20
133.6883674775
 30
0.0
 10
356.5254926089
 20
134.9112927663
 30
0.0
 10
356.294094084
 20
136.1321605811
 30
0.0
 10
355.7497044052
 20
137.3261507561
 30
0.0
 10
354.9089340243
 20
138.4774639171
 30
0.0
 10
354.1988864999
 20
139.17217952
 30
0.0
 10
353.8050146868
 20
139.5112824778
 30
0.0
  0
SPLINE
  5
41D
330
224
100
AcDbEntity
  8
7_ALL_FEATURES
  6
Continuous
 62
     7
100
AcDbSpline
 70
     0
 71
     3
 72
    15
 73
    11
 74
     0
 42
0.000000001
 43
0.0000001
 40
0.0
 40
0.0
 40
0.0
 40
0.0
 40
0.1463239196
 40
0.2786818805
 40
0.3996811152
 40
0.5133727167
 40
0.6250087582
 40
0.7402262837
 40
0.8640045339
 40
1.0
 40
1.0
 40
1.0
 40
1.0
 10
313.6065299001
 20
140.2970027221
 30
0.0
 10
313.2057098513
 20
139.9785036997
 30
0.0
 10
312.4788614719
 20
139.3225526249
 30
0.0
 10
311.6011537618
 20
138.2246015419
 30
0.0
 10
311.0080066353
 20
137.0741820326
 30
0.0
 10
310.7155435615
 20
135.8854139213
 30
0.0
 10
310.7352719626
 20
134.6807592784
 30
0.0
 10
311.0657384052
 20
133.4868874381
 30
0.0
 10
311.6937116304
 20
132.3246192787
 30
0.0
 10
312.2708704149
 20
131.6159676037
 30
0.0
 10
312.5973399614
 20
131.2698162049
 30
0.0
  0
LINE
  5
41E
330
224
100
AcDbEntity
  8
7_ALL_FEATURES
  6
Continuous
 62
     9
100
AcDbLine
 10
356.929203543
 20
134.2621830735
 30
0.0
 11
356.9409853307
 21
134.2390671973
 31
0.0
  0
SPLINE
  5
41F
330
224
100
AcDbEntity
  8
7_ALL_FEATURES
  6
Continuous
 62
     7
100
AcDbSpline
 70
     0
 71
     3
 72
    17
 73
    13
 74
     0
 42
0.000000001
 43
0.0000001
 40
0.0
 40
0.0
 40
0.0
 40
0.0
 40
0.1205335674
 40
0.2520790799
 40
0.3899916605
 40
0.52909313
 40
0.6641172804
 40
0.7901221128
 40
0.8484320761
 40
0.9030247938
 40
0.9536009164
 40
1.0
 40
1.0
 40
1.0
 40
1.0
 10
349.0806599587
 20
93.2312656542
 30
0.0
 10
347.5928850823
 20
92.6956136924
 30
0.0
 10
344.3939049631
 20
91.8133813527
 30
0.0
 10
339.3286474424
 20
91.0325152177
 30
0.0
 10
333.9667693033
 20
90.7598405884
 30
0.0
 10
328.5584331958
 20
91.0089321479
 30
0.0
 10
323.355639838
 20
91.7680679532
 30
0.0
 10
319.2890471524
 20
92.8208122849
 30
0.0
 10
316.3466094473
 20
93.9069632121
 30
0.0
 10
314.3932611613
 20
94.7981011198
 30
0.0
 10
312.6590333722
 20
95.7760279321
 30
0.0
 10
311.6167178618
 20
96.5109394059
 30
0.0
 10
311.1423166833
 20
96.8923363421
 30
0.0
  0
SPLINE
  5
420
330
224
100
AcDbEntity
  8
7_ALL_FEATURES
  6
Continuous
 62
     7
100
AcDbSpline
 70
     0
 71
     3
 72
    19
 73
    15
 74
     0
 42
0.000000001
 43
0.0000001
 40
0.0
 40
0.0
 40
0.0
 40
0.0
 40
0.0525990177
 40
0.1090048145
 40
0.1688384171
 40
0.2316526893
 40
0.3640037569
 40
0.5013407701
 40
0.6384909812
 40
0.7702949603
 40
0.8327134382
 40
0.8920847651
 40
0.9479639289
 40
1.0
 40
1.0
 40
1.0
 40
1.0
 10
306.3863883131
 20
113.0274678737
 30
0.0
 10
307.2394243477
 20
112.5557519446
 30
0.0
 10
309.053887483
 20
111.6612130458
 30
0.0
 10
311.961821452
 20
110.4993195747
 30
0.0
 10
315.1227101093
 20
109.4815440727
 30
0.0
 10
319.704096568
 20
108.312840316
 30
0.0
 10
325.7960271816
 20
107.3041985923
 30
0.0
 10
333.3315600581
 20
106.819094082
 30
0.0
 10
340.8686407845
 20
107.0626900045
 30
0.0
 10
346.9687046289
 20
107.876544556
 30
0.0
 10
351.5582005623
 20
108.899508006
 30
0.0
 10
354.7232025169
 20
109.8162583717
 30
0.0
 10
357.6360736758
 20
110.8850947174
 30
0.0
 10
359.4555856509
 20
111.722327313
 30
0.0
 10
360.3112135865
 20
112.1671386503
 30
0.0
  0
SPLINE
  5
421
330
224
100
AcDbEntity
  8
7_ALL_FEATURES
  6
Continuous
 62
     7
100
AcDbSpline
 70
     0
 71
     3
 72
    24
 73
    20
 74
     0
 42
0.000000001
 43
0.0000001
 40
0.0
 40
0.0
 40
0.0
 40
0.0
 40
0.0655706278
 40
0.1356401073
 40
0.2092143057
 40
0.2851771079
 40
0.3623259876
 40
0.4394210394
 40
0.5152234498
 40
0.5885374733
 40
0.6582532084
 40
0.7233945127
 40
0.783176179
 40
0.8370786367
 40
0.8849534121
 40
0.9271756337
 40
0.9648396186
 40
0.9825909001
 40
1.0
 40
1.0
 40
1.0
 40
1.0
 10
349.6594225155
 20
97.9900682137
 30
0.0
 10
348.6808787685
 20
97.6377576038
 30
0.0
 10
346.6198592637
 20
97.0089435364
 30
0.0
 10
343.3744869747
 20
96.3023591409
 30
0.0
 10
339.9231021699
 20
95.8112238225
 30
0.0
 10
336.3348327358
 20
95.5455636117
 30
0.0
 10
332.6811480502
 20
95.5108114546
 30
0.0
 10
329.0351564872
 20
95.7076860084
 30
0.0
 10
325.4697372348
 20
96.1322143166
 30
0.0
 10
322.0560500159
 20
96.7757871673
 30
0.0
 10
318.8619438859
 20
97.6254191274
 30
0.0
 10
315.9504177078
 20
98.6641122707
 30
0.0
 10
313.3781421054
 20
99.8716253464
 30
0.0
 10
311.1941059049
 20
101.2253079043
 30
0.0
 10
309.4391612024
 20
102.7030614915
 30
0.0
 10
308.1473948834
 20
104.2828750436
 30
0.0
 10
307.4742272021
 20
105.7011145435
 30
0.0
 10
307.2250280181
 20
106.8331013232
 30
0.0
 10
307.1910895859
 20
107.3925485955
 30
0.0
 10
307.1964469285
 20
107.6686271933
 30
0.0
  0
SPLINE
  5
422
330
224
100
AcDbEntity
  8
7_ALL_FEATURES
  6
Continuous
 62
     7
100
AcDbSpline
 70
     0
 71
     3
 72
    16
 73
    12
 74
     0
 42
0.000000001
 43
0.0000001
 40
0.0
 40
0.0
 40
0.0
 40
0.0
 40
0.1186967111
 40
0.2479400451
 40
0.3836143354
 40
0.5211077584
 40
0.6556838214
 40
0.782813814
 40
0.8985387944
 40
0.9511885244
 40
1.0
 40
1.0
 40
1.0
 40
1.0
 10
349.7376701475
 20
102.0098780125
 30
0.0
 10
348.2808537279
 20
101.4853722019
 30
0.0
 10
345.1562361818
 20
100.6114159559
 30
0.0
 10
340.2087936371
 20
99.8084831781
 30
0.0
 10
334.961586287
 20
99.4799373322
 30
0.0
 10
329.6376946067
 20
99.6407521296
 30
0.0
 10
324.4617423385
 20
100.2838271694
 30
0.0
 10
319.6533552474
 20
101.3813607058
 30
0.0
 10
316.007980384
 20
102.6734137246
 30
0.0
 10
313.4595758125
 20
103.9170672621
 30
0.0
 10
312.3220824622
 20
104.5982471318
 30
0.0
 10
311.7936364427
 20
104.953451258
 30
0.0
  0
SPLINE
  5
423
330
224
100
AcDbEntity
  8
7_ALL_FEATURES
  6
Continuous
 62
     7
100
AcDbSpline
 70
     0
 71
     3
 72
    12
 73
     8
 74
     0
 42
0.000000001
 43
0.0000001
 40
0.0
 40
0.0
 40
0.0
 40
0.0
 40
0.2976129056
 40
0.5579204263
 40
0.787528845
 40
0.8949430748
 40
1.0
 40
1.0
 40
1.0
 40
1.0
 10
311.7936364427
 20
104.953451258
 30
0.0
 10
311.0987473984
 20
105.4205329405
 30
0.0
 10
309.8518872438
 20
106.3875999651
 30
0.0
 10
308.3747507415
 20
108.0598602375
 30
0.0
 10
307.5970941842
 20
109.5781933504
 30
0.0
 10
307.3087790219
 20
110.7930964917
 30
0.0
 10
307.2689602918
 20
111.392934357
 30
0.0
 10
307.2746945605
 20
111.6884369922
 30
0.0
  0
SPLINE
  5
424
330
224
100
AcDbEntity
  8
7_ALL_FEATURES
  6
Continuous
 62
     7
100
AcDbSpline
 70
     0
 71
     3
 72
     9
 73
     5
 74
     0
 42
0.000000001
 43
0.0000001
 40
0.0
 40
0.0
 40
0.0
 40
0.0
 40
0.2396218735
 40
1.0
 40
1.0
 40
1.0
 40
1.0
 10
349.8159177795
 20
106.0296878114
 30
0.0
 10
349.4506116279
 20
105.8981645826
 30
0.0
 10
347.9158652545
 20
105.3778574901
 30
0.0
 10
346.3452870631
 20
104.9656998869
 30
0.0
 10
345.1414248791
 20
104.7036757997
 30
0.0
  0
LINE
  5
425
330
224
100
AcDbEntity
  8
7_ALL_FEATURES
  6
Continuous
 62
     7
100
AcDbLine
 10
343.3086105149
 20
104.3448830068
 30
0.0
 11
343.2280970964
 21
104.3308935314
 31
0.0
  0
SPLINE
  5
426
330
224
100
AcDbEntity
  8
7_ALL_FEATURES
  6
Continuous
 62
     7
100
AcDbSpline
 70
     0
 71
     3
 72
    15
 73
    11
 74
     0
 42
0.000000001
 43
0.0000001
 40
0.0
 40
0.0
 40
0.0
 40
0.0
 40
0.131156942
 40
0.2666205783
 40
0.4032723517
 40
0.5379361786
 40
0.6675314456
 40
0.7892298241
 40
0.9006335622
 40
1.0
 40
1.0
 40
1.0
 40
1.0
 10
343.2280970964
 20
104.3308935314
 30
0.0
 10
341.835379514
 20
104.0901492445
 30
0.0
 10
338.9813050387
 20
103.7267695075
 30
0.0
 10
334.6363586318
 20
103.5214304728
 30
0.0
 10
330.2503703554
 20
103.6489081592
 30
0.0
 10
325.9498375417
 20
104.1056016311
 30
0.0
 10
321.8581034007
 20
104.8780392052
 30
0.0
 10
318.091330281
 20
105.9439726828
 30
0.0
 10
314.7567202709
 20
107.272194436
 30
0.0
 10
312.7605738114
 20
108.3759128892
 30
0.0
 10
311.8718840747
 20
108.9732610569
 30
0.0
  0
SPLINE
  5
427
330
224
100
AcDbEntity
  8
7_ALL_FEATURES
  6
Continuous
 62
     7
100
AcDbSpline
 70
     0
 71
     3
 72
     9
 73
     5
 74
     0
 42
0.000000001
 43
0.0000001
 40
0.0
 40
0.0
 40
0.0
 40
0.0
 40
0.5305551771
 40
1.0
 40
1.0
 40
1.0
 40
1.0
 10
311.8718840747
 20
108.9732610569
 30
0.0
 10
311.2320152099
 20
109.4033599746
 30
0.0
 10
310.0744979715
 20
110.2909207271
 30
0.0
 10
309.0796370709
 20
111.3649062757
 30
0.0
 10
308.6764956246
 20
111.9152226005
 30
0.0
  0
SPLINE
  5
428
330
224
100
AcDbEntity
  8
7_ALL_FEATURES
  6
Continuous
 62
     7
100
AcDbSpline
 70
     0
 71
     3
 72
     9
 73
     5
 74
     0
 42
0.000000001
 43
0.0000001
 40
0.0
 40
0.0
 40
0.0
 40
0.0
 40
0.2377697192
 40
1.0
 40
1.0
 40
1.0
 40
1.0
 10
302.8283632655
 20
115.3818961799
 30
0.0
 10
303.0689787056
 20
115.1888374441
 30
0.0
 10
304.0996284983
 20
114.4002178384
 30
0.0
 10
305.1976714727
 20
113.7016000384
 30
0.0
 10
306.0570684997
 20
113.2122566887
 30
0.0
  0
SPLINE
  5
429
330
224
100
AcDbEntity
  8
7_ALL_FEATURES
  6
Continuous
 62
     7
100
AcDbSpline
 70
     0
 71
     3
 72
    11
 73
     7
 74
     0
 42
0.000000001
 43
0.0000001
 40
0.0
 40
0.0
 40
0.0
 40
0.0
 40
0.2898679038
 40
0.5479885854
 40
0.7810460536
 40
1.0
 40
1.0
 40
1.0
 40
1.0
 10
310.5044071775
 20
97.4051610945
 30
0.0
 10
309.9739563307
 20
97.8315750916
 30
0.0
 10
309.0235006595
 20
98.7083719698
 30
0.0
 10
307.9168688893
 20
100.1866641902
 30
0.0
 10
307.2428140376
 20
101.7307405265
 30
0.0
 10
307.1016498733
 20
102.800516606
 30
0.0
 10
307.1116905286
 20
103.3145097848
 30
0.0
  0
SPLINE
  5
42A
330
224
100
AcDbEntity
  8
7_ALL_FEATURES
  6
Continuous
 62
     7
100
AcDbSpline
 70
     0
 71
     3
 72
     9
 73
     5
 74
     0
 42
0.000000001
 43
0.0000001
 40
0.0
 40
0.0
 40
0.0
 40
0.0
 40
0.4704107181
 40
1.0
 40
1.0
 40
1.0
 40
1.0
 10
357.5423097621
 20
110.8624504046
 30
0.0
 10
357.1206517052
 20
110.3469685072
 30
0.0
 10
356.1029215685
 20
109.3490334567
 30
0.0
 10
354.9406194508
 20
108.5320393189
 30
0.0
 10
354.302217898
 20
108.1388850146
 30
0.0
  0
SPLINE
  5
42B
330
224
100
AcDbEntity
  8
7_ALL_FEATURES
  6
Continuous
 62
     7
100
AcDbSpline
 70
     0
 71
     3
 72
     9
 73
     5
 74
     0
 42
0.000000001
 43
0.0000001
 40
0.0
 40
0.0
 40
0.0
 40
0.0
 40
0.4774691985
 40
1.0
 40
1.0
 40
1.0
 40
1.0
 10
354.302217898
 20
108.1388850146
 30
0.0
 10
353.6295180078
 20
107.7246083636
 30
0.0
 10
352.1641224901
 20
106.9474989475
 30
0.0
 10
350.6293921026
 20
106.322567548
 30
0.0
 10
349.8159177795
 20
106.0296878114
 30
0.0
  0
SPLINE
  5
42C
330
224
100
AcDbEntity
  8
7_ALL_FEATURES
  6
Continuous
 62
     7
100
AcDbSpline
 70
     0
 71
     3
 72
    12
 73
     8
 74
     0
 42
0.000000001
 43
0.0000001
 40
0.0
 40
0.0
 40
0.0
 40
0.0
 40
0.105019707
 40
0.2123998407
 40
0.4419711957
 40
0.7023079935
 40
1.0
 40
1.0
 40
1.0
 40
1.0
 10
359.0148875702
 20
110.6825375755
 30
0.0
 10
359.0091439362
 20
110.3865523148
 30
0.0
 10
358.9460223746
 20
109.7877114583
 30
0.0
 10
358.6097978523
 20
108.5829020693
 30
0.0
 10
357.7712208761
 20
107.0935237353
 30
0.0
 10
356.2256062815
 20
105.4778920301
 30
0.0
 10
354.938507689
 20
104.5591171646
 30
0.0
 10
354.223970266
 20
104.1190752158
 30
0.0
  0
SPLINE
  5
42D
330
224
100
AcDbEntity
  8
7_ALL_FEATURES
  6
Continuous
 62
     7
100
AcDbSpline
 70
     0
 71
     3
 72
     9
 73
     5
 74
     0
 42
0.000000001
 43
0.0000001
 40
0.0
 40
0.0
 40
0.0
 40
0.0
 40
0.4774691985
 40
1.0
 40
1.0
 40
1.0
 40
1.0
 10
354.223970266
 20
104.1190752158
 30
0.0
 10
353.5512703758
 20
103.7047985647
 30
0.0
 10
352.0858748581
 20
102.9276891486
 30
0.0
 10
350.5511444707
 20
102.3027577492
 30
0.0
 10
349.7376701475
 20
102.0098780125
 30
0.0
  0
SPLINE
  5
42E
330
224
100
AcDbEntity
  8
7_ALL_FEATURES
  6
Continuous
 62
     7
100
AcDbSpline
 70
     0
 71
     3
 72
    15
 73
    11
 74
     0
 42
0.000000001
 43
0.0000001
 40
0.0
 40
0.0
 40
0.0
 40
0.0
 40
0.0941763075
 40
0.1925318939
 40
0.298576392
 40
0.4148151926
 40
0.5427450516
 40
0.6830013841
 40
0.8356237458
 40
1.0
 40
1.0
 40
1.0
 40
1.0
 10
358.9366399383
 20
106.6627277767
 30
0.0
 10
358.9284627922
 20
106.2413369468
 30
0.0
 10
358.805165441
 20
105.3786534414
 30
0.0
 10
358.3103933071
 20
104.1263382188
 30
0.0
 10
357.5183746872
 20
102.9195277637
 30
0.0
 10
356.4434358344
 20
101.7703820301
 30
0.0
 10
355.0997467333
 20
100.6885226393
 30
0.0
 10
353.5026574736
 20
99.6838738162
 30
0.0
 10
351.6701992157
 20
98.7670413003
 30
0.0
 10
350.3515673501
 20
98.2392650121
 30
0.0
 10
349.6594225155
 20
97.9900682137
 30
0.0
  0
SPLINE
  5
42F
330
224
100
AcDbEntity
  8
7_ALL_FEATURES
  6
Continuous
 62
     7
100
AcDbSpline
 70
     0
 71
     3
 72
    11
 73
     7
 74
     0
 42
0.000000001
 43
0.0000001
 40
0.0
 40
0.0
 40
0.0
 40
0.0
 40
0.2189432984
 40
0.4519961495
 40
0.7101167806
 40
1.0
 40
1.0
 40
1.0
 40
1.0
 10
358.8518598985
 20
102.3072622325
 30
0.0
 10
358.8418176102
 20
101.7931854724
 30
0.0
 10
358.6591686168
 20
100.7295216264
 30
0.0
 10
357.9252333061
 20
99.2126126583
 30
0.0
 10
356.7615157451
 20
97.7782922339
 30
0.0
 10
355.7772864892
 20
96.9391105232
 30
0.0
 10
355.2304804481
 20
96.533580191
 30
0.0
  0
SPLINE
  5
430
330
224
100
AcDbEntity
  8
7_ALL_FEATURES
  6
Continuous
 62
     7
100
AcDbSpline
 70
     0
 71
     3
 72
     9
 73
     5
 74
     0
 42
0.000000001
 43
0.0000001
 40
0.0
 40
0.0
 40
0.0
 40
0.0
 40
0.4710379772
 40
1.0
 40
1.0
 40
1.0
 40
1.0
 10
354.5719612915
 20
96.0451269431
 30
0.0
 10
353.8715680924
 20
95.5257475326
 30
0.0
 10
352.2849355092
 20
94.5561969312
 30
0.0
 10
350.5888772559
 20
93.8039197776
 30
0.0
 10
349.6749556699
 20
93.4524352312
 30
0.0
  0
SPLINE
  5
431
330
224
100
AcDbEntity
  8
7_ALL_FEATURES
  6
Continuous
 62
     7
100
AcDbSpline
 70
     0
 71
     3
 72
     9
 73
     5
 74
     0
 42
0.000000001
 43
0.0000001
 40
0.0
 40
0.0
 40
0.0
 40
0.0
 40
0.2483018586
 40
1.0
 40
1.0
 40
1.0
 40
1.0
 10
307.2290501085
 20
109.3435479429
 30
0.0
 10
307.2311738106
 20
109.4529881524
 30
0.0
 10
307.2535316832
 20
109.8933979248
 30
0.0
 10
307.3319642485
 20
110.3307097648
 30
0.0
 10
307.4193267191
 20
110.6503633596
 30
0.0
  0
SPLINE
  5
432
330
224
100
AcDbEntity
  8
7_ALL_FEATURES
  6
Continuous
 62
     7
100
AcDbSpline
 70
     0
 71
     3
 72
     9
 73
     5
 74
     0
 42
0.000000001
 43
0.0000001
 40
0.0
 40
0.0
 40
0.0
 40
0.0
 40
0.2483018586
 40
1.0
 40
1.0
 40
1.0
 40
1.0
 10
307.1508024766
 20
105.323738144
 30
0.0
 10
307.1529261786
 20
105.4331783536
 30
0.0
 10
307.1752840512
 20
105.8735881259
 30
0.0
 10
307.2537166165
 20
106.310899966
 30
0.0
 10
307.3410790872
 20
106.6305535608
 30
0.0
  0
SPLINE
  5
433
330
224
100
AcDbEntity
  8
0
  6
Continuous
 62
     7
100
AcDbSpline
 70
     0
 71
     3
 72
    11
 73
     7
 74
     0
 42
0.000000001
 43
0.0000001
 40
0.0
 40
0.0
 40
0.0
 40
0.0
 40
0.242624042
 40
0.5107618128
 40
0.7731508936
 40
1.0
 40
1.0
 40
1.0
 40
1.0
 10
363.2711970036
 20
132.9474897487
 30
0.0
 10
363.5562083054
 20
133.0501039287
 30
0.0
 10
364.1855658409
 20
133.184783475
 30
0.0
 10
365.1544491101
 20
133.2168926662
 30
0.0
 10
366.0954762188
 20
133.0910562984
 30
0.0
 10
366.6816216806
 20
132.8939943284
 30
0.0
 10
366.9318442694
 20
132.7613089048
 30
0.0
  0
SPLINE
  5
434
330
224
100
AcDbEntity
  8
0
  6
Continuous
 62
     7
100
AcDbSpline
 70
     0
 71
     3
 72
    11
 73
     7
 74
     0
 42
0.000000001
 43
0.0000001
 40
0.0
 40
0.0
 40
0.0
 40
0.0
 40
0.242624042
 40
0.5107618128
 40
0.7731508936
 40
1.0
 40
1.0
 40
1.0
 40
1.0
 10
300.5306957414
 20
136.4410660491
 30
0.0
 10
300.8157070432
 20
136.5436802291
 30
0.0
 10
301.4450645788
 20
136.6783597755
 30
0.0
 10
302.4139478479
 20
136.7104689667
 30
0.0
 10
303.3549749566
 20
136.5846325988
 30
0.0
 10
303.9411204185
 20
136.3875706288
 30
0.0
 10
304.1913430072
 20
136.2548852053
 30
0.0
  0
SPLINE
  5
435
330
224
100
AcDbEntity
  8
7_ALL_FEATURES
  6
Continuous
 62
     7
100
AcDbSpline
 70
     0
 71
     3
 72
    19
 73
    15
 74
     0
 42
0.000000001
 43
0.0000001
 40
0.0
 40
0.0
 40
0.0
 40
0.0
 40
0.0528480156
 40
0.1093840671
 40
0.1692419822
 40
0.2319845029
 40
0.3639816512
 40
0.5008336099
 40
0.6375702927
 40
0.7692289687
 40
0.8317262253
 40
0.8912978807
 40
0.9475063003
 40
1.0
 40
1.0
 40
1.0
 40
1.0
 10
306.4025819439
 20
113.0965466011
 30
0.0
 10
307.2611350601
 20
112.6337623963
 30
0.0
 10
309.0821312444
 20
111.7561776282
 30
0.0
 10
311.9923526853
 20
110.6153932091
 30
0.0
 10
315.1462007841
 20
109.6161113901
 30
0.0
 10
319.7050319106
 20
108.468658235
 30
0.0
 10
325.755987082
 20
107.4751651181
 30
0.0
 10
333.2366412999
 20
106.9903801205
 30
0.0
 10
340.7233456384
 20
107.2163742251
 30
0.0
 10
346.7920563885
 20
108.0006680961
 30
0.0
 10
351.3712203384
 20
108.9908448878
 30
0.0
 10
354.5411570205
 20
109.8809953311
 30
0.0
 10
357.4700108613
 20
110.9209254428
 30
0.0
 10
359.3062223858
 20
111.7357990203
 30
0.0
 10
360.1727520044
 20
112.1690382514
 30
0.0
  0
SPLINE
  5
436
330
224
100
AcDbEntity
  8
7_ALL_FEATURES
  6
Continuous
 62
     7
100
AcDbSpline
 70
     0
 71
     3
 72
    24
 73
    20
 74
     0
 42
0.000000001
 43
0.0000001
 40
0.0
 40
0.0
 40
0.0
 40
0.0
 40
0.0655706278
 40
0.1356401073
 40
0.2092143057
 40
0.2851771079
 40
0.3623259876
 40
0.4394210394
 40
0.5152234498
 40
0.5885374733
 40
0.6582532084
 40
0.7233945127
 40
0.783176179
 40
0.8370786367
 40
0.8849534121
 40
0.9271756337
 40
0.9648396186
 40
0.9825909001
 40
1.0
 40
1.0
 40
1.0
 40
1.0
 10
349.6920256955
 20
99.6649889632
 30
0.0
 10
348.7134819485
 20
99.3126783533
 30
0.0
 10
346.6524624436
 20
98.6838642859
 30
0.0
 10
343.4070901547
 20
97.9772798904
 30
0.0
 10
339.9557053499
 20
97.486144572
 30
0.0
 10
336.3674359158
 20
97.2204843612
 30
0.0
 10
332.7137512302
 20
97.1857322041
 30
0.0
 10
329.0677596672
 20
97.3826067579
 30
0.0
 10
325.5023404148
 20
97.8071350661
 30
0.0
 10
322.0886531959
 20
98.4507079168
 30
0.0
 10
318.8945470658
 20
99.3003398769
 30
0.0
 10
315.9830208878
 20
100.3390330203
 30
0.0
 10
313.4107452854
 20
101.5465460959
 30
0.0
 10
311.2267090849
 20
102.9002286538
 30
0.0
 10
309.4717643824
 20
104.377982241
 30
0.0
 10
308.1799980634
 20
105.9577957931
 30
0.0
 10
307.5068303821
 20
107.376035293
 30
0.0
 10
307.2576311981
 20
108.5080220727
 30
0.0
 10
307.2236927659
 20
109.067469345
 30
0.0
 10
307.2290501085
 20
109.3435479429
 30
0.0
  0
SPLINE
  5
437
330
224
100
AcDbEntity
  8
7_ALL_FEATURES
  6
Continuous
 62
     7
100
AcDbSpline
 70
     0
 71
     3
 72
    24
 73
    20
 74
     0
 42
0.000000001
 43
0.0000001
 40
0.0
 40
0.0
 40
0.0
 40
0.0
 40
0.0655706278
 40
0.1356401073
 40
0.2092143057
 40
0.2851771079
 40
0.3623259876
 40
0.4394210394
 40
0.5152234498
 40
0.5885374733
 40
0.6582532084
 40
0.7233945127
 40
0.783176179
 40
0.8370786367
 40
0.8849534121
 40
0.9271756337
 40
0.9648396186
 40
0.9825909001
 40
1.0
 40
1.0
 40
1.0
 40
1.0
 10
349.6137780636
 20
95.6451791644
 30
0.0
 10
348.6352343165
 20
95.2928685545
 30
0.0
 10
346.5742148117
 20
94.664054487
 30
0.0
 10
343.3288425227
 20
93.9574700916
 30
0.0
 10
339.8774577179
 20
93.4663347732
 30
0.0
 10
336.2891882839
 20
93.2006745623
 30
0.0
 10
332.6355035982
 20
93.1659224053
 30
0.0
 10
328.9895120352
 20
93.3627969591
 30
0.0
 10
325.4240927829
 20
93.7873252673
 30
0.0
 10
322.010405564
 20
94.4308981179
 30
0.0
 10
318.8162994339
 20
95.280530078
 30
0.0
 10
315.9047732558
 20
96.3192232214
 30
0.0
 10
313.3324976534
 20
97.5267362971
 30
0.0
 10
311.148461453
 20
98.8804188549
 30
0.0
 10
309.3935167504
 20
100.3581724422
 30
0.0
 10
308.1017504314
 20
101.9379859942
 30
0.0
 10
307.4285827501
 20
103.3562254942
 30
0.0
 10
307.1793835661
 20
104.4882122739
 30
0.0
 10
307.145445134
 20
105.0476595462
 30
0.0
 10
307.1508024766
 20
105.323738144
 30
0.0
  0
SPLINE
  5
438
330
224
100
AcDbEntity
  8
7_ALL_FEATURES
  6
Continuous
 62
     7
100
AcDbSpline
 70
     0
 71
     3
 72
    17
 73
    13
 74
     0
 42
0.000000001
 43
0.0000001
 40
0.0
 40
0.0
 40
0.0
 40
0.0
 40
0.1207503466
 40
0.2516179008
 40
0.3883485359
 40
0.5262322269
 40
0.6604805323
 40
0.7865684432
 40
0.8453322631
 40
0.9006785827
 40
0.9522996309
 40
1.0
 40
1.0
 40
1.0
 40
1.0
 10
349.0356831126
 20
93.4467043636
 30
0.0
 10
347.5432168128
 20
92.9393620479
 30
0.0
 10
344.356661204
 20
92.1022021077
 30
0.0
 10
339.3336302425
 20
91.3588939727
 30
0.0
 10
334.0385908543
 20
91.097558143
 30
0.0
 10
328.6983593592
 20
91.3301659493
 30
0.0
 10
323.5415061724
 20
92.0466052894
 30
0.0
 10
319.486473941
 20
93.0426573675
 30
0.0
 10
316.5223689119
 20
94.0716842984
 30
0.0
 10
314.5300080873
 20
94.9202662923
 30
0.0
 10
312.7375696173
 20
95.8543836888
 30
0.0
 10
311.6442564829
 20
96.5560994648
 30
0.0
 10
311.1397073258
 20
96.9210568648
 30
0.0
  0
SPLINE
  5
439
330
224
100
AcDbEntity
  8
7_ALL_FEATURES
  6
Continuous
 62
     7
100
AcDbSpline
 70
     0
 71
     3
 72
    22
 73
    18
 74
     0
 42
0.000000001
 43
0.0000001
 40
0.0
 40
0.0
 40
0.0
 40
0.0
 40
0.0645689352
 40
0.133462684
 40
0.2057652265
 40
0.2804545196
 40
0.432456683
 40
0.5075503834
 40
0.5805148817
 40
0.6503011198
 40
0.715968349
 40
0.7767309114
 40
0.8320173855
 40
0.881551479
 40
0.925468021
 40
0.9644718331
 40
1.0
 40
1.0
 40
1.0
 40
1.0
 10
349.7702733275
 20
103.684798762
 30
0.0
 10
348.823714363
 20
103.3440038133
 30
0.0
 10
346.8327728902
 20
102.7331180179
 30
0.0
 10
343.7001190153
 20
102.0386465554
 30
0.0
 10
340.3699071943
 20
101.5456079648
 30
0.0
 10
335.7242895178
 20
101.1678689848
 30
0.0
 10
331.0080433022
 20
101.2261889346
 30
0.0
 10
326.3563137575
 20
101.7165458501
 30
0.0
 10
323.0083547788
 20
102.2910879507
 30
0.0
 10
319.8510250438
 20
103.0623909274
 30
0.0
 10
316.9427308896
 20
104.0160861715
 30
0.0
 10
314.3369804881
 20
105.1344578137
 30
0.0
 10
312.0808521252
 20
106.3975748879
 30
0.0
 10
310.2142452519
 20
107.7842196491
 30
0.0
 10
308.7703595064
 20
109.2751260504
 30
0.0
 10
307.7793383127
 20
110.8508587267
 30
0.0
 10
307.4349675685
 20
111.9796577967
 30
0.0
 10
307.3579278866
 20
112.5278299813
 30
0.0
  0
SPLINE
  5
43A
330
224
100
AcDbEntity
  8
7_ALL_FEATURES
  6
Continuous
 62
     7
100
AcDbSpline
 70
     0
 71
     3
 72
    15
 73
    11
 74
     0
 42
0.000000001
 43
0.0000001
 40
0.0
 40
0.0
 40
0.0
 40
0.0
 40
0.1174147676
 40
0.2450248302
 40
0.3790880401
 40
0.5153965663
 40
0.649600072
 40
0.77748638
 40
0.8952807188
 40
1.0
 40
1.0
 40
1.0
 40
1.0
 10
349.8517812774
 20
107.8721006358
 30
0.0
 10
348.4525695526
 20
107.3683345675
 30
0.0
 10
345.4573916186
 20
106.5215818796
 30
0.0
 10
340.7156154582
 20
105.7220755958
 30
0.0
 10
335.6805205773
 20
105.3609606307
 30
0.0
 10
330.5504071382
 20
105.4534841398
 30
0.0
 10
325.5266407073
 20
105.9957518654
 30
0.0
 10
320.8053619264
 20
106.9662388294
 30
0.0
 10
316.5713003192
 20
108.3254365717
 30
0.0
 10
314.0113667252
 20
109.5354822322
 30
0.0
 10
312.8694148157
 20
110.2101093701
 30
0.0
  0
SPLINE
  5
43B
330
224
100
AcDbEntity
  8
7_ALL_FEATURES
  6
Continuous
 62
     7
100
AcDbSpline
 70
     0
 71
     3
 72
    10
 73
     6
 74
     0
 42
0.000000001
 43
0.0000001
 40
0.0
 40
0.0
 40
0.0
 40
0.0
 40
0.2417657794
 40
0.4919756519
 40
1.0
 40
1.0
 40
1.0
 40
1.0
 10
323.2860183845
 20
107.7684709616
 30
0.0
 10
324.3516930609
 20
107.5245054172
 30
0.0
 10
326.5407850442
 20
107.1137537642
 30
0.0
 10
331.0351293981
 20
106.5961626434
 30
0.0
 10
334.477175849
 20
106.5470351101
 30
0.0
 10
336.7711820963
 20
106.668912771
 30
0.0
  0
SPLINE
  5
43C
330
224
100
AcDbEntity
  8
7_ALL_FEATURES
  6
Continuous
 62
     7
100
AcDbSpline
 70
     0
 71
     3
 72
     9
 73
     5
 74
     0
 42
0.000000001
 43
0.0000001
 40
0.0
 40
0.0
 40
0.0
 40
0.0
 40
0.2558597861
 40
1.0
 40
1.0
 40
1.0
 40
1.0
 10
336.7711820963
 20
106.668912771
 30
0.0
 10
337.2975590526
 20
106.6968785154
 30
0.0
 10
339.3528972137
 20
106.8386157671
 30
0.0
 10
341.4000364741
 20
107.1102498094
 30
0.0
 10
342.9063263205
 20
107.3955412896
 30
0.0
  0
SPLINE
  5
43D
330
224
100
AcDbEntity
  8
7_ALL_FEATURES
  6
Continuous
 62
     7
100
AcDbSpline
 70
     0
 71
     3
 72
    17
 73
    13
 74
     0
 42
0.000000001
 43
0.0000001
 40
0.0
 40
0.0
 40
0.0
 40
0.0
 40
0.0440669303
 40
0.0925686156
 40
0.1454538763
 40
0.2024807816
 40
0.32723616
 40
0.4626371938
 40
0.6033461253
 40
0.7435581739
 40
0.8775074003
 40
1.0
 40
1.0
 40
1.0
 40
1.0
 10
312.1315200937
 20
108.751854927
 30
0.0
 10
312.5267733945
 20
108.3671828965
 30
0.0
 10
313.4191019875
 20
107.6218508108
 30
0.0
 10
314.9473609199
 20
106.6267896694
 30
0.0
 10
316.7099171355
 20
105.7125448293
 30
0.0
 10
319.4242490637
 20
104.5833436101
 30
0.0
 10
323.249187787
 20
103.4732707935
 30
0.0
 10
328.2067962846
 20
102.6441507527
 30
0.0
 10
333.416810599
 20
102.3242870928
 30
0.0
 10
338.6146016295
 20
102.5302471012
 30
0.0
 10
343.5358176206
 20
103.2506722464
 30
0.0
 10
346.6444645003
 20
104.0963159085
 30
0.0
 10
348.0869377684
 20
104.6156576736
 30
0.0
  0
SPLINE
  5
43E
330
224
100
AcDbEntity
  8
7_ALL_FEATURES
  6
Continuous
 62
     7
100
AcDbSpline
 70
     0
 71
     3
 72
    11
 73
     7
 74
     0
 42
0.000000001
 43
0.0000001
 40
0.0
 40
0.0
 40
0.0
 40
0.0
 40
0.2465854243
 40
0.5009786705
 40
0.7548755391
 40
1.0
 40
1.0
 40
1.0
 40
1.0
 10
324.8655652305
 20
100.2906746651
 30
0.0
 10
326.2085159369
 20
100.0126292268
 30
0.0
 10
328.9680020388
 20
99.5908522524
 30
0.0
 10
333.164517894
 20
99.342561764
 30
0.0
 10
337.3582567275
 20
99.4721283762
 30
0.0
 10
340.1176140396
 20
99.8164836885
 30
0.0
 10
341.4594787155
 20
100.0573241662
 30
0.0
  0
SPLINE
  5
43F
330
224
100
AcDbEntity
  8
7_ALL_FEATURES
  6
Continuous
 62
     7
100
AcDbSpline
 70
     0
 71
     3
 72
    11
 73
     7
 74
     0
 42
0.000000001
 43
0.0000001
 40
0.0
 40
0.0
 40
0.0
 40
0.0
 40
0.2465854243
 40
0.5009786705
 40
0.7548755391
 40
1.0
 40
1.0
 40
1.0
 40
1.0
 10
324.7873175985
 20
96.2708648663
 30
0.0
 10
326.1302683049
 20
95.992819428
 30
0.0
 10
328.8897544068
 20
95.5710424536
 30
0.0
 10
333.086270262
 20
95.3227519652
 30
0.0
 10
337.2800090955
 20
95.4523185773
 30
0.0
 10
340.0393664076
 20
95.7966738897
 30
0.0
 10
341.3812310835
 20
96.0375143674
 30
0.0
  0
SPLINE
  5
440
330
224
100
AcDbEntity
  8
7_ALL_FEATURES
  6
Continuous
 62
     7
100
AcDbSpline
 70
     0
 71
     3
 72
    11
 73
     7
 74
     0
 42
0.000000001
 43
0.0000001
 40
0.0
 40
0.0
 40
0.0
 40
0.0
 40
0.2182636683
 40
0.4578151201
 40
0.7187567595
 40
1.0
 40
1.0
 40
1.0
 40
1.0
 10
354.2348867918
 20
108.1088091607
 30
0.0
 10
353.8586115753
 20
107.7532130454
 30
0.0
 10
353.0128017951
 20
107.0661944925
 30
0.0
 10
351.5693609111
 20
106.1533444135
 30
0.0
 10
349.9098172425
 20
105.3204672335
 30
0.0
 10
348.7146005815
 20
104.841638647
 30
0.0
 10
348.0869377684
 20
104.6156576736
 30
0.0
  0
SPLINE
  5
441
330
224
100
AcDbEntity
  8
7_ALL_FEATURES
  6
Continuous
 62
     7
100
AcDbSpline
 70
     0
 71
     3
 72
     9
 73
     5
 74
     0
 42
0.000000001
 43
0.0000001
 40
0.0
 40
0.0
 40
0.0
 40
0.0
 40
0.2382404034
 40
1.0
 40
1.0
 40
1.0
 40
1.0
 10
302.8389401966
 20
115.3793652167
 30
0.0
 10
303.084135069
 20
115.190624067
 30
0.0
 10
304.1306001109
 20
114.420892488
 30
0.0
 10
305.239433593
 20
113.7376585324
 30
0.0
 10
306.1052398159
 20
113.2588808873
 30
0.0
  0
SPLINE
  5
442
330
224
100
AcDbEntity
  8
7_ALL_FEATURES
  6
Continuous
 62
     7
100
AcDbSpline
 70
     0
 71
     3
 72
     9
 73
     5
 74
     0
 42
0.000000001
 43
0.0000001
 40
0.0
 40
0.0
 40
0.0
 40
0.0
 40
0.473878338
 40
1.0
 40
1.0
 40
1.0
 40
1.0
 10
354.5653880509
 20
96.0670301213
 30
0.0
 10
353.8336360456
 20
95.5809388402
 30
0.0
 10
352.2089365714
 20
94.6749602444
 30
0.0
 10
350.492329822
 20
93.9656701598
 30
0.0
 10
349.5746542476
 20
93.635274265
 30
0.0
  0
SPLINE
  5
443
330
224
100
AcDbEntity
  8
7_ALL_FEATURES
  6
Continuous
 62
     7
100
AcDbSpline
 70
     0
 71
     3
 72
     9
 73
     5
 74
     0
 42
0.000000001
 43
0.0000001
 40
0.0
 40
0.0
 40
0.0
 40
0.0
 40
0.2375736705
 40
1.0
 40
1.0
 40
1.0
 40
1.0
 10
353.3865222719
 20
109.4324115
 30
0.0
 10
353.1172364202
 20
109.2867755128
 30
0.0
 10
351.9703314558
 20
108.6986478702
 30
0.0
 10
350.7761800492
 20
108.2049171257
 30
0.0
 10
349.8517812774
 20
107.8721006358
 30
0.0
  0
SPLINE
  5
444
330
224
100
AcDbEntity
  8
7_ALL_FEATURES
  6
Continuous
 62
     7
100
AcDbSpline
 70
     0
 71
     3
 72
    14
 73
    10
 74
     0
 42
0.000000001
 43
0.0000001
 40
0.0
 40
0.0
 40
0.0
 40
0.0
 40
0.0951651486
 40
0.1967710632
 40
0.3065172565
 40
0.4255194596
 40
0.554359649
 40
0.6932312392
 40
1.0
 40
1.0
 40
1.0
 40
1.0
 10
358.7823735097
 20
110.7997593001
 30
0.0
 10
358.6667624343
 20
110.4422687098
 30
0.0
 10
358.3547622191
 20
109.7252781055
 30
0.0
 10
357.6880872888
 20
108.7096952883
 30
0.0
 10
356.8183600626
 20
107.7323226654
 30
0.0
 10
355.7537361471
 20
106.8004989827
 30
0.0
 10
354.5032393414
 20
105.920194341
 30
0.0
 10
352.5359545563
 20
104.7869145228
 30
0.0
 10
350.9098147759
 20
104.09507428
 30
0.0
 10
349.7702733275
 20
103.684798762
 30
0.0
  0
SPLINE
  5
445
330
224
100
AcDbEntity
  8
7_ALL_FEATURES
  6
Continuous
 62
     7
100
AcDbSpline
 70
     0
 71
     3
 72
     9
 73
     5
 74
     0
 42
0.000000001
 43
0.0000001
 40
0.0
 40
0.0
 40
0.0
 40
0.0
 40
0.2475944727
 40
1.0
 40
1.0
 40
1.0
 40
1.0
 10
358.9692431183
 20
108.3376485262
 30
0.0
 10
358.9667078174
 20
108.2069975005
 30
0.0
 10
358.9367670457
 20
107.679808745
 30
0.0
 10
358.8263173375
 20
107.1577878432
 30
0.0
 10
358.7041258778
 20
106.7799495012
 30
0.0
  0
SPLINE
  5
446
330
224
100
AcDbEntity
  8
7_ALL_FEATURES
  6
Continuous
 62
     7
100
AcDbSpline
 70
     0
 71
     3
 72
    14
 73
    10
 74
     0
 42
0.000000001
 43
0.0000001
 40
0.0
 40
0.0
 40
0.0
 40
0.0
 40
0.0951651486
 40
0.1967710632
 40
0.3065172565
 40
0.4255194596
 40
0.554359649
 40
0.6932312392
 40
1.0
 40
1.0
 40
1.0
 40
1.0
 10
358.7041258778
 20
106.7799495012
 30
0.0
 10
358.5885148023
 20
106.422458911
 30
0.0
 10
358.2765145871
 20
105.7054683067
 30
0.0
 10
357.6098396568
 20
104.6898854894
 30
0.0
 10
356.7401124306
 20
103.7125128666
 30
0.0
 10
355.6754885152
 20
102.7806891838
 30
0.0
 10
354.4249917095
 20
101.9003845422
 30
0.0
 10
352.4577069243
 20
100.7671047239
 30
0.0
 10
350.8315671439
 20
100.0752644812
 30
0.0
 10
349.6920256955
 20
99.6649889632
 30
0.0
  0
SPLINE
  5
447
330
224
100
AcDbEntity
  8
7_ALL_FEATURES
  6
Continuous
 62
     7
100
AcDbSpline
 70
     0
 71
     3
 72
    15
 73
    11
 74
     0
 42
0.000000001
 43
0.0000001
 40
0.0
 40
0.0
 40
0.0
 40
0.0
 40
0.0941763075
 40
0.1925318939
 40
0.298576392
 40
0.4148151926
 40
0.5427450516
 40
0.6830013841
 40
0.8356237458
 40
1.0
 40
1.0
 40
1.0
 40
1.0
 10
358.8909954863
 20
104.3178387274
 30
0.0
 10
358.8828183402
 20
103.8964478974
 30
0.0
 10
358.7595209891
 20
103.0337643921
 30
0.0
 10
358.2647488551
 20
101.7814491695
 30
0.0
 10
357.4727302352
 20
100.5746387144
 30
0.0
 10
356.3977913824
 20
99.4254929808
 30
0.0
 10
355.0541022813
 20
98.34363359
 30
0.0
 10
353.4570130216
 20
97.3389847669
 30
0.0
 10
351.6245547637
 20
96.422152251
 30
0.0
 10
350.3059228981
 20
95.8943759627
 30
0.0
 10
349.6137780636
 20
95.6451791644
 30
0.0
  0
SPLINE
  5
448
330
224
100
AcDbEntity
  8
0
  6
Continuous
 62
     7
100
AcDbSpline
 70
     0
 71
     3
 72
     9
 73
     5
 74
     0
 42
0.000000001
 43
0.0000001
 40
0.0
 40
0.0
 40
0.0
 40
0.0
 40
0.242085687
 40
1.0
 40
1.0
 40
1.0
 40
1.0
 10
300.2786546427
 20
136.3368265407
 30
0.0
 10
300.2985447313
 20
136.3462612602
 30
0.0
 10
300.3812297657
 20
136.3841259059
 30
0.0
 10
300.465848923
 20
136.4177188852
 30
0.0
 10
300.5306957414
 20
136.4410660491
 30
0.0
  0
SPLINE
  5
449
330
224
100
AcDbEntity
  8
0
  6
Continuous
 62
     7
100
AcDbSpline
 70
     0
 71
     3
 72
     9
 73
     5
 74
     0
 42
0.000000001
 43
0.0000001
 40
0.0
 40
0.0
 40
0.0
 40
0.0
 40
0.242085687
 40
1.0
 40
1.0
 40
1.0
 40
1.0
 10
363.0191559048
 20
132.8432502403
 30
0.0
 10
363.0390459934
 20
132.8526849598
 30
0.0
 10
363.1217310278
 20
132.8905496054
 30
0.0
 10
363.2063501851
 20
132.9241425848
 30
0.0
 10
363.2711970036
 20
132.9474897487
 30
0.0
  0
SPLINE
  5
44A
330
224
100
AcDbEntity
  8
02___PRT_ALL_AXES
  6
Continuous
 62
     7
100
AcDbSpline
 70
     0
 71
     3
 72
     9
 73
     5
 74
     0
 42
0.000000001
 43
0.0000001
 40
0.0
 40
0.0
 40
0.0
 40
0.0
 40
0.2464754283
 40
1.0
 40
1.0
 40
1.0
 40
1.0
 10
298.5078077067
 20
137.7926326651
 30
0.0
 10
298.5074226256
 20
137.7701115652
 30
0.0
 10
298.5099014392
 20
137.6786912849
 30
0.0
 10
298.5290046733
 20
137.5879108583
 30
0.0
 10
298.5511730176
 20
137.5227151601
 30
0.0
  0
SPLINE
  5
44B
330
224
100
AcDbEntity
  8
02___PRT_ALL_AXES
  6
Continuous
 62
     7
100
AcDbSpline
 70
     0
 71
     3
 72
    10
 73
     6
 74
     0
 42
0.000000001
 43
0.0000001
 40
0.0
 40
0.0
 40
0.0
 40
0.0
 40
0.4324488503
 40
0.6989117276
 40
1.0
 40
1.0
 40
1.0
 40
1.0
 10
298.5615532185
 20
137.4938499415
 30
0.0
 10
298.6360584554
 20
137.2973818472
 30
0.0
 10
298.8662485752
 20
137.0239674791
 30
0.0
 10
299.2614660734
 20
136.7434116971
 30
0.0
 10
299.5074396271
 20
136.6155593088
 30
0.0
 10
299.6406836616
 20
136.5551596581
 30
0.0
  0
SPLINE
  5
44C
330
224
100
AcDbEntity
  8
02___PRT_ALL_AXES
  6
Continuous
 62
     7
100
AcDbSpline
 70
     0
 71
     3
 72
    11
 73
     7
 74
     0
 42
0.000000001
 43
0.0000001
 40
0.0
 40
0.0
 40
0.0
 40
0.0
 40
0.2404327136
 40
0.5047992276
 40
0.7666282088
 40
1.0
 40
1.0
 40
1.0
 40
1.0
 10
299.860967659
 20
136.4626533437
 30
0.0
 10
300.2361129295
 20
136.3167921476
 30
0.0
 10
301.061660323
 20
136.1072529065
 30
0.0
 10
302.3454768033
 20
136.0014791165
 30
0.0
 10
303.6183667099
 20
136.0940325949
 30
0.0
 10
304.4298470375
 20
136.2967441857
 30
0.0
 10
304.7929659364
 20
136.4408906663
 30
0.0
  0
SPLINE
  5
44D
330
224
100
AcDbEntity
  8
02___PRT_ALL_AXES
  6
Continuous
 62
     7
100
AcDbSpline
 70
     0
 71
     3
 72
     9
 73
     5
 74
     0
 42
0.000000001
 43
0.0000001
 40
0.0
 40
0.0
 40
0.0
 40
0.0
 40
0.5512964391
 40
1.0
 40
1.0
 40
1.0
 40
1.0
 10
304.7929659364
 20
136.4408906663
 30
0.0
 10
305.0025212932
 20
136.5240773781
 30
0.0
 10
305.3720113624
 20
136.704585155
 30
0.0
 10
305.6910018209
 20
136.973721036
 30
0.0
 10
305.8032416273
 20
137.1188985741
 30
0.0
  0
SPLINE
  5
44E
330
224
100
AcDbEntity
  8
02___PRT_ALL_AXES
  6
Continuous
 62
     7
100
AcDbSpline
 70
     0
 71
     3
 72
     9
 73
     5
 74
     0
 42
0.000000001
 43
0.0000001
 40
0.0
 40
0.0
 40
0.0
 40
0.0
 40
0.2559147846
 40
1.0
 40
1.0
 40
1.0
 40
1.0
 10
305.8032416273
 20
137.1188985741
 30
0.0
 10
305.8109005661
 20
137.1288050939
 30
0.0
 10
305.8402399046
 20
137.1679645325
 30
0.0
 10
305.8671608805
 20
137.2089522269
 30
0.0
 10
305.8855267773
 20
137.2403885885
 30
0.0
  0
SPLINE
  5
44F
330
224
100
AcDbEntity
  8
02___PRT_ALL_AXES
  6
Continuous
 62
     7
100
AcDbSpline
 70
     0
 71
     3
 72
     9
 73
     5
 74
     0
 42
0.000000001
 43
0.0000001
 40
0.0
 40
0.0
 40
0.0
 40
0.0
 40
0.2601696182
 40
1.0
 40
1.0
 40
1.0
 40
1.0
 10
305.8855267773
 20
137.2403885885
 30
0.0
 10
305.8983626726
 20
137.2623594104
 30
0.0
 10
305.9446025542
 20
137.3485403876
 30
0.0
 10
305.9774644454
 20
137.442191717
 30
0.0
 10
305.9916211446
 20
137.5131515566
 30
0.0
  0
SPLINE
  5
450
330
224
100
AcDbEntity
  8
02___PRT_ALL_AXES
  6
Continuous
 62
     7
100
AcDbSpline
 70
     0
 71
     3
 72
     9
 73
     5
 74
     0
 42
0.000000001
 43
0.0000001
 40
0.0
 40
0.0
 40
0.0
 40
0.0
 40
0.2474040833
 40
1.0
 40
1.0
 40
1.0
 40
1.0
 10
310.1553060082
 20
135.2764709891
 30
0.0
 10
310.1670648937
 20
135.3349575156
 30
0.0
 10
310.2188960086
 20
135.5704787066
 30
0.0
 10
310.2877861563
 20
135.8021993788
 30
0.0
 10
310.3482447116
 20
135.9733068376
 30
0.0
  0
SPLINE
  5
451
330
224
100
AcDbEntity
  8
7_ALL_FEATURES
  6
Continuous
 62
     7
100
AcDbSpline
 70
     0
 71
     3
 72
    11
 73
     7
 74
     0
 42
0.000000001
 43
0.0000001
 40
0.0
 40
0.0
 40
0.0
 40
0.0
 40
0.2220136759
 40
0.4590792388
 40
0.7170907823
 40
1.0
 40
1.0
 40
1.0
 40
1.0
 10
357.0551216253
 20
134.3344378884
 30
0.0
 10
356.9808017546
 20
133.9619127599
 30
0.0
 10
356.7361632562
 20
133.2076798016
 30
0.0
 10
356.1226829505
 20
132.1370185596
 30
0.0
 10
355.2658675274
 20
131.110939539
 30
0.0
 10
354.5731393454
 20
130.492469189
 30
0.0
 10
354.1940957818
 20
130.1914061867
 30
0.0
  0
SPLINE
  5
452
330
224
100
AcDbEntity
  8
02___PRT_ALL_AXES
  6
Continuous
 62
     7
100
AcDbSpline
 70
     0
 71
     3
 72
    13
 73
     9
 74
     0
 42
0.000000001
 43
0.0000001
 40
0.0
 40
0.0
 40
0.0
 40
0.0
 40
0.1042909808
 40
0.2257500579
 40
0.5001919802
 40
0.7745263792
 40
0.8958624272
 40
1.0
 40
1.0
 40
1.0
 40
1.0
 10
304.4130870861
 20
136.3234348736
 30
0.0
 10
304.2837710045
 20
136.4141078178
 30
0.0
 10
303.9782915439
 20
136.5739496531
 30
0.0
 10
303.2563146409
 20
136.8098877407
 30
0.0
 10
302.2392098364
 20
136.932095458
 30
0.0
 10
301.2183489766
 20
136.8487169573
 30
0.0
 10
300.4885380665
 20
136.6403412826
 30
0.0
 10
300.1776709185
 20
136.4921943831
 30
0.0
 10
300.0452835944
 20
136.4064943354
 30
0.0
  0
SPLINE
  5
453
330
224
100
AcDbEntity
  8
02___PRT_ALL_AXES
  6
Continuous
 62
     7
100
AcDbSpline
 70
     0
 71
     3
 72
    13
 73
     9
 74
     0
 42
0.000000001
 43
0.0000001
 40
0.0
 40
0.0
 40
0.0
 40
0.0
 40
0.1042909808
 40
0.2257500579
 40
0.5001919802
 40
0.7745263792
 40
0.8958624272
 40
1.0
 40
1.0
 40
1.0
 40
1.0
 10
367.1535883482
 20
132.8298585731
 30
0.0
 10
367.0242722667
 20
132.9205315174
 30
0.0
 10
366.718792806
 20
133.0803733527
 30
0.0
 10
365.9968159031
 20
133.3163114402
 30
0.0
 10
364.9797110985
 20
133.4385191575
 30
0.0
 10
363.9588502388
 20
133.3551406568
 30
0.0
 10
363.2290393287
 20
133.1467649821
 30
0.0
 10
362.9181721807
 20
132.9986180827
 30
0.0
 10
362.7857848565
 20
132.912918035
 30
0.0
  0
SPLINE
  5
454
330
224
100
AcDbEntity
  8
02___PRT_ALL_AXES
  6
Continuous
 62
     7
100
AcDbSpline
 70
     0
 71
     3
 72
     9
 73
     5
 74
     0
 42
0.000000001
 43
0.0000001
 40
0.0
 40
0.0
 40
0.0
 40
0.0
 40
0.2464754283
 40
1.0
 40
1.0
 40
1.0
 40
1.0
 10
361.2483089689
 20
134.2990563647
 30
0.0
 10
361.2479238877
 20
134.2765352648
 30
0.0
 10
361.2504027014
 20
134.1851149845
 30
0.0
 10
361.2695059354
 20
134.0943345578
 30
0.0
 10
361.2916742798
 20
134.0291388597
 30
0.0
  0
SPLINE
  5
455
330
224
100
AcDbEntity
  8
02___PRT_ALL_AXES
  6
Continuous
 62
     7
100
AcDbSpline
 70
     0
 71
     3
 72
    10
 73
     6
 74
     0
 42
0.000000001
 43
0.0000001
 40
0.0
 40
0.0
 40
0.0
 40
0.0
 40
0.4324488503
 40
0.6989117276
 40
1.0
 40
1.0
 40
1.0
 40
1.0
 10
361.3020544806
 20
134.0002736411
 30
0.0
 10
361.3765597176
 20
133.8038055467
 30
0.0
 10
361.6067498374
 20
133.5303911787
 30
0.0
 10
362.0019673356
 20
133.2498353967
 30
0.0
 10
362.2479408892
 20
133.1219830083
 30
0.0
 10
362.3811849237
 20
133.0615833576
 30
0.0
  0
SPLINE
  5
456
330
224
100
AcDbEntity
  8
02___PRT_ALL_AXES
  6
Continuous
 62
     7
100
AcDbSpline
 70
     0
 71
     3
 72
    11
 73
     7
 74
     0
 42
0.000000001
 43
0.0000001
 40
0.0
 40
0.0
 40
0.0
 40
0.0
 40
0.2404327136
 40
0.5047992276
 40
0.7666282088
 40
1.0
 40
1.0
 40
1.0
 40
1.0
 10
362.6014689212
 20
132.9690770433
 30
0.0
 10
362.9766141917
 20
132.8232158472
 30
0.0
 10
363.8021615852
 20
132.6136766061
 30
0.0
 10
365.0859780654
 20
132.507902816
 30
0.0
 10
366.358867972
 20
132.6004562944
 30
0.0
 10
367.1703482997
 20
132.8031678853
 30
0.0
 10
367.5334671986
 20
132.9473143659
 30
0.0
  0
SPLINE
  5
457
330
224
100
AcDbEntity
  8
02___PRT_ALL_AXES
  6
Continuous
 62
     7
100
AcDbSpline
 70
     0
 71
     3
 72
     9
 73
     5
 74
     0
 42
0.000000001
 43
0.0000001
 40
0.0
 40
0.0
 40
0.0
 40
0.0
 40
0.5512964391
 40
1.0
 40
1.0
 40
1.0
 40
1.0
 10
367.5334671986
 20
132.9473143659
 30
0.0
 10
367.7430225553
 20
133.0305010777
 30
0.0
 10
368.1125126245
 20
133.2110088545
 30
0.0
 10
368.431503083
 20
133.4801447355
 30
0.0
 10
368.5437428895
 20
133.6253222737
 30
0.0
  0
SPLINE
  5
458
330
224
100
AcDbEntity
  8
02___PRT_ALL_AXES
  6
Continuous
 62
     7
100
AcDbSpline
 70
     0
 71
     3
 72
     9
 73
     5
 74
     0
 42
0.000000001
 43
0.0000001
 40
0.0
 40
0.0
 40
0.0
 40
0.0
 40
0.2559147846
 40
1.0
 40
1.0
 40
1.0
 40
1.0
 10
368.5437428895
 20
133.6253222737
 30
0.0
 10
368.5514018282
 20
133.6352287935
 30
0.0
 10
368.5807411668
 20
133.6743882321
 30
0.0
 10
368.6076621426
 20
133.7153759265
 30
0.0
 10
368.6260280394
 20
133.746812288
 30
0.0
  0
SPLINE
  5
459
330
224
100
AcDbEntity
  8
02___PRT_ALL_AXES
  6
Continuous
 62
     7
100
AcDbSpline
 70
     0
 71
     3
 72
     9
 73
     5
 74
     0
 42
0.000000001
 43
0.0000001
 40
0.0
 40
0.0
 40
0.0
 40
0.0
 40
0.2601696182
 40
1.0
 40
1.0
 40
1.0
 40
1.0
 10
368.6260280394
 20
133.746812288
 30
0.0
 10
368.6388639348
 20
133.76878311
 30
0.0
 10
368.6851038164
 20
133.8549640872
 30
0.0
 10
368.7179657076
 20
133.9486154166
 30
0.0
 10
368.7321224068
 20
134.0195752562
 30
0.0
  0
SPLINE
  5
45A
330
224
100
AcDbEntity
  8
7_ALL_FEATURES
  6
Continuous
 62
     7
100
AcDbSpline
 70
     0
 71
     3
 72
    11
 73
     7
 74
     0
 42
0.000000001
 43
0.0000001
 40
0.0
 40
0.0
 40
0.0
 40
0.0
 40
0.2869452122
 40
0.5442558579
 40
0.7785111561
 40
1.0
 40
1.0
 40
1.0
 40
1.0
 10
312.8512704663
 20
130.9959794991
 30
0.0
 10
312.4172360087
 20
131.3691637586
 30
0.0
 10
311.6400307016
 20
132.1349217429
 30
0.0
 10
310.7413907477
 20
133.4141667769
 30
0.0
 10
310.197244107
 20
134.7432445358
 30
0.0
 10
310.0852212254
 20
135.6591940245
 30
0.0
 10
310.094153291
 20
136.1009381568
 30
0.0
  0
SPLINE
  5
45B
330
224
100
AcDbEntity
  8
7_ALL_FEATURES
  6
Continuous
 62
     7
100
AcDbSpline
 70
     0
 71
     3
 72
    19
 73
    15
 74
     0
 42
0.000000001
 43
0.0000001
 40
0.0
 40
0.0
 40
0.0
 40
0.0
 40
0.0482803223
 40
0.1016757736
 40
0.1598889989
 40
0.2223995473
 40
0.3573830476
 40
0.4999955739
 40
0.6426086792
 40
0.777594218
 40
0.8401064544
 40
0.8983209981
 40
0.9517182272
 40
1.0
 40
1.0
 40
1.0
 40
1.0
 10
354.1839102425
 20
130.1751706442
 30
0.0
 10
353.623801926
 20
129.7597242568
 30
0.0
 10
352.3772250268
 20
128.9738469231
 30
0.0
 10
350.291085522
 20
127.9743948682
 30
0.0
 10
347.9260350266
 20
127.1088737656
 30
0.0
 10
344.3617085384
 20
126.1283380642
 30
0.0
 10
339.4948027818
 20
125.3512254
 30
0.0
 10
333.4165901503
 20
125.1207358711
 30
0.0
 10
327.3519126733
 20
125.5874701238
 30
0.0
 10
322.5188543698
 20
126.5532984307
 30
0.0
 10
318.9952857474
 20
127.671724561
 30
0.0
 10
316.6656218977
 20
128.6285979755
 30
0.0
 10
314.6198625774
 20
129.708432477
 30
0.0
 10
313.4047181894
 20
130.5421705553
 30
0.0
 10
312.8611638501
 20
130.9790857983
 30
0.0
  0
SPLINE
  5
45C
330
224
100
AcDbEntity
  8
02___PRT_ALL_AXES
  6
Continuous
 62
     7
100
AcDbSpline
 70
     0
 71
     3
 72
    16
 73
    12
 74
     0
 42
0.000000001
 43
0.0000001
 40
0.0
 40
0.0
 40
0.0
 40
0.0
 40
0.0865920421
 40
0.139984047
 40
0.1999794949
 40
0.3365056226
 40
0.4871499525
 40
0.6399492185
 40
0.7825715266
 40
0.9045228666
 40
1.0
 40
1.0
 40
1.0
 40
1.0
 10
305.904549083
 20
137.5678428751
 30
0.0
 10
305.803614923
 20
137.7693675407
 30
0.0
 10
305.5350808926
 20
138.039510136
 30
0.0
 10
305.0948045374
 20
138.315011446
 30
0.0
 10
304.5012066587
 20
138.5867644062
 30
0.0
 10
303.6247492934
 20
138.8269414907
 30
0.0
 10
302.4832373981
 20
138.9573662012
 30
0.0
 10
301.3188734322
 20
138.9271383382
 30
0.0
 10
300.2434236147
 20
138.738757422
 30
0.0
 10
299.3599472412
 20
138.4144510645
 30
0.0
 10
298.8851257884
 20
138.0776311628
 30
0.0
 10
298.7270052885
 20
137.8859082711
 30
0.0
  0
SPLINE
  5
45D
330
224
100
AcDbEntity
  8
02___PRT_ALL_AXES
  6
Continuous
 62
     7
100
AcDbSpline
 70
     0
 71
     3
 72
     9
 73
     5
 74
     0
 42
0.000000001
 43
0.0000001
 40
0.0
 40
0.0
 40
0.0
 40
0.0
 40
0.2578764616
 40
1.0
 40
1.0
 40
1.0
 40
1.0
 10
298.7270052885
 20
137.8859082711
 30
0.0
 10
298.7164314259
 20
137.8730873432
 30
0.0
 10
298.6763829032
 20
137.822596256
 30
0.0
 10
298.6402878995
 20
137.7689211058
 30
0.0
 10
298.6164070803
 20
137.7274841735
 30
0.0
  0
SPLINE
  5
45E
330
224
100
AcDbEntity
  8
02___PRT_ALL_AXES
  6
Continuous
 62
     7
100
AcDbSpline
 70
     0
 71
     3
 72
     9
 73
     5
 74
     0
 42
0.000000001
 43
0.0000001
 40
0.0
 40
0.0
 40
0.0
 40
0.0
 40
0.2575983138
 40
1.0
 40
1.0
 40
1.0
 40
1.0
 10
298.6164070803
 20
137.7274841735
 30
0.0
 10
298.607329609
 20
137.7117333502
 30
0.0
 10
298.5737054036
 20
137.6496829656
 30
0.0
 10
298.5468589487
 20
137.5838754324
 30
0.0
 10
298.5317827316
 20
137.5336982636
 30
0.0
  0
SPLINE
  5
45F
330
224
100
AcDbEntity
  8
02___PRT_ALL_AXES
  6
Continuous
 62
     7
100
AcDbSpline
 70
     0
 71
     3
 72
    19
 73
    15
 74
     0
 42
0.000000001
 43
0.0000001
 40
0.0
 40
0.0
 40
0.0
 40
0.0
 40
0.0387083756
 40
0.0833623174
 40
0.1358848121
 40
0.1965904604
 40
0.338892917
 40
0.4982992589
 40
0.6580416159
 40
0.8012691909
 40
0.8625903072
 40
0.9157348995
 40
0.9609763114
 40
1.0
 40
1.0
 40
1.0
 40
1.0
 10
304.8483091474
 20
136.4585618527
 30
0.0
 10
304.8353878887
 20
136.5343970507
 30
0.0
 10
304.7721067252
 20
136.692314984
 30
0.0
 10
304.5948697461
 20
136.9000511035
 30
0.0
 10
304.3415106546
 20
137.0884172439
 30
0.0
 10
303.8878586085
 20
137.3203898846
 30
0.0
 10
303.1888702533
 20
137.5186155461
 30
0.0
 10
302.2729868769
 20
137.6125787536
 30
0.0
 10
301.3519181266
 20
137.559986661
 30
0.0
 10
300.641047201
 20
137.3934199428
 30
0.0
 10
300.1724779845
 20
137.1827375679
 30
0.0
 10
299.9064370193
 20
137.0061731833
 30
0.0
 10
299.7153885634
 20
136.8070838058
 30
0.0
 10
299.6407087325
 20
136.652380601
 30
0.0
 10
299.6223441069
 20
136.5770315283
 30
0.0
  0
SPLINE
  5
460
330
224
100
AcDbEntity
  8
02___PRT_ALL_AXES
  6
Continuous
 62
     7
100
AcDbSpline
 70
     0
 71
     3
 72
    19
 73
    15
 74
     0
 42
0.000000001
 43
0.0000001
 40
0.0
 40
0.0
 40
0.0
 40
0.0
 40
0.0390236886
 40
0.0842651005
 40
0.1374096928
 40
0.1987308091
 40
0.3419583841
 40
0.5017007411
 40
0.661107083
 40
0.8034095396
 40
0.8641151879
 40
0.9166376826
 40
0.9612916244
 40
1.0
 40
1.0
 40
1.0
 40
1.0
 10
362.362845369
 20
133.0834552279
 30
0.0
 10
362.3812099947
 20
133.1588043006
 30
0.0
 10
362.4558898256
 20
133.3135075054
 30
0.0
 10
362.6469382814
 20
133.5125968828
 30
0.0
 10
362.9129792467
 20
133.6891612675
 30
0.0
 10
363.3815484632
 20
133.8998436424
 30
0.0
 10
364.0924193888
 20
134.0664103606
 30
0.0
 10
365.013488139
 20
134.1190024532
 30
0.0
 10
365.9293715154
 20
134.0250392457
 30
0.0
 10
366.6283598707
 20
133.8268135842
 30
0.0
 10
367.0820119168
 20
133.5948409435
 30
0.0
 10
367.3353710082
 20
133.4064748031
 30
0.0
 10
367.5126079873
 20
133.1987386835
 30
0.0
 10
367.5758891508
 20
133.0408207503
 30
0.0
 10
367.5888104096
 20
132.9649855523
 30
0.0
  0
SPLINE
  5
461
330
224
100
AcDbEntity
  8
02___PRT_ALL_AXES
  6
Continuous
 62
     7
100
AcDbSpline
 70
     0
 71
     3
 72
     9
 73
     5
 74
     0
 42
0.000000001
 43
0.0000001
 40
0.0
 40
0.0
 40
0.0
 40
0.0
 40
0.2433952209
 40
1.0
 40
1.0
 40
1.0
 40
1.0
 10
361.2722839938
 20
134.0401219632
 30
0.0
 10
361.2772269444
 20
134.0565732565
 30
0.0
 10
361.2996399822
 20
134.1235247568
 30
0.0
 10
361.3302451747
 20
134.1876431337
 30
0.0
 10
361.3569083424
 20
134.233907873
 30
0.0
  0
SPLINE
  5
462
330
224
100
AcDbEntity
  8
02___PRT_ALL_AXES
  6
Continuous
 62
     7
100
AcDbSpline
 70
     0
 71
     3
 72
     9
 73
     5
 74
     0
 42
0.000000001
 43
0.0000001
 40
0.0
 40
0.0
 40
0.0
 40
0.0
 40
0.2426088589
 40
1.0
 40
1.0
 40
1.0
 40
1.0
 10
361.3569083424
 20
134.233907873
 30
0.0
 10
361.3647154485
 20
134.2474544153
 30
0.0
 10
361.3981579772
 20
134.3025596246
 30
0.0
 10
361.4364500445
 20
134.3546756063
 30
0.0
 10
361.4675065506
 20
134.3923319706
 30
0.0
  0
SPLINE
  5
463
330
224
100
AcDbEntity
  8
02___PRT_ALL_AXES
  6
Continuous
 62
     7
100
AcDbSpline
 70
     0
 71
     3
 72
    16
 73
    12
 74
     0
 42
0.000000001
 43
0.0000001
 40
0.0
 40
0.0
 40
0.0
 40
0.0
 40
0.0954771334
 40
0.2174284734
 40
0.3600507815
 40
0.5128500475
 40
0.6634943774
 40
0.8000205051
 40
0.860015953
 40
0.9134079579
 40
1.0
 40
1.0
 40
1.0
 40
1.0
 10
361.4675065506
 20
134.3923319706
 30
0.0
 10
361.6256270506
 20
134.5840548623
 30
0.0
 10
362.1004485034
 20
134.9208747641
 30
0.0
 10
362.9839248769
 20
135.2451811216
 30
0.0
 10
364.0593746944
 20
135.4335620377
 30
0.0
 10
365.2237386603
 20
135.4637899008
 30
0.0
 10
366.3652505555
 20
135.3333651903
 30
0.0
 10
367.2417079208
 20
135.0931881057
 30
0.0
 10
367.8353057996
 20
134.8214351456
 30
0.0
 10
368.2755821548
 20
134.5459338355
 30
0.0
 10
368.5441161852
 20
134.2757912403
 30
0.0
 10
368.6450503452
 20
134.0742665746
 30
0.0
  0
SPLINE
  5
464
330
224
100
AcDbEntity
  8
02___PRT_ALL_AXES
  6
Continuous
 62
     7
100
AcDbSpline
 70
     0
 71
     3
 72
    21
 73
    17
 74
     0
 42
0.000000001
 43
0.0000001
 40
0.0
 40
0.0
 40
0.0
 40
0.0
 40
0.037688995
 40
0.0801733413
 40
0.1303685738
 40
0.1891825891
 40
0.2561721366
 40
0.3300431061
 40
0.4905566997
 40
0.6530366095
 40
0.729248321
 40
0.7992902079
 40
0.86160986
 40
0.9153594225
 40
0.960833005
 40
1.0
 40
1.0
 40
1.0
 40
1.0
 10
306.0063272895
 20
137.6495723887
 30
0.0
 10
306.0081947412
 20
137.7587885093
 30
0.0
 10
305.9587874873
 20
137.9938743993
 30
0.0
 10
305.7446698558
 20
138.312776388
 30
0.0
 10
305.4099109146
 20
138.6023559945
 30
0.0
 10
304.9660094149
 20
138.8581457153
 30
0.0
 10
304.4271746911
 20
139.0734488402
 30
0.0
 10
303.5828748678
 20
139.3029863289
 30
0.0
 10
302.4342586402
 20
139.4392846613
 30
0.0
 10
301.2723924735
 20
139.3873188154
 30
0.0
 10
300.3914758895
 20
139.2229431563
 30
0.0
 10
299.811083456
 20
139.0490740074
 30
0.0
 10
299.3168947911
 20
138.8282947248
 30
0.0
 10
298.9248476318
 20
138.5669810767
 30
0.0
 10
298.6473235799
 20
138.2709571586
 30
0.0
 10
298.5447229072
 20
138.0403754236
 30
0.0
 10
298.5225138515
 20
137.9290534971
 30
0.0
  0
SPLINE
  5
465
330
224
100
AcDbEntity
  8
02___PRT_ALL_AXES
  6
Continuous
 62
     7
100
AcDbSpline
 70
     0
 71
     3
 72
    21
 73
    17
 74
     0
 42
0.000000001
 43
0.0000001
 40
0.0
 40
0.0
 40
0.0
 40
0.0
 40
0.037688995
 40
0.0801733413
 40
0.1303685738
 40
0.1891825891
 40
0.2561721366
 40
0.3300431061
 40
0.4905566997
 40
0.6530366095
 40
0.729248321
 40
0.7992902079
 40
0.86160986
 40
0.9153594225
 40
0.960833005
 40
1.0
 40
1.0
 40
1.0
 40
1.0
 10
368.7468285516
 20
134.1559960882
 30
0.0
 10
368.7486960033
 20
134.2652122089
 30
0.0
 10
368.6992887495
 20
134.5002980989
 30
0.0
 10
368.485171118
 20
134.8192000876
 30
0.0
 10
368.1504121768
 20
135.1087796941
 30
0.0
 10
367.706510677
 20
135.3645694149
 30
0.0
 10
367.1676759532
 20
135.5798725397
 30
0.0
 10
366.32337613
 20
135.8094100284
 30
0.0
 10
365.1747599023
 20
135.9457083608
 30
0.0
 10
364.0128937356
 20
135.893742515
 30
0.0
 10
363.1319771516
 20
135.7293668558
 30
0.0
 10
362.5515847182
 20
135.555497707
 30
0.0
 10
362.0573960532
 20
135.3347184244
 30
0.0
 10
361.6653488939
 20
135.0734047763
 30
0.0
 10
361.387824842
 20
134.7773808582
 30
0.0
 10
361.2852241694
 20
134.5467991231
 30
0.0
 10
361.2630151137
 20
134.4354771967
 30
0.0
  0
SPLINE
  5
466
330
224
100
AcDbEntity
  8
7_ALL_FEATURES
  6
Continuous
 62
     7
100
AcDbSpline
 70
     0
 71
     3
 72
    11
 73
     7
 74
     0
 42
0.000000001
 43
0.0000001
 40
0.0
 40
0.0
 40
0.0
 40
0.0
 40
0.2208388317
 40
0.4581256269
 40
0.7168034673
 40
1.0
 40
1.0
 40
1.0
 40
1.0
 10
357.3370259094
 20
134.2444480951
 30
0.0
 10
357.2310961747
 20
133.874006425
 30
0.0
 10
356.9250589329
 20
133.1284236738
 30
0.0
 10
356.2345028001
 20
132.0784821283
 30
0.0
 10
355.3108501335
 20
131.0744199553
 30
0.0
 10
354.5807472389
 20
130.4695145983
 30
0.0
 10
354.1839102425
 20
130.1751706442
 30
0.0
  0
SPLINE
  5
467
330
224
100
AcDbEntity
  8
7_ALL_FEATURES
  6
Continuous
 62
     7
100
AcDbSpline
 70
     0
 71
     3
 72
    27
 73
    23
 74
     0
 42
0.000000001
 43
0.0000001
 40
0.0
 40
0.0
 40
0.0
 40
0.0
 40
0.0190898696
 40
0.0393226849
 40
0.0611405536
 40
0.084865434
 40
0.1385885739
 40
0.200873188
 40
0.2708750658
 40
0.3470402137
 40
0.4273615783
 40
0.5095648013
 40
0.5912623218
 40
0.670096438
 40
0.7438857971
 40
0.810788917
 40
0.8695131971
 40
0.9196225817
 40
0.9417243778
 40
0.9621744629
 40
0.9814084236
 40
1.0
 40
1.0
 40
1.0
 40
1.0
 10
310.186473361
 20
136.9442225652
 30
0.0
 10
310.2544780514
 20
137.2850931144
 30
0.0
 10
310.4702241123
 20
137.9738136111
 30
0.0
 10
311.0015539046
 20
138.9583873788
 30
0.0
 10
311.7394341132
 20
139.9077787827
 30
0.0
 10
313.0412320135
 20
141.1685170544
 30
0.0
 10
315.1755606081
 20
142.5894366876
 30
0.0
 10
318.2775931722
 20
143.9743919301
 30
0.0
 10
321.9223074881
 20
145.0652178826
 30
0.0
 10
325.9826537933
 20
145.8229041144
 30
0.0
 10
330.3163038865
 20
146.2204302001
 30
0.0
 10
334.7684145711
 20
146.2429071253
 30
0.0
 10
339.1794559892
 20
145.8894559034
 30
0.0
 10
343.3915704761
 20
145.1729415978
 30
0.0
 10
347.2548558578
 20
144.1197619486
 30
0.0
 10
350.6353599668
 20
142.7667326171
 30
0.0
 10
353.4170891985
 20
141.1609535143
 30
0.0
 10
355.2370194595
 20
139.5831642013
 30
0.0
 10
356.2557926365
 20
138.2307350565
 30
0.0
 10
356.7816386631
 20
137.2296188852
 30
0.0
 10
357.0934839861
 20
136.2084460395
 30
0.0
 10
357.1542863848
 20
135.5162372882
 30
0.0
 10
357.1474430414
 20
135.1777914483
 30
0.0
  0
SPLINE
  5
468
330
224
100
AcDbEntity
  8
7_ALL_FEATURES
  6
Continuous
 62
     7
100
AcDbSpline
 70
     0
 71
     3
 72
    29
 73
    25
 74
     0
 42
0.000000001
 43
0.0000001
 40
0.0
 40
0.0
 40
0.0
 40
0.0
 40
0.0192983342
 40
0.03979567
 40
0.0619574393
 40
0.0861155908
 40
0.1409639392
 40
0.2046521668
 40
0.2761999488
 40
0.3538861324
 40
0.4355246241
 40
0.5186651824
 40
0.6007626577
 40
0.6793376346
 40
0.7521428544
 40
0.8173550709
 40
0.846749323
 40
0.873897448
 40
0.8988312025
 40
0.9216890695
 40
0.9427406955
 40
0.9624083454
 40
0.9812726126
 40
1.0
 40
1.0
 40
1.0
 40
1.0
 10
309.8195386324
 20
137.3000018121
 30
0.0
 10
309.8904718723
 20
137.6555516328
 30
0.0
 10
310.1180268768
 20
138.3743301373
 30
0.0
 10
310.681284228
 20
139.39983423
 30
0.0
 10
311.4647624763
 20
140.3872007497
 30
0.0
 10
312.8496090704
 20
141.6964896711
 30
0.0
 10
315.1185016885
 20
143.1635354341
 30
0.0
 10
318.4088257547
 20
144.5791801153
 30
0.0
 10
322.2655955408
 20
145.6758704886
 30
0.0
 10
326.5470933909
 20
146.4122056863
 30
0.0
 10
331.0951959777
 20
146.7603487831
 30
0.0
 10
335.7388272029
 20
146.7065393077
 30
0.0
 10
340.3028483819
 20
146.2527655949
 30
0.0
 10
344.6160144095
 20
145.4165480584
 30
0.0
 10
348.5163695572
 20
144.2300435394
 30
0.0
 10
351.4002487499
 20
142.9445955991
 30
0.0
 10
353.3595398566
 20
141.7588251168
 30
0.0
 10
354.5901771454
 20
140.8440368558
 30
0.0
 10
355.6218445757
 20
139.8809299303
 30
0.0
 10
356.4444130331
 20
138.8769812158
 30
0.0
 10
357.0489391058
 20
137.8400433564
 30
0.0
 10
357.4261932577
 20
136.778182854
 30
0.0
 10
357.5681621172
 20
135.7036635501
 30
0.0
 10
357.5039322985
 20
134.9936577149
 30
0.0
 10
357.435097626
 20
134.6486269412
 30
0.0
  0
SPLINE
  5
469
330
224
100
AcDbEntity
  8
7_ALL_FEATURES
  6
Continuous
 62
     7
100
AcDbSpline
 70
     0
 71
     3
 72
     9
 73
     5
 74
     0
 42
0.000000001
 43
0.0000001
 40
0.0
 40
0.0
 40
0.0
 40
0.0
 40
0.2795719
 40
1.0
 40
1.0
 40
1.0
 40
1.0
 10
312.8611638501
 20
130.9790857983
 30
0.0
 10
312.5374065979
 20
131.2393256093
 30
0.0
 10
311.4246646391
 20
132.2186069113
 30
0.0
 10
310.4939788567
 20
133.4503431257
 30
0.0
 10
310.0995647776
 20
134.4454288193
 30
0.0
  0
SPLINE
  5
46A
330
224
100
AcDbEntity
  8
7_ALL_FEATURES
  6
Continuous
 62
     7
100
AcDbSpline
 70
     0
 71
     3
 72
     9
 73
     5
 74
     0
 42
0.000000001
 43
0.0000001
 40
0.0
 40
0.0
 40
0.0
 40
0.0
 40
0.2537284649
 40
1.0
 40
1.0
 40
1.0
 40
1.0
 10
310.0995647776
 20
134.4454288193
 30
0.0
 10
310.0751094988
 20
134.5071281839
 30
0.0
 10
309.9828781627
 20
134.7519172578
 30
0.0
 10
309.9076779885
 20
135.003179417
 30
0.0
 10
309.8623144438
 20
135.1930418373
 30
0.0
  0
SPLINE
  5
46B
330
224
100
AcDbEntity
  8
7_ALL_FEATURES
  6
Continuous
 62
     7
100
AcDbSpline
 70
     0
 71
     3
 72
     9
 73
     5
 74
     0
 42
0.000000001
 43
0.0000001
 40
0.0
 40
0.0
 40
0.0
 40
0.0
 40
0.5018268048
 40
1.0
 40
1.0
 40
1.0
 40
1.0
 10
309.8623144438
 20
135.1930418373
 30
0.0
 10
309.7799071251
 20
135.5379455063
 30
0.0
 10
309.68640525
 20
136.244624913
 30
0.0
 10
309.7506648622
 20
136.9547750633
 30
0.0
 10
309.8195386324
 20
137.3000018121
 30
0.0
  0
ENDSEC
  0
SECTION
  2
OBJECTS
  0
DICTIONARY
  5
C
330
0
100
AcDbDictionary
281
     1
  3
ACAD_GROUP
350
D
  3
ACAD_IMAGE_VARS
350
4B5
  3
ACAD_LAYOUT
350
1A
  3
ACAD_MLINESTYLE
350
17
  3
ACAD_PLOTSETTINGS
350
19
  3
ACAD_PLOTSTYLENAME
350
E
  3
ACAD_SCALELIST
350
471
  3
APPDATA
350
4B3
  3
DWGPROPS
350
4FA
  0
DICTIONARY
  5
D
102
{ACAD_REACTORS
330
C
102
}
330
C
100
AcDbDictionary
281
     1
  0
RASTERVARIABLES
  5
4B5
102
{ACAD_REACTORS
330
C
102
}
330
C
100
AcDbRasterVariables
 90
        0
 70
     1
 71
     1
 72
     1
  0
DICTIONARY
  5
1A
102
{ACAD_REACTORS
330
C
102
}
330
C
100
AcDbDictionary
281
     1
  3
Layout1
350
46E
  3
Model
350
46D
  0
DICTIONARY
  5
17
102
{ACAD_REACTORS
330
C
102
}
330
C
100
AcDbDictionary
281
     1
  3
Standard
350
18
  0
DICTIONARY
  5
19
102
{ACAD_REACTORS
330
C
102
}
330
C
100
AcDbDictionary
281
     1
  0
ACDBDICTIONARYWDFLT
  5
E
102
{ACAD_REACTORS
330
C
102
}
330
C
100
AcDbDictionary
281
     1
  3
Normal
350
F
100
AcDbDictionaryWithDefault
340
F
  0
DICTIONARY
  5
471
102
{ACAD_REACTORS
330
C
102
}
330
C
100
AcDbDictionary
281
     1
  3
A0
350
472
  3
A1
350
473
  3
A2
350
474
  3
A3
350
475
  3
A4
350
476
  3
A5
350
477
  3
A6
350
478
  3
A7
350
479
  3
A8
350
47A
  3
A9
350
47B
  3
B0
350
47C
  3
B1
350
47D
  3
B2
350
47E
  3
B3
350
47F
  3
B4
350
480
  3
B5
350
481
  3
B6
350
482
  3
B7
350
483
  3
B8
350
484
  3
B9
350
485
  3
C0
350
486
  3
C1
350
487
  3
C2
350
488
  3
C3
350
489
  3
C4
350
48A
  3
C5
350
48B
  3
C6
350
48C
  3
C7
350
48D
  3
C8
350
48E
  3
C9
350
48F
  3
D0
350
490
  3
D1
350
491
  3
D2
350
492
  0
DICTIONARY
  5
4B3
102
{ACAD_REACTORS
330
C
102
}
330
C
100
AcDbDictionary
281
     1
  0
XRECORD
  5
4FA
102
{ACAD_REACTORS
330
C
102
}
330
C
100
AcDbXrecord
280
     1
  1
DWGPROPS COOKIE
  2

  3

  4

  6

  7

  8
umberto.novello
  9

300
=
301
=
302
=
303
=
304
=
305
=
306
=
307
=
308
=
309
=
 40
0.0
 41
0.0
 42
2458444.377623206
  1

 90
        0
  0
LAYOUT
  5
46E
102
{ACAD_REACTORS
330
1A
102
}
330
1A
100
AcDbPlotSettings
  1

  2
none_device
  4
ISO_A3_(420.00_x_297.00_MM)
  6

 40
0.0
 41
0.0
 42
0.0
 43
0.0
 44
420.0
 45
297.0
 46
0.0
 47
0.0
 48
0.0
 49
0.0
140
0.0
141
0.0
142
1.0
143
1.0
 70
     0
 72
     1
 73
     0
 74
     0
  7

 75
     0
147
1.0
148
0.0
149
0.0
100
AcDbLayout
  1
Layout1
 70
     0
 71
     1
 10
0.0
 20
0.0
 11
420.0
 21
297.0
 12
0.0
 22
0.0
 32
0.0
 14
0.0
 24
0.0
 34
0.0
 15
0.0
 25
0.0
 35
0.0
146
0.0
 13
0.0
 23
0.0
 33
0.0
 16
1.0
 26
0.0
 36
0.0
 17
0.0
 27
1.0
 37
0.0
 76
     0
330
225
  0
LAYOUT
  5
46D
102
{ACAD_REACTORS
330
1A
102
}
330
1A
100
AcDbPlotSettings
  1

  2
none_device
  4
ISO_A3_(420.00_x_297.00_MM)
  6

 40
0.0
 41
0.0
 42
0.0
 43
0.0
 44
420.0
 45
297.0
 46
0.0
 47
0.0
 48
0.0
 49
0.0
140
0.0
141
0.0
142
1.0
143
1.0
 70
  1024
 72
     1
 73
     0
 74
     0
  7

 75
     0
147
1.0
148
0.0
149
0.0
100
AcDbLayout
  1
Model
 70
     0
 71
     0
 10
0.0
 20
0.0
 11
420.0
 21
297.0
 12
0.0
 22
0.0
 32
0.0
 14
0.0
 24
0.0
 34
0.0
 15
0.0
 25
0.0
 35
0.0
146
0.0
 13
0.0
 23
0.0
 33
0.0
 16
1.0
 26
0.0
 36
0.0
 17
0.0
 27
1.0
 37
0.0
 76
     0
330
224
331
1F4
  0
MLINESTYLE
  5
18
102
{ACAD_REACTORS
330
17
102
}
330
17
100
AcDbMlineStyle
  2
STANDARD
 70
     0
  3

 62
   256
 51
90.0
 52
90.0
 71
     2
 49
0.5
 62
   256
  6
BYLAYER
 49
-0.5
 62
   256
  6
BYLAYER
  0
ACDBPLACEHOLDER
  5
F
102
{ACAD_REACTORS
330
E
102
}
330
E
  0
SCALE
  5
472
102
{ACAD_REACTORS
330
471
102
}
330
471
100
AcDbScale
 70
     0
300
1:1
140
1.0
141
1.0
290
     1
  0
SCALE
  5
473
102
{ACAD_REACTORS
330
471
102
}
330
471
100
AcDbScale
 70
     0
300
1:2
140
1.0
141
2.0
290
     0
  0
SCALE
  5
474
102
{ACAD_REACTORS
330
471
102
}
330
471
100
AcDbScale
 70
     0
300
1:4
140
1.0
141
4.0
290
     0
  0
SCALE
  5
475
102
{ACAD_REACTORS
330
471
102
}
330
471
100
AcDbScale
 70
     0
300
1:5
140
1.0
141
5.0
290
     0
  0
SCALE
  5
476
102
{ACAD_REACTORS
330
471
102
}
330
471
100
AcDbScale
 70
     0
300
1:8
140
1.0
141
8.0
290
     0
  0
SCALE
  5
477
102
{ACAD_REACTORS
330
471
102
}
330
471
100
AcDbScale
 70
     0
300
1:10
140
1.0
141
10.0
290
     0
  0
SCALE
  5
478
102
{ACAD_REACTORS
330
471
102
}
330
471
100
AcDbScale
 70
     0
300
1:16
140
1.0
141
16.0
290
     0
  0
SCALE
  5
479
102
{ACAD_REACTORS
330
471
102
}
330
471
100
AcDbScale
 70
     0
300
1:20
140
1.0
141
20.0
290
     0
  0
SCALE
  5
47A
102
{ACAD_REACTORS
330
471
102
}
330
471
100
AcDbScale
 70
     0
300
1:30
140
1.0
141
30.0
290
     0
  0
SCALE
  5
47B
102
{ACAD_REACTORS
330
471
102
}
330
471
100
AcDbScale
 70
     0
300
1:40
140
1.0
141
40.0
290
     0
  0
SCALE
  5
47C
102
{ACAD_REACTORS
330
471
102
}
330
471
100
AcDbScale
 70
     0
300
1:50
140
1.0
141
50.0
290
     0
  0
SCALE
  5
47D
102
{ACAD_REACTORS
330
471
102
}
330
471
100
AcDbScale
 70
     0
300
1:100
140
1.0
141
100.0
290
     0
  0
SCALE
  5
47E
102
{ACAD_REACTORS
330
471
102
}
330
471
100
AcDbScale
 70
     0
300
2:1
140
2.0
141
1.0
290
     0
  0
SCALE
  5
47F
102
{ACAD_REACTORS
330
471
102
}
330
471
100
AcDbScale
 70
     0
300
4:1
140
4.0
141
1.0
290
     0
  0
SCALE
  5
480
102
{ACAD_REACTORS
330
471
102
}
330
471
100
AcDbScale
 70
     0
300
8:1
140
8.0
141
1.0
290
     0
  0
SCALE
  5
481
102
{ACAD_REACTORS
330
471
102
}
330
471
100
AcDbScale
 70
     0
300
10:1
140
10.0
141
1.0
290
     0
  0
SCALE
  5
482
102
{ACAD_REACTORS
330
471
102
}
330
471
100
AcDbScale
 70
     0
300
100:1
140
100.0
141
1.0
290
     0
  0
SCALE
  5
483
102
{ACAD_REACTORS
330
471
102
}
330
471
100
AcDbScale
 70
     0
300
1/128" = 1'-0"
140
0.0078125
141
12.0
290
     0
  0
SCALE
  5
484
102
{ACAD_REACTORS
330
471
102
}
330
471
100
AcDbScale
 70
     0
300
1/64" = 1'-0"
140
0.015625
141
12.0
290
     0
  0
SCALE
  5
485
102
{ACAD_REACTORS
330
471
102
}
330
471
100
AcDbScale
 70
     0
300
1/32" = 1'-0"
140
0.03125
141
12.0
290
     0
  0
SCALE
  5
486
102
{ACAD_REACTORS
330
471
102
}
330
471
100
AcDbScale
 70
     0
300
1/16" = 1'-0"
140
0.0625
141
12.0
290
     0
  0
SCALE
  5
487
102
{ACAD_REACTORS
330
471
102
}
330
471
100
AcDbScale
 70
     0
300
3/32" = 1'-0"
140
0.09375
141
12.0
290
     0
  0
SCALE
  5
488
102
{ACAD_REACTORS
330
471
102
}
330
471
100
AcDbScale
 70
     0
300
1/8" = 1'-0"
140
0.125
141
12.0
290
     0
  0
SCALE
  5
489
102
{ACAD_REACTORS
330
471
102
}
330
471
100
AcDbScale
 70
     0
300
3/16" = 1'-0"
140
0.1875
141
12.0
290
     0
  0
SCALE
  5
48A
102
{ACAD_REACTORS
330
471
102
}
330
471
100
AcDbScale
 70
     0
300
1/4" = 1'-0"
140
0.25
141
12.0
290
     0
  0
SCALE
  5
48B
102
{ACAD_REACTORS
330
471
102
}
330
471
100
AcDbScale
 70
     0
300
3/8" = 1'-0"
140
0.375
141
12.0
290
     0
  0
SCALE
  5
48C
102
{ACAD_REACTORS
330
471
102
}
330
471
100
AcDbScale
 70
     0
300
1/2" = 1'-0"
140
0.5
141
12.0
290
     0
  0
SCALE
  5
48D
102
{ACAD_REACTORS
330
471
102
}
330
471
100
AcDbScale
 70
     0
300
3/4" = 1'-0"
140
0.75
141
12.0
290
     0
  0
SCALE
  5
48E
102
{ACAD_REACTORS
330
471
102
}
330
471
100
AcDbScale
 70
     0
300
1" = 1'-0"
140
1.0
141
12.0
290
     0
  0
SCALE
  5
48F
102
{ACAD_REACTORS
330
471
102
}
330
471
100
AcDbScale
 70
     0
300
1-1/2" = 1'-0"
140
1.5
141
12.0
290
     0
  0
SCALE
  5
490
102
{ACAD_REACTORS
330
471
102
}
330
471
100
AcDbScale
 70
     0
300
3" = 1'-0"
140
3.0
141
12.0
290
     0
  0
SCALE
  5
491
102
{ACAD_REACTORS
330
471
102
}
330
471
100
AcDbScale
 70
     0
300
6" = 1'-0"
140
6.0
141
12.0
290
     0
  0
SCALE
  5
492
102
{ACAD_REACTORS
330
471
102
}
330
471
100
AcDbScale
 70
     0
300
1'-0" = 1'-0"
140
12.0
141
12.0
290
     0
  0
ENDSEC
  0
EOF
