  0
SECTION
  2
HEADER
  9
$ACADVER
  1
AC1015
  9
$ACADMAINTVER
 70
     6
  9
$DWGCODEPAGE
  3
ANSI_1252
  9
$INSBASE
 10
0.0
 20
0.0
 30
0.0
  9
$EXTMIN
 10
0.0
 20
0.0
 30
0.0
  9
$EXTMAX
 10
420.0
 20
297.0
 30
0.0
  9
$LIMMIN
 10
0.0
 20
0.0
  9
$LIMMAX
 10
420.0
 20
297.0
  9
$ORTHOMODE
 70
     0
  9
$REGENMODE
 70
     1
  9
$FILLMODE
 70
     1
  9
$QTEXTMODE
 70
     0
  9
$MIRRTEXT
 70
     1
  9
$LTSCALE
 40
23.1
  9
$ATTMODE
 70
     1
  9
$TEXTSIZE
 40
0.2
  9
$TRACEWID
 40
0.05
  9
$TEXTSTYLE
  7
STANDARD
  9
$CLAYER
  8
0
  9
$CELTYPE
  6
BYLAYER
  9
$CECOLOR
 62
   256
  9
$CELTSCALE
 40
1.0
  9
$DISPSILH
 70
     0
  9
$DIMSCALE
 40
1.0
  9
$DIMASZ
 40
2.5
  9
$DIMEXO
 40
2.625
  9
$DIMDLI
 40
15.96
  9
$DIMRND
 40
0.0
  9
$DIMDLE
 40
0.0
  9
$DIMEXE
 40
7.56
  9
$DIMTP
 40
0.01
  9
$DIMTM
 40
0.01
  9
$DIMTXT
 40
3.0
  9
$DIMCEN
 40
3.78
  9
$DIMTSZ
 40
0.0
  9
$DIMTOL
 70
     1
  9
$DIMLIM
 70
     0
  9
$DIMTIH
 70
     1
  9
$DIMTOH
 70
     1
  9
$DIMSE1
 70
     0
  9
$DIMSE2
 70
     0
  9
$DIMTAD
 70
     0
  9
$DIMZIN
 70
     0
  9
$DIMBLK
  1
CLOSED
  9
$DIMASO
 70
     1
  9
$DIMSHO
 70
     1
  9
$DIMPOST
  1

  9
$DIMAPOST
  1

  9
$DIMALT
 70
     0
  9
$DIMALTD
 70
     2
  9
$DIMALTF
 40
25.4
  9
$DIMLFAC
 40
1.0
  9
$DIMTOFL
 70
     0
  9
$DIMTVP
 40
0.0
  9
$DIMTIX
 70
     0
  9
$DIMSOXD
 70
     0
  9
$DIMSAH
 70
     0
  9
$DIMBLK1
  1

  9
$DIMBLK2
  1

  9
$DIMSTYLE
  2
STANDARD
  9
$DIMCLRD
 70
     0
  9
$DIMCLRE
 70
     0
  9
$DIMCLRT
 70
     0
  9
$DIMTFAC
 40
1.0
  9
$DIMGAP
 40
0.09
  9
$DIMJUST
 70
     0
  9
$DIMSD1
 70
     0
  9
$DIMSD2
 70
     0
  9
$DIMTOLJ
 70
     1
  9
$DIMTZIN
 70
     0
  9
$DIMALTZ
 70
     0
  9
$DIMALTTZ
 70
     0
  9
$DIMUPT
 70
     0
  9
$DIMDEC
 70
     4
  9
$DIMTDEC
 70
     4
  9
$DIMALTU
 70
     2
  9
$DIMALTTD
 70
     2
  9
$DIMTXSTY
  7
STANDARD
  9
$DIMAUNIT
 70
     0
  9
$DIMADEC
 70
     0
  9
$DIMALTRND
 40
0.0
  9
$DIMAZIN
 70
     0
  9
$DIMDSEP
 70
    46
  9
$DIMATFIT
 70
     3
  9
$DIMFRAC
 70
     0
  9
$DIMLDRBLK
  1

  9
$DIMLUNIT
 70
     2
  9
$DIMLWD
 70
    -2
  9
$DIMLWE
 70
    -2
  9
$DIMTMOVE
 70
     0
  9
$LUNITS
 70
     2
  9
$LUPREC
 70
     4
  9
$SKETCHINC
 40
0.1
  9
$FILLETRAD
 40
0.5
  9
$AUNITS
 70
     0
  9
$AUPREC
 70
     0
  9
$MENU
  1
.
  9
$ELEVATION
 40
0.0
  9
$PELEVATION
 40
0.0
  9
$THICKNESS
 40
0.0
  9
$LIMCHECK
 70
     0
  9
$CHAMFERA
 40
0.0
  9
$CHAMFERB
 40
0.0
  9
$CHAMFERC
 40
0.0
  9
$CHAMFERD
 40
0.0
  9
$SKPOLY
 70
     0
  9
$TDCREATE
 40
2447893.041666667
  9
$TDUCREATE
 40
0.0
  9
$TDUPDATE
 40
2458444.422322778
  9
$TDUUPDATE
 40
2458444.380656111
  9
$TDINDWG
 40
0.0017178819
  9
$TDUSRTIMER
 40
0.0010184491
  9
$USRTIMER
 70
     1
  9
$ANGBASE
 50
0.0
  9
$ANGDIR
 70
     0
  9
$PDMODE
 70
     3
  9
$PDSIZE
 40
0.3125
  9
$PLINEWID
 40
0.0
  9
$SPLFRAME
 70
     0
  9
$SPLINETYPE
 70
     6
  9
$SPLINESEGS
 70
     8
  9
$HANDSEED
  5
509
  9
$SURFTAB1
 70
     6
  9
$SURFTAB2
 70
     6
  9
$SURFTYPE
 70
     6
  9
$SURFU
 70
     6
  9
$SURFV
 70
     6
  9
$UCSBASE
  2

  9
$UCSNAME
  2

  9
$UCSORG
 10
0.0
 20
0.0
 30
0.0
  9
$UCSXDIR
 10
1.0
 20
0.0
 30
0.0
  9
$UCSYDIR
 10
0.0
 20
1.0
 30
0.0
  9
$UCSORTHOREF
  2

  9
$UCSORTHOVIEW
 70
     0
  9
$UCSORGTOP
 10
0.0
 20
0.0
 30
0.0
  9
$UCSORGBOTTOM
 10
0.0
 20
0.0
 30
0.0
  9
$UCSORGLEFT
 10
0.0
 20
0.0
 30
0.0
  9
$UCSORGRIGHT
 10
0.0
 20
0.0
 30
0.0
  9
$UCSORGFRONT
 10
0.0
 20
0.0
 30
0.0
  9
$UCSORGBACK
 10
0.0
 20
0.0
 30
0.0
  9
$PUCSBASE
  2

  9
$PUCSNAME
  2

  9
$PUCSORG
 10
0.0
 20
0.0
 30
0.0
  9
$PUCSXDIR
 10
1.0
 20
0.0
 30
0.0
  9
$PUCSYDIR
 10
0.0
 20
1.0
 30
0.0
  9
$PUCSORTHOREF
  2

  9
$PUCSORTHOVIEW
 70
     0
  9
$PUCSORGTOP
 10
0.0
 20
0.0
 30
0.0
  9
$PUCSORGBOTTOM
 10
0.0
 20
0.0
 30
0.0
  9
$PUCSORGLEFT
 10
0.0
 20
0.0
 30
0.0
  9
$PUCSORGRIGHT
 10
0.0
 20
0.0
 30
0.0
  9
$PUCSORGFRONT
 10
0.0
 20
0.0
 30
0.0
  9
$PUCSORGBACK
 10
0.0
 20
0.0
 30
0.0
  9
$USERI1
 70
     0
  9
$USERI2
 70
     0
  9
$USERI3
 70
     0
  9
$USERI4
 70
     0
  9
$USERI5
 70
     0
  9
$USERR1
 40
0.0
  9
$USERR2
 40
0.0
  9
$USERR3
 40
0.0
  9
$USERR4
 40
0.0
  9
$USERR5
 40
0.0
  9
$WORLDVIEW
 70
     1
  9
$SHADEDGE
 70
     3
  9
$SHADEDIF
 70
    70
  9
$TILEMODE
 70
     1
  9
$MAXACTVP
 70
    64
  9
$PINSBASE
 10
0.0
 20
0.0
 30
0.0
  9
$PLIMCHECK
 70
     0
  9
$PEXTMIN
 10
1.000000000000000E+20
 20
1.000000000000000E+20
 30
1.000000000000000E+20
  9
$PEXTMAX
 10
-1.000000000000000E+20
 20
-1.000000000000000E+20
 30
-1.000000000000000E+20
  9
$PLIMMIN
 10
0.0
 20
0.0
  9
$PLIMMAX
 10
420.0
 20
297.0
  9
$UNITMODE
 70
     0
  9
$VISRETAIN
 70
     1
  9
$PLINEGEN
 70
     0
  9
$PSLTSCALE
 70
     1
  9
$TREEDEPTH
 70
  3020
  9
$CMLSTYLE
  2
Standard
  9
$CMLJUST
 70
     0
  9
$CMLSCALE
 40
1.0
  9
$PROXYGRAPHICS
 70
     1
  9
$MEASUREMENT
 70
     1
  9
$CELWEIGHT
370
    -1
  9
$ENDCAPS
280
     0
  9
$JOINSTYLE
280
     0
  9
$LWDISPLAY
290
     0
  9
$INSUNITS
 70
     4
  9
$HYPERLINKBASE
  1

  9
$STYLESHEET
  1

  9
$XEDIT
290
     1
  9
$CEPSNTYPE
380
     0
  9
$PSTYLEMODE
290
     1
  9
$FINGERPRINTGUID
  2
{7BDBF633-2EBB-4B1C-9A49-6654D19F419C}
  9
$VERSIONGUID
  2
{FAEB1C32-E019-11D5-929B-00C0DF256EC4}
  9
$EXTNAMES
290
     1
  9
$PSVPSCALE
 40
0.0
  9
$OLESTARTUP
290
     0
  0
ENDSEC
  0
SECTION
  2
CLASSES
  0
CLASS
  1
ACDBDICTIONARYWDFLT
  2
AcDbDictionaryWithDefault
  3
ObjectDBX Classes
 90
        0
280
     0
281
     0
  0
CLASS
  1
ACDBPLACEHOLDER
  2
AcDbPlaceHolder
  3
ObjectDBX Classes
 90
        0
280
     0
281
     0
  0
CLASS
  1
LAYOUT
  2
AcDbLayout
  3
ObjectDBX Classes
 90
        0
280
     0
281
     0
  0
CLASS
  1
TABLESTYLE
  2
AcDbTableStyle
  3
ObjectDBX Classes
 90
     4095
280
     0
281
     0
  0
CLASS
  1
ACAD_TABLE
  2
AcDbTable
  3
ObjectDBX Classes
 90
     1025
280
     0
281
     1
  0
CLASS
  1
SCALE
  2
AcDbScale
  3
ObjectDBX Classes
 90
     1153
280
     0
281
     0
  0
CLASS
  1
TABLEGEOMETRY
  2
AcDbTableGeometry
  3
ObjectDBX Classes
 90
     1152
280
     0
281
     0
  0
CLASS
  1
VISUALSTYLE
  2
AcDbVisualStyle
  3
ObjectDBX Classes
 90
     4095
280
     0
281
     0
  0
CLASS
  1
MATERIAL
  2
AcDbMaterial
  3
ObjectDBX Classes
 90
     1153
280
     0
281
     0
  0
CLASS
  1
SUN
  2
AcDbSun
  3
SCENEOE
 90
     1153
280
     0
281
     0
  0
CLASS
  1
RASTERVARIABLES
  2
AcDbRasterVariables
  3
ISM
 90
        0
280
     0
281
     0
  0
CLASS
  1
MLEADERSTYLE
  2
AcDbMLeaderStyle
  3
ACDB_MLEADERSTYLE_CLASS
 90
     4095
280
     0
281
     0
  0
ENDSEC
  0
SECTION
  2
TABLES
  0
TABLE
  2
VPORT
  5
8
330
0
100
AcDbSymbolTable
 70
     1
  0
VPORT
  5
1F4
330
8
100
AcDbSymbolTableRecord
100
AcDbViewportTableRecord
  2
*ACTIVE
 70
     0
 10
0.0
 20
0.0
 11
1.0
 21
1.0
 12
209.3836575875487
 22
157.0035992217899
 13
0.0
 23
0.0
 14
1.0
 24
1.0
 15
0.0
 25
0.0
 16
0.0
 26
0.0
 36
1.0
 17
0.0
 27
0.0
 37
0.0
 40
371.25
 41
1.929961089494163
 42
50.0
 43
0.0
 44
0.0
 50
0.0
 51
0.0
 71
    16
 72
   100
 73
     1
 74
     1
 75
     0
 76
     0
 77
     0
 78
     0
281
     0
 65
     1
110
0.0
120
0.0
130
0.0
111
1.0
121
0.0
131
0.0
112
0.0
122
1.0
132
0.0
 79
     0
146
0.0
  0
ENDTAB
  0
TABLE
  2
LTYPE
  5
5
330
0
100
AcDbSymbolTable
 70
     6
  0
LTYPE
  5
14
330
5
100
AcDbSymbolTableRecord
100
AcDbLinetypeTableRecord
  2
BYBLOCK
 70
     0
  3

 72
    65
 73
     0
 40
0.0
  0
LTYPE
  5
15
330
5
100
AcDbSymbolTableRecord
100
AcDbLinetypeTableRecord
  2
BYLAYER
 70
     0
  3

 72
    65
 73
     0
 40
0.0
  0
LTYPE
  5
16
330
5
100
AcDbSymbolTableRecord
100
AcDbLinetypeTableRecord
  2
CONTINUOUS
 70
     0
  3
Solid line
 72
    65
 73
     0
 40
0.0
  0
LTYPE
  5
1F5
330
5
100
AcDbSymbolTableRecord
100
AcDbLinetypeTableRecord
  2
CENTER
 70
     0
  3
____ _ ____ _ ____ _ ____ _ ____ _ ____ _ ____
 72
    65
 73
     4
 40
0.6
 49
0.375
 74
     0
 49
-0.075
 74
     0
 49
0.075
 74
     0
 49
-0.075
 74
     0
  0
LTYPE
  5
1F6
330
5
100
AcDbSymbolTableRecord
100
AcDbLinetypeTableRecord
  2
HIDDEN
 70
     0
  3
- - - - - - - - - - - - - - - - - - - -
 72
    65
 73
     2
 40
0.2
 49
0.1
 74
     0
 49
-0.1
 74
     0
  0
LTYPE
  5
1F7
330
5
100
AcDbSymbolTableRecord
100
AcDbLinetypeTableRecord
  2
PHANTOM
 70
     0
  3
_____ _ _ _____ _ _ _____ _ _ _____
 72
    65
 73
     6
 40
0.8
 49
0.45
 74
     0
 49
-0.05
 74
     0
 49
0.1
 74
     0
 49
-0.05
 74
     0
 49
0.1
 74
     0
 49
-0.05
 74
     0
  0
LTYPE
  5
1F8
330
5
100
AcDbSymbolTableRecord
100
AcDbLinetypeTableRecord
  2
DOT
 70
     0
  3
. . . . . . . . . . . . . . . . . . . .
 72
    65
 73
     2
 40
0.2
 49
0.1
 74
     0
 49
-0.1
 74
     0
  0
LTYPE
  5
1F9
330
5
100
AcDbSymbolTableRecord
100
AcDbLinetypeTableRecord
  2
DASHED
 70
     0
  3
- - - - - - - - - - - - - - - - - - - -
 72
    65
 73
     2
 40
0.2
 49
0.1
 74
     0
 49
-0.1
 74
     0
  0
ENDTAB
  0
TABLE
  2
LAYER
  5
2
330
0
100
AcDbSymbolTable
 70
    38
  0
LAYER
  5
10
330
2
100
AcDbSymbolTableRecord
100
AcDbLayerTableRecord
  2
0
 70
     0
 62
     7
  6
CONTINUOUS
370
    -3
390
F
  0
LAYER
  5
1FA
330
2
100
AcDbSymbolTableRecord
100
AcDbLayerTableRecord
  2
DEFAULT_1
 70
     0
 62
     7
  6
CENTER
370
    -3
390
F
  0
LAYER
  5
1FB
330
2
100
AcDbSymbolTableRecord
100
AcDbLayerTableRecord
  2
DEFAULT_2
 70
     0
 62
     8
  6
HIDDEN
370
    -3
390
F
  0
LAYER
  5
1FC
330
2
100
AcDbSymbolTableRecord
100
AcDbLayerTableRecord
  2
DEFAULT_3
 70
     0
 62
     7
  6
PHANTOM
370
    -3
390
F
  0
LAYER
  5
1FD
330
2
100
AcDbSymbolTableRecord
100
AcDbLayerTableRecord
  2
01_ALL_DTM_PLN
 70
     0
 62
     7
  6
CONTINUOUS
370
    -3
390
F
  0
LAYER
  5
1FE
330
2
100
AcDbSymbolTableRecord
100
AcDbLayerTableRecord
  2
01__ASM_ALL_DTM_PLN
 70
     0
 62
     7
  6
CONTINUOUS
370
    -3
390
F
  0
LAYER
  5
1FF
330
2
100
AcDbSymbolTableRecord
100
AcDbLayerTableRecord
  2
01__ASM_DEF_DTM_PLN
 70
     0
 62
     7
  6
CONTINUOUS
370
    -3
390
F
  0
LAYER
  5
200
330
2
100
AcDbSymbolTableRecord
100
AcDbLayerTableRecord
  2
01___PRT_ALL_DTM_PLN
 70
     0
 62
     7
  6
CONTINUOUS
370
    -3
390
F
  0
LAYER
  5
201
330
2
100
AcDbSymbolTableRecord
100
AcDbLayerTableRecord
  2
01___PRT_DEF_DTM_PLN
 70
     0
 62
     7
  6
CONTINUOUS
370
    -3
390
F
  0
LAYER
  5
202
330
2
100
AcDbSymbolTableRecord
100
AcDbLayerTableRecord
  2
02_ALL_AXES
 70
     0
 62
     7
  6
CONTINUOUS
370
    -3
390
F
  0
LAYER
  5
203
330
2
100
AcDbSymbolTableRecord
100
AcDbLayerTableRecord
  2
02__ASM_ALL_AXES
 70
     0
 62
     7
  6
CONTINUOUS
370
    -3
390
F
  0
LAYER
  5
204
330
2
100
AcDbSymbolTableRecord
100
AcDbLayerTableRecord
  2
02___PRT_ALL_AXES
 70
     0
 62
     7
  6
CONTINUOUS
370
    -3
390
F
  0
LAYER
  5
205
330
2
100
AcDbSymbolTableRecord
100
AcDbLayerTableRecord
  2
03_ALL_CURVES
 70
     0
 62
     7
  6
CONTINUOUS
370
    -3
390
F
  0
LAYER
  5
206
330
2
100
AcDbSymbolTableRecord
100
AcDbLayerTableRecord
  2
03__ASM_ALL_CURVES
 70
     0
 62
     7
  6
CONTINUOUS
370
    -3
390
F
  0
LAYER
  5
207
330
2
100
AcDbSymbolTableRecord
100
AcDbLayerTableRecord
  2
03___PRT_ALL_CURVES
 70
     0
 62
     7
  6
CONTINUOUS
370
    -3
390
F
  0
LAYER
  5
208
330
2
100
AcDbSymbolTableRecord
100
AcDbLayerTableRecord
  2
04_ALL_DTM_PNT
 70
     0
 62
     7
  6
CONTINUOUS
370
    -3
390
F
  0
LAYER
  5
209
330
2
100
AcDbSymbolTableRecord
100
AcDbLayerTableRecord
  2
04__ASM_ALL_DTM_PNT
 70
     0
 62
     7
  6
CONTINUOUS
370
    -3
390
F
  0
LAYER
  5
20A
330
2
100
AcDbSymbolTableRecord
100
AcDbLayerTableRecord
  2
04___PRT_ALL_DTM_PNT
 70
     0
 62
     7
  6
CONTINUOUS
370
    -3
390
F
  0
LAYER
  5
20B
330
2
100
AcDbSymbolTableRecord
100
AcDbLayerTableRecord
  2
05_ALL_DTM_CSYS
 70
     0
 62
     7
  6
CONTINUOUS
370
    -3
390
F
  0
LAYER
  5
20C
330
2
100
AcDbSymbolTableRecord
100
AcDbLayerTableRecord
  2
05__ASM_ALL_DTM_CSYS
 70
     0
 62
     7
  6
CONTINUOUS
370
    -3
390
F
  0
LAYER
  5
20D
330
2
100
AcDbSymbolTableRecord
100
AcDbLayerTableRecord
  2
05__ASM_DEF_DTM_CSYS
 70
     0
 62
     7
  6
CONTINUOUS
370
    -3
390
F
  0
LAYER
  5
20E
330
2
100
AcDbSymbolTableRecord
100
AcDbLayerTableRecord
  2
05___PRT_ALL_DTM_CSYS
 70
     0
 62
     7
  6
CONTINUOUS
370
    -3
390
F
  0
LAYER
  5
20F
330
2
100
AcDbSymbolTableRecord
100
AcDbLayerTableRecord
  2
05___PRT_DEF_DTM_CSYS
 70
     0
 62
     7
  6
CONTINUOUS
370
    -3
390
F
  0
LAYER
  5
210
330
2
100
AcDbSymbolTableRecord
100
AcDbLayerTableRecord
  2
06_ALL_SURFS
 70
     0
 62
     7
  6
CONTINUOUS
370
    -3
390
F
  0
LAYER
  5
211
330
2
100
AcDbSymbolTableRecord
100
AcDbLayerTableRecord
  2
06__ASM_ALL_SURFS
 70
     0
 62
     7
  6
CONTINUOUS
370
    -3
390
F
  0
LAYER
  5
212
330
2
100
AcDbSymbolTableRecord
100
AcDbLayerTableRecord
  2
06___PRT_ALL_SURFS
 70
     0
 62
     7
  6
CONTINUOUS
370
    -3
390
F
  0
LAYER
  5
213
330
2
100
AcDbSymbolTableRecord
100
AcDbLayerTableRecord
  2
07__ASM_ALL_SKELETONS
 70
     0
 62
     7
  6
CONTINUOUS
370
    -3
390
F
  0
LAYER
  5
214
330
2
100
AcDbSymbolTableRecord
100
AcDbLayerTableRecord
  2
1_ALL_PLANES
 70
     0
 62
     7
  6
CONTINUOUS
370
    -3
390
F
  0
LAYER
  5
215
330
2
100
AcDbSymbolTableRecord
100
AcDbLayerTableRecord
  2
2_ALL_CSYS
 70
     0
 62
     7
  6
CONTINUOUS
370
    -3
390
F
  0
LAYER
  5
216
330
2
100
AcDbSymbolTableRecord
100
AcDbLayerTableRecord
  2
3_ALL_AXES
 70
     0
 62
     7
  6
CONTINUOUS
370
    -3
390
F
  0
LAYER
  5
217
330
2
100
AcDbSymbolTableRecord
100
AcDbLayerTableRecord
  2
5_ALL_CURVES
 70
     0
 62
     7
  6
CONTINUOUS
370
    -3
390
F
  0
LAYER
  5
218
330
2
100
AcDbSymbolTableRecord
100
AcDbLayerTableRecord
  2
5__LED
 70
     0
 62
     7
  6
CONTINUOUS
370
    -3
390
F
  0
LAYER
  5
219
330
2
100
AcDbSymbolTableRecord
100
AcDbLayerTableRecord
  2
6_ALL_SURFS
 70
     0
 62
     7
  6
CONTINUOUS
370
    -3
390
F
  0
LAYER
  5
21A
330
2
100
AcDbSymbolTableRecord
100
AcDbLayerTableRecord
  2
7_ALL_FEATURES
 70
     0
 62
     7
  6
CONTINUOUS
370
    -3
390
F
  0
LAYER
  5
21B
330
2
100
AcDbSymbolTableRecord
100
AcDbLayerTableRecord
  2
8_ALL_NOTES_BALLOONS_SYMBOLS_GT
 70
     0
 62
     7
  6
CONTINUOUS
370
    -3
390
F
  0
LAYER
  5
21C
330
2
100
AcDbSymbolTableRecord
100
AcDbLayerTableRecord
  2
INTF_MAGENTA
 70
     0
 62
     7
  6
CONTINUOUS
370
    -3
390
F
  0
LAYER
  5
21D
330
2
100
AcDbSymbolTableRecord
100
AcDbLayerTableRecord
  2
INTF_RED
 70
     0
 62
     7
  6
CONTINUOUS
370
    -3
390
F
  0
LAYER
  5
4C4
330
2
100
AcDbSymbolTableRecord
100
AcDbLayerTableRecord
  2
Defpoints
 70
     0
 62
     7
  6
CONTINUOUS
290
     0
370
    -3
390
F
  0
ENDTAB
  0
TABLE
  2
STYLE
  5
3
330
0
100
AcDbSymbolTable
 70
     6
  0
STYLE
  5
11
330
3
100
AcDbSymbolTableRecord
100
AcDbTextStyleTableRecord
  2
STANDARD
 70
     0
 40
0.0
 41
0.85
 50
0.0
 71
     0
 42
0.2
  3
txt
  4

  0
STYLE
  5
21E
330
3
100
AcDbSymbolTableRecord
100
AcDbTextStyleTableRecord
  2
TEXTSTYLE_1
 70
     0
 40
0.0
 41
0.8
 50
0.0
 71
     0
 42
0.2
  3
gdt
  4

  0
STYLE
  5
21F
330
3
100
AcDbSymbolTableRecord
100
AcDbTextStyleTableRecord
  2
TEXTSTYLE_2
 70
     0
 40
0.0
 41
0.9
 50
0.0
 71
     0
 42
0.2
  3
txt
  4

  0
STYLE
  5
220
330
3
100
AcDbSymbolTableRecord
100
AcDbTextStyleTableRecord
  2
TEXTSTYLE_3
 70
     0
 40
0.0
 41
0.9
 50
0.0
 71
     0
 42
0.2
  3
txt
  4

  0
STYLE
  5
221
330
3
100
AcDbSymbolTableRecord
100
AcDbTextStyleTableRecord
  2
TEXTSTYLE_4
 70
     0
 40
0.0
 41
0.85
 50
0.0
 71
     0
 42
0.2
  3
gdt
  4

  0
STYLE
  5
222
330
3
100
AcDbSymbolTableRecord
100
AcDbTextStyleTableRecord
  2
TEXTSTYLE_5
 70
     0
 40
0.0
 41
0.85
 50
0.0
 71
     0
 42
0.2
  3
txt
  4

  0
ENDTAB
  0
TABLE
  2
VIEW
  5
6
330
0
100
AcDbSymbolTable
 70
     0
  0
ENDTAB
  0
TABLE
  2
UCS
  5
7
330
0
100
AcDbSymbolTable
 70
     0
  0
ENDTAB
  0
TABLE
  2
APPID
  5
9
330
0
100
AcDbSymbolTable
 70
     1
  0
APPID
  5
223
330
9
100
AcDbSymbolTableRecord
100
AcDbRegAppTableRecord
  2
ACAD
 70
     0
  0
ENDTAB
  0
TABLE
  2
DIMSTYLE
  5
A
330
0
100
AcDbSymbolTable
 70
     3
100
AcDbDimStyleTable
  0
DIMSTYLE
105
22B
330
A
100
AcDbSymbolTableRecord
100
AcDbDimStyleTableRecord
  2
STANDARD
 70
     0
 41
2.5
 47
0.01
 48
0.01
 71
     1
 73
     0
 74
     0
 77
     1
 78
     8
140
3.0
178
     0
271
     2
272
     2
284
     8
340
11
341
226
342
226
343
226
344
226
  0
DIMSTYLE
105
22C
330
A
100
AcDbSymbolTableRecord
100
AcDbDimStyleTableRecord
  2
DIMSTYLE_1
 70
     0
 41
2.5
 47
0.3
 48
0.3
 73
     0
 74
     0
 77
     1
 78
     8
140
3.0
144
1.3333333333
178
     0
271
     2
272
     2
284
     8
340
11
341
226
342
226
343
226
344
226
  0
DIMSTYLE
105
22D
330
A
100
AcDbSymbolTableRecord
100
AcDbDimStyleTableRecord
  2
DIMSTYLE_2
 70
     0
 41
2.5
 47
0.3
 48
0.3
 73
     0
 74
     0
 77
     1
 78
     8
140
3.0
144
1.3333333333
178
     0
271
     0
272
     0
284
     8
340
11
341
226
342
226
343
226
344
226
  0
ENDTAB
  0
TABLE
  2
BLOCK_RECORD
  5
1
330
0
100
AcDbSymbolTable
 70
     5
  0
BLOCK_RECORD
  5
224
330
1
100
AcDbSymbolTableRecord
100
AcDbBlockTableRecord
  2
*Model_Space
340
47B
  0
BLOCK_RECORD
  5
225
330
1
100
AcDbSymbolTableRecord
100
AcDbBlockTableRecord
  2
*Paper_Space
340
47C
  0
BLOCK_RECORD
  5
226
330
1
100
AcDbSymbolTableRecord
100
AcDbBlockTableRecord
  2
_CLOSED
340
0
102
{BLKREFS
331
273
331
279
331
27A
102
}
  0
BLOCK_RECORD
  5
227
330
1
100
AcDbSymbolTableRecord
100
AcDbBlockTableRecord
  2
*D1
340
0
  0
BLOCK_RECORD
  5
228
330
1
100
AcDbSymbolTableRecord
100
AcDbBlockTableRecord
  2
*D2
340
0
  0
BLOCK_RECORD
  5
229
330
1
100
AcDbSymbolTableRecord
100
AcDbBlockTableRecord
  2
LOGO2_BL0
340
0
102
{BLKREFS
331
2A1
102
}
  0
BLOCK_RECORD
  5
22A
330
1
100
AcDbSymbolTableRecord
100
AcDbBlockTableRecord
  2
*T4
340
0
102
{BLKREFS
331
2A2
102
}
  0
ENDTAB
  0
ENDSEC
  0
SECTION
  2
BLOCKS
  0
BLOCK
  5
20
330
224
100
AcDbEntity
  8
0
100
AcDbBlockBegin
  2
*Model_Space
 70
     0
 10
0.0
 20
0.0
 30
0.0
  3
*Model_Space
  1
*Model_Space
  0
ENDBLK
  5
21
330
224
100
AcDbEntity
  8
0
100
AcDbBlockEnd
  0
BLOCK
  5
1C
330
225
100
AcDbEntity
 67
     1
  8
0
100
AcDbBlockBegin
  2
*Paper_Space
 70
     0
 10
0.0
 20
0.0
 30
0.0
  3
*Paper_Space
  1
*Paper_Space
  0
ENDBLK
  5
1D
330
225
100
AcDbEntity
 67
     1
  8
0
100
AcDbBlockEnd
  0
BLOCK
  5
26A
330
226
100
AcDbEntity
  8
0
100
AcDbBlockBegin
  2
_CLOSED
 70
     0
 10
0.0
 20
0.0
 30
0.0
  3
_CLOSED
  1
_CLOSED
  0
LINE
  5
26B
330
226
100
AcDbEntity
  8
0
  6
ByBlock
 62
     0
100
AcDbLine
 10
0.0
 20
0.0
 30
0.0
 11
-1.0
 21
0.2
 31
0.0
  0
LINE
  5
26C
330
226
100
AcDbEntity
  8
0
  6
ByBlock
 62
     0
100
AcDbLine
 10
-1.0
 20
0.2
 30
0.0
 11
-1.0
 21
-0.2
 31
0.0
  0
LINE
  5
26D
330
226
100
AcDbEntity
  8
0
  6
ByBlock
 62
     0
100
AcDbLine
 10
-1.0
 20
-0.2
 30
0.0
 11
0.0
 21
0.0
 31
0.0
  0
LINE
  5
26E
330
226
100
AcDbEntity
  8
0
  6
ByBlock
 62
     0
100
AcDbLine
 10
-1.0
 20
0.0
 30
0.0
 11
0.0
 21
0.0
 31
0.0
  0
ENDBLK
  5
26F
330
226
100
AcDbEntity
  8
0
  6
ByBlock
 62
     0
100
AcDbBlockEnd
  0
BLOCK
  5
270
330
227
100
AcDbEntity
  8
0
100
AcDbBlockBegin
  2
*D1
 70
     1
 10
0.0
 20
0.0
 30
0.0
  3
*D1
  1
*D1
  0
LINE
  5
271
330
227
100
AcDbEntity
  8
0
  6
Continuous
 62
     0
370
    -2
100
AcDbLine
 10
111.9964081977523
 20
110.3699090793303
 30
0.0
 11
123.8616621426234
 21
118.8343271824086
 31
0.0
  0
MTEXT
  5
272
330
227
100
AcDbEntity
  8
0
 62
     0
100
AcDbMText
 10
112.7560344232431
 20
117.0536930373548
 30
0.0
 40
3.0
 41
0.0
 71
     1
 72
     1
  1
\A1;%%c120
 11
0.8140826034216905
 21
0.5807490979813595
 31
0.0
 73
     1
 44
1.0
  0
INSERT
  5
273
330
227
100
AcDbEntity
  8
0
 62
     0
370
    -2
100
AcDbBlockReference
  2
_CLOSED
 10
109.961201689198
 20
108.9180363343769
 30
0.0
 41
2.5
 42
2.5
 43
2.5
 50
215.5032474639494
  0
LINE
  5
4E0
330
227
100
AcDbEntity
  8
0
  6
Continuous
 62
     0
100
AcDbLine
 10
73.23748453520079
 20
82.78432692520056
 30
0.0
 11
73.4174845352008
 21
82.78432692520056
 31
0.0
  0
LINE
  5
4E1
330
227
100
AcDbEntity
  8
0
  6
Continuous
 62
     0
100
AcDbLine
 10
73.3274845352008
 20
82.69432692520056
 30
0.0
 11
73.3274845352008
 21
82.87432692520056
 31
0.0
  0
POINT
  5
4E4
330
227
100
AcDbEntity
  8
Defpoints
 62
     0
100
AcDbPoint
 10
109.961201689198
 20
108.9180363343769
 30
0.0
  0
POINT
  5
4E5
330
227
100
AcDbEntity
  8
Defpoints
 62
     0
100
AcDbPoint
 10
36.69376738120354
 20
56.65061751602428
 30
0.0
  0
ENDBLK
  5
274
330
227
100
AcDbEntity
  8
0
  6
ByBlock
 62
     0
100
AcDbBlockEnd
  0
BLOCK
  5
275
330
228
100
AcDbEntity
  8
0
100
AcDbBlockBegin
  2
*D2
 70
     1
 10
0.0
 20
0.0
 30
0.0
  3
*D2
  1
*D2
  0
LINE
  5
276
330
228
100
AcDbEntity
  8
0
  6
Continuous
 62
     0
370
    -2
100
AcDbLine
 10
122.1507467347
 20
244.7100523098
 30
0.0
 11
137.2888268545
 21
244.7100523098
 31
0.0
  0
LINE
  5
277
330
228
100
AcDbEntity
  8
0
  6
Continuous
 62
     0
370
    -2
100
AcDbLine
 10
122.6220194619
 20
191.8350539891
 30
0.0
 11
137.2888268545
 21
191.8350539891
 31
0.0
  0
LINE
  5
278
330
228
100
AcDbEntity
  8
0
  6
Continuous
 62
     0
370
    -2
100
AcDbLine
 10
137.1088268545
 20
242.2100523098
 30
0.0
 11
137.1088268545
 21
194.3350539891
 31
0.0
  0
INSERT
  5
279
330
228
100
AcDbEntity
  8
0
 62
     0
370
    -2
100
AcDbBlockReference
  2
_CLOSED
 10
137.1088268545
 20
244.7100523098
 30
0.0
 41
2.5
 42
2.5
 43
2.5
 50
90.0
  0
INSERT
  5
27A
330
228
100
AcDbEntity
  8
0
 62
     0
370
    -2
100
AcDbBlockReference
  2
_CLOSED
 10
137.1088268545
 20
191.8350539891
 30
0.0
 41
2.5
 42
2.5
 43
2.5
 50
270.0
  0
MTEXT
  5
27B
330
228
100
AcDbEntity
  8
0
 62
     0
100
AcDbMText
 10
132.1088268545
 20
218.27255314945
 30
0.0
 40
3.0
 41
0.0
 71
     2
 72
     1
  1
\A1;70
 11
0.0
 21
1.0
 31
0.0
 73
     1
 44
1.0
  0
POINT
  5
27C
330
228
100
AcDbEntity
  8
Defpoints
 62
     0
100
AcDbPoint
 10
122.0882467347
 20
244.7100523098
 30
0.0
  0
POINT
  5
4E2
330
228
100
AcDbEntity
  8
Defpoints
 62
     0
100
AcDbPoint
 10
122.5595194619
 20
191.8350539891
 30
0.0
  0
POINT
  5
4E3
330
228
100
AcDbEntity
  8
Defpoints
 62
     0
100
AcDbPoint
 10
137.1088268545
 20
191.8350539891
 30
0.0
  0
ENDBLK
  5
27D
330
228
100
AcDbEntity
  8
0
  6
ByBlock
 62
     0
100
AcDbBlockEnd
  0
BLOCK
  5
22E
330
229
100
AcDbEntity
  8
0
100
AcDbBlockBegin
  2
LOGO2_BL0
 70
     0
 10
333.1473869546
 20
37.5239270671
 30
0.0
  3
LOGO2_BL0
  1
LOGO2_BL0
  0
LINE
  5
22F
330
229
100
AcDbEntity
  8
0
  6
Continuous
 62
     7
100
AcDbLine
 10
324.8903121828
 20
40.7194184059
 30
0.0
 11
323.5859712535
 21
40.7194184059
 31
0.0
  0
LINE
  5
230
330
229
100
AcDbEntity
  8
0
  6
Continuous
 62
     7
100
AcDbLine
 10
323.5859712535
 20
40.7194184059
 30
0.0
 11
323.5859712535
 21
30.260352346
 31
0.0
  0
LINE
  5
231
330
229
100
AcDbEntity
  8
0
  6
Continuous
 62
     7
100
AcDbLine
 10
323.5859712535
 20
30.260352346
 30
0.0
 11
328.0670261417
 21
30.260352346
 31
0.0
  0
LINE
  5
232
330
229
100
AcDbEntity
  8
0
  6
Continuous
 62
     7
100
AcDbLine
 10
328.0670261417
 20
30.260352346
 30
0.0
 11
328.0670261417
 21
31.4532066711
 31
0.0
  0
LINE
  5
233
330
229
100
AcDbEntity
  8
0
  6
Continuous
 62
     7
100
AcDbLine
 10
328.0670261417
 20
31.4532066711
 30
0.0
 11
324.8903121828
 21
31.4532066711
 31
0.0
  0
LINE
  5
234
330
229
100
AcDbEntity
  8
0
  6
Continuous
 62
     7
100
AcDbLine
 10
324.8903121828
 20
31.4532066711
 30
0.0
 11
324.8903121828
 21
40.7194184059
 31
0.0
  0
LINE
  5
235
330
229
100
AcDbEntity
  8
0
  6
Continuous
 62
     7
100
AcDbLine
 10
339.8266383991
 20
40.7194184059
 30
0.0
 11
338.522820881
 21
40.7194184059
 31
0.0
  0
LINE
  5
236
330
229
100
AcDbEntity
  8
0
  6
Continuous
 62
     7
100
AcDbLine
 10
338.522820881
 20
40.7194184059
 30
0.0
 11
338.522820881
 21
30.260352346
 31
0.0
  0
LINE
  5
237
330
229
100
AcDbEntity
  8
0
  6
Continuous
 62
     7
100
AcDbLine
 10
338.522820881
 20
30.260352346
 30
0.0
 11
343.0040066221
 21
30.260352346
 31
0.0
  0
LINE
  5
238
330
229
100
AcDbEntity
  8
0
  6
Continuous
 62
     7
100
AcDbLine
 10
343.0040066221
 20
30.260352346
 30
0.0
 11
343.0040066221
 21
31.4532066711
 31
0.0
  0
LINE
  5
239
330
229
100
AcDbEntity
  8
0
  6
Continuous
 62
     7
100
AcDbLine
 10
343.0040066221
 20
31.4532066711
 30
0.0
 11
339.8266383991
 21
31.4532066711
 31
0.0
  0
LINE
  5
23A
330
229
100
AcDbEntity
  8
0
  6
Continuous
 62
     7
100
AcDbLine
 10
339.8266383991
 20
31.4532066711
 30
0.0
 11
339.8266383991
 21
40.7194184059
 31
0.0
  0
LWPOLYLINE
  5
23B
330
229
100
AcDbEntity
  8
0
  6
Continuous
 62
     7
100
AcDbPolyline
 90
        2
 70
     0
 43
0.2
 10
321.9403661644
 20
26.9168010391
 10
321.9403661644
 20
25.0597377898
  0
LWPOLYLINE
  5
23C
330
229
100
AcDbEntity
  8
0
  6
Continuous
 62
     7
100
AcDbPolyline
 90
        2
 70
     0
 43
0.2
 10
321.9403661644
 20
25.0597377898
 10
322.7360821748
 20
25.0597377898
  0
LWPOLYLINE
  5
23D
330
229
100
AcDbEntity
  8
0
  6
Continuous
 62
     7
100
AcDbPolyline
 90
        2
 70
     0
 43
0.2
 10
322.7360821748
 20
25.0597377898
 10
322.7360821748
 20
25.2717193614
  0
LWPOLYLINE
  5
23E
330
229
100
AcDbEntity
  8
0
  6
Continuous
 62
     7
100
AcDbPolyline
 90
        2
 70
     0
 43
0.2
 10
322.7360821748
 20
25.2717193614
 10
322.1719756593
 20
25.2717193614
  0
LWPOLYLINE
  5
23F
330
229
100
AcDbEntity
  8
0
  6
Continuous
 62
     7
100
AcDbPolyline
 90
        2
 70
     0
 43
0.2
 10
322.1719756593
 20
25.2717193614
 10
322.1719756593
 20
26.9168010391
  0
LWPOLYLINE
  5
240
330
229
100
AcDbEntity
  8
0
  6
Continuous
 62
     7
100
AcDbPolyline
 90
        2
 70
     0
 43
0.2
 10
322.1719756593
 20
26.9168010391
 10
321.9403661644
 20
26.9168010391
  0
SPLINE
  5
241
330
229
100
AcDbEntity
  8
0
  6
Continuous
 62
     7
100
AcDbSpline
 70
     3
 71
     3
 72
    35
 73
    31
 74
     0
 42
0.000000001
 43
0.0000001
 40
0.0
 40
0.0
 40
0.0
 40
0.0
 40
1.0
 40
1.0
 40
1.0
 40
2.0
 40
2.0
 40
2.0
 40
3.0
 40
3.0
 40
3.0
 40
4.0
 40
4.0
 40
4.0
 40
5.0
 40
5.0
 40
5.0
 40
6.0
 40
6.0
 40
6.0
 40
7.0
 40
7.0
 40
7.0
 40
8.0
 40
8.0
 40
8.0
 40
9.0
 40
9.0
 40
9.0
 40
10.0
 40
10.0
 40
10.0
 40
10.0
 10
324.1343754303
 20
26.2122894457
 30
0.0
 10
324.1343754303
 20
26.2122894457
 30
0.0
 10
324.1343754303
 20
25.5501741665
 30
0.0
 10
324.1343754303
 20
25.5501741665
 30
0.0
 10
324.1343754303
 20
25.2350805712
 30
0.0
 10
324.2822391191
 20
25.0204819432
 30
0.0
 10
324.6223256034
 20
25.0204819432
 30
0.0
 10
324.9618886764
 20
25.0204819432
 30
0.0
 10
325.1100140709
 20
25.2350805712
 30
0.0
 10
325.1100140709
 20
25.5501741665
 30
0.0
 10
325.1100140709
 20
25.5501741665
 30
0.0
 10
325.1100140709
 20
26.2122894457
 30
0.0
 10
325.1100140709
 20
26.2122894457
 30
0.0
 10
325.1100140709
 20
26.2122894457
 30
0.0
 10
324.887956832
 20
26.2122894457
 30
0.0
 10
324.887956832
 20
26.2122894457
 30
0.0
 10
324.887956832
 20
26.2122894457
 30
0.0
 10
324.887956832
 20
25.5752979083
 30
0.0
 10
324.887956832
 20
25.5752979083
 30
0.0
 10
324.887956832
 20
25.3894869011
 30
0.0
 10
324.8412423746
 20
25.2267059906
 30
0.0
 10
324.6223256034
 20
25.2267059906
 30
0.0
 10
324.402885421
 20
25.2267059906
 30
0.0
 10
324.3561709636
 20
25.3894869011
 30
0.0
 10
324.3561709636
 20
25.5752979083
 30
0.0
 10
324.3561709636
 20
25.5752979083
 30
0.0
 10
324.3561709636
 20
26.2122894457
 30
0.0
 10
324.3561709636
 20
26.2122894457
 30
0.0
 10
324.3561709636
 20
26.2122894457
 30
0.0
 10
324.1343754303
 20
26.2122894457
 30
0.0
 10
324.1343754303
 20
26.2122894457
 30
0.0
  0
SPLINE
  5
242
330
229
100
AcDbEntity
  8
0
  6
Continuous
 62
     7
100
AcDbSpline
 70
     3
 71
     3
 72
    35
 73
    31
 74
     0
 42
0.000000001
 43
0.0000001
 40
0.0
 40
0.0
 40
0.0
 40
0.0
 40
1.0
 40
1.0
 40
1.0
 40
2.0
 40
2.0
 40
2.0
 40
3.0
 40
3.0
 40
3.0
 40
4.0
 40
4.0
 40
4.0
 40
5.0
 40
5.0
 40
5.0
 40
6.0
 40
6.0
 40
6.0
 40
7.0
 40
7.0
 40
7.0
 40
8.0
 40
8.0
 40
8.0
 40
9.0
 40
9.0
 40
9.0
 40
10.0
 40
10.0
 40
10.0
 40
10.0
 10
327.5331466281
 20
26.1709399539
 30
0.0
 10
327.4446901205
 20
26.2222342601
 30
0.0
 10
327.3312407238
 20
26.2473580019
 30
0.0
 10
327.2276052888
 20
26.2473580019
 30
0.0
 10
326.8727324356
 20
26.2473580019
 30
0.0
 10
326.5972872454
 20
25.9835587129
 30
0.0
 10
326.5972872454
 20
25.6260688032
 30
0.0
 10
326.5972872454
 20
25.2811407645
 30
0.0
 10
326.8757420505
 20
25.0210053545
 30
0.0
 10
327.2153051235
 20
25.0210053545
 30
0.0
 10
327.3312407238
 20
25.0210053545
 30
0.0
 10
327.4319973967
 20
25.0429886286
 30
0.0
 10
327.5331466281
 20
25.0968999912
 30
0.0
 10
327.5331466281
 20
25.0968999912
 30
0.0
 10
327.5331466281
 20
25.3795420867
 30
0.0
 10
327.5331466281
 20
25.3795420867
 30
0.0
 10
327.4492699692
 20
25.2863748774
 30
0.0
 10
327.345765387
 20
25.2272294019
 30
0.0
 10
327.2176604743
 20
25.2272294019
 30
0.0
 10
326.9839573343
 20
25.2272294019
 30
0.0
 10
326.8186902202
 20
25.3994317156
 30
0.0
 10
326.8186902202
 20
25.6360136177
 30
0.0
 10
326.8186902202
 20
25.8479951893
 30
0.0
 10
326.9864435379
 20
26.040087132
 30
0.0
 10
327.2032666639
 20
26.040087132
 30
0.0
 10
327.3360822782
 20
26.040087132
 30
0.0
 10
327.4446901205
 20
25.9861757693
 30
0.0
 10
327.5331466281
 20
25.8851573907
 30
0.0
 10
327.5331466281
 20
25.8851573907
 30
0.0
 10
327.5331466281
 20
26.1709399539
 30
0.0
 10
327.5331466281
 20
26.1709399539
 30
0.0
  0
SPLINE
  5
243
330
229
100
AcDbEntity
  8
0
  6
Continuous
 62
     7
100
AcDbSpline
 70
     3
 71
     3
 72
    32
 73
    28
 74
     0
 42
0.000000001
 43
0.0000001
 40
0.0
 40
0.0
 40
0.0
 40
0.0
 40
1.0
 40
1.0
 40
1.0
 40
2.0
 40
2.0
 40
2.0
 40
3.0
 40
3.0
 40
3.0
 40
4.0
 40
4.0
 40
4.0
 40
5.0
 40
5.0
 40
5.0
 40
6.0
 40
6.0
 40
6.0
 40
7.0
 40
7.0
 40
7.0
 40
8.0
 40
8.0
 40
8.0
 40
9.0
 40
9.0
 40
9.0
 40
9.0
 10
330.0650178804
 20
25.5993748276
 30
0.0
 10
330.0650178804
 20
25.5993748276
 30
0.0
 10
330.0650178804
 20
25.6333965613
 30
0.0
 10
330.0650178804
 20
25.6333965613
 30
0.0
 10
330.0650178804
 20
25.9757075435
 30
0.0
 10
329.8921613025
 20
26.2473580019
 30
0.0
 10
329.5255116954
 20
26.2473580019
 30
0.0
 10
329.153889681
 20
26.2473580019
 30
0.0
 10
328.9641530891
 20
25.9809416564
 30
0.0
 10
328.9641530891
 20
25.6260688032
 30
0.0
 10
328.9641530891
 20
25.2863748774
 30
0.0
 10
329.1782283059
 20
25.0204819432
 30
0.0
 10
329.5303532498
 20
25.0204819432
 30
0.0
 10
329.754373281
 20
25.0204819432
 30
0.0
 10
329.9565408909
 20
25.1361558378
 30
0.0
 10
330.0650178804
 20
25.3355755385
 30
0.0
 10
330.0650178804
 20
25.3355755385
 30
0.0
 10
329.8773749337
 20
25.4423514412
 30
0.0
 10
329.8773749337
 20
25.4423514412
 30
0.0
 10
329.7938908332
 20
25.3036474499
 30
0.0
 10
329.7026864163
 20
25.2178079987
 30
0.0
 10
329.5331011591
 20
25.2178079987
 30
0.0
 10
329.3211195875
 20
25.2178079987
 30
0.0
 10
329.1881731204
 20
25.4025721833
 30
0.0
 10
329.1858177696
 20
25.5993748276
 30
0.0
 10
329.1858177696
 20
25.5993748276
 30
0.0
 10
330.0650178804
 20
25.5993748276
 30
0.0
 10
330.0650178804
 20
25.5993748276
 30
0.0
  0
SPLINE
  5
244
330
229
100
AcDbEntity
  8
0
  6
Continuous
 62
     7
100
AcDbSpline
 70
     3
 71
     3
 72
    14
 73
    10
 74
     0
 42
0.000000001
 43
0.0000001
 40
0.0
 40
0.0
 40
0.0
 40
0.0
 40
1.0
 40
1.0
 40
1.0
 40
2.0
 40
2.0
 40
2.0
 40
3.0
 40
3.0
 40
3.0
 40
3.0
 10
329.1978562292
 20
25.7668664397
 30
0.0
 10
329.2254661746
 20
25.9317409954
 30
0.0
 10
329.3533093817
 20
26.054742648
 30
0.0
 10
329.5255116954
 20
26.054742648
 30
0.0
 10
329.7026864163
 20
26.054742648
 30
0.0
 10
329.816135813
 20
25.9390687534
 30
0.0
 10
329.8433531999
 20
25.7668664397
 30
0.0
 10
329.8433531999
 20
25.7668664397
 30
0.0
 10
329.1978562292
 20
25.7668664397
 30
0.0
 10
329.1978562292
 20
25.7668664397
 30
0.0
  0
SPLINE
  5
245
330
229
100
AcDbEntity
  8
0
  6
Continuous
 62
     7
100
AcDbSpline
 70
     3
 71
     3
 72
    20
 73
    16
 74
     0
 42
0.000000001
 43
0.0000001
 40
0.0
 40
0.0
 40
0.0
 40
0.0
 40
1.0
 40
1.0
 40
1.0
 40
2.0
 40
2.0
 40
2.0
 40
3.0
 40
3.0
 40
3.0
 40
4.0
 40
4.0
 40
4.0
 40
5.0
 40
5.0
 40
5.0
 40
5.0
 10
332.0890493306
 20
25.9762309548
 30
0.0
 10
332.0890493306
 20
25.9762309548
 30
0.0
 10
332.5001888972
 20
25.4737561185
 30
0.0
 10
332.5001888972
 20
25.4737561185
 30
0.0
 10
332.3841224441
 20
25.3580822239
 30
0.0
 10
332.2463344226
 20
25.2277528132
 30
0.0
 10
332.0743938145
 20
25.2277528132
 30
0.0
 10
331.8969573879
 20
25.2277528132
 30
0.0
 10
331.7294657758
 20
25.3921039576
 30
0.0
 10
331.7294657758
 20
25.5690169729
 30
0.0
 10
331.7294657758
 20
25.7469768107
 30
0.0
 10
331.9392228494
 20
25.8731189311
 30
0.0
 10
332.0668043508
 20
25.9610520275
 30
0.0
 10
332.0668043508
 20
25.9610520275
 30
0.0
 10
332.0890493306
 20
25.9762309548
 30
0.0
 10
332.0890493306
 20
25.9762309548
 30
0.0
  0
SPLINE
  5
246
330
229
100
AcDbEntity
  8
0
  6
Continuous
 62
     7
100
AcDbSpline
 70
     3
 71
     3
 72
    23
 73
    19
 74
     0
 42
0.000000001
 43
0.0000001
 40
0.0
 40
0.0
 40
0.0
 40
0.0
 40
1.0
 40
1.0
 40
1.0
 40
2.0
 40
2.0
 40
2.0
 40
3.0
 40
3.0
 40
3.0
 40
4.0
 40
4.0
 40
4.0
 40
5.0
 40
5.0
 40
5.0
 40
6.0
 40
6.0
 40
6.0
 40
6.0
 10
332.1383808444
 20
26.2672476309
 30
0.0
 10
332.1383808444
 20
26.2672476309
 30
0.0
 10
332.0767491653
 20
26.3457593241
 30
0.0
 10
332.0767491653
 20
26.3457593241
 30
0.0
 10
332.0228378026
 20
26.4143262028
 30
0.0
 10
331.9660476779
 20
26.4834164928
 30
0.0
 10
331.9660476779
 20
26.5771071133
 30
0.0
 10
331.9660476779
 20
26.6959214757
 30
0.0
 10
332.0619627964
 20
26.7733863463
 30
0.0
 10
332.1729259894
 20
26.7733863463
 30
0.0
 10
332.2961893477
 20
26.7733863463
 30
0.0
 10
332.3894874098
 20
26.7022024111
 30
0.0
 10
332.3894874098
 20
26.5718730004
 30
0.0
 10
332.3894874098
 20
26.4368328882
 30
0.0
 10
332.2613824971
 20
26.3604148401
 30
0.0
 10
332.1678227294
 20
26.2866138485
 30
0.0
 10
332.1678227294
 20
26.2866138485
 30
0.0
 10
332.1383808444
 20
26.2672476309
 30
0.0
 10
332.1383808444
 20
26.2672476309
 30
0.0
  0
SPLINE
  5
247
330
229
100
AcDbEntity
  8
0
  6
Continuous
 62
     7
100
AcDbSpline
 70
     3
 71
     3
 72
    50
 73
    46
 74
     0
 42
0.000000001
 43
0.0000001
 40
0.0
 40
0.0
 40
0.0
 40
0.0
 40
1.0
 40
1.0
 40
1.0
 40
2.0
 40
2.0
 40
2.0
 40
3.0
 40
3.0
 40
3.0
 40
4.0
 40
4.0
 40
4.0
 40
5.0
 40
5.0
 40
5.0
 40
6.0
 40
6.0
 40
6.0
 40
7.0
 40
7.0
 40
7.0
 40
8.0
 40
8.0
 40
8.0
 40
9.0
 40
9.0
 40
9.0
 40
10.0
 40
10.0
 40
10.0
 40
11.0
 40
11.0
 40
11.0
 40
12.0
 40
12.0
 40
12.0
 40
13.0
 40
13.0
 40
13.0
 40
14.0
 40
14.0
 40
14.0
 40
15.0
 40
15.0
 40
15.0
 40
15.0
 10
332.8405370871
 20
25.0602612011
 30
0.0
 10
332.8405370871
 20
25.0602612011
 30
0.0
 10
333.1259270918
 20
25.0602612011
 30
0.0
 10
333.1259270918
 20
25.0602612011
 30
0.0
 10
333.1259270918
 20
25.0602612011
 30
0.0
 10
332.793560924
 20
25.471139062
 30
0.0
 10
332.793560924
 20
25.471139062
 30
0.0
 10
332.793560924
 20
25.471139062
 30
0.0
 10
333.0200671588
 20
25.7370319963
 30
0.0
 10
333.0200671588
 20
25.7370319963
 30
0.0
 10
333.0200671588
 20
25.7370319963
 30
0.0
 10
332.8718109116
 20
25.8898680923
 30
0.0
 10
332.8718109116
 20
25.8898680923
 30
0.0
 10
332.8718109116
 20
25.8898680923
 30
0.0
 10
332.6559037553
 20
25.6386306742
 30
0.0
 10
332.6559037553
 20
25.6386306742
 30
0.0
 10
332.6559037553
 20
25.6386306742
 30
0.0
 10
332.2688411079
 20
26.1065603655
 30
0.0
 10
332.2688411079
 20
26.1065603655
 30
0.0
 10
332.4242942604
 20
26.2206640263
 30
0.0
 10
332.6065722414
 20
26.3604148401
 30
0.0
 10
332.6065722414
 20
26.5697793553
 30
0.0
 10
332.6065722414
 20
26.8136890154
 30
0.0
 10
332.4045354843
 20
26.9571037083
 30
0.0
 10
332.1780292495
 20
26.9571037083
 30
0.0
 10
331.9338578837
 20
26.9571037083
 30
0.0
 10
331.7494862575
 20
26.8063612574
 30
0.0
 10
331.7494862575
 20
26.5498897263
 30
0.0
 10
331.7494862575
 20
26.3923429287
 30
0.0
 10
331.8481492853
 20
26.25468576
 30
0.0
 10
331.953485807
 20
26.1437225669
 30
0.0
 10
331.953485807
 20
26.1437225669
 30
0.0
 10
331.8379427652
 20
26.0599767609
 30
0.0
 10
331.8379427652
 20
26.0599767609
 30
0.0
 10
331.660244633
 20
25.9317409954
 30
0.0
 10
331.5129043554
 20
25.8040286411
 30
0.0
 10
331.5129043554
 20
25.5669233277
 30
0.0
 10
331.5129043554
 20
25.2465956195
 30
0.0
 10
331.7714695316
 20
25.0204819432
 30
0.0
 10
332.0818524253
 20
25.0204819432
 30
0.0
 10
332.3007691965
 20
25.0204819432
 30
0.0
 10
332.4979643992
 20
25.145577241
 30
0.0
 10
332.6382386243
 20
25.3114986192
 30
0.0
 10
332.6382386243
 20
25.3114986192
 30
0.0
 10
332.8405370871
 20
25.0602612011
 30
0.0
 10
332.8405370871
 20
25.0602612011
 30
0.0
  0
LWPOLYLINE
  5
248
330
229
100
AcDbEntity
  8
0
  6
Continuous
 62
     7
100
AcDbPolyline
 90
        2
 70
     0
 43
0.2
 10
334.7759811768
 20
26.9168010391
 10
334.5446333876
 20
26.9168010391
  0
LWPOLYLINE
  5
249
330
229
100
AcDbEntity
  8
0
  6
Continuous
 62
     7
100
AcDbPolyline
 90
        2
 70
     0
 43
0.2
 10
334.5446333876
 20
26.9168010391
 10
334.5446333876
 20
25.0597377898
  0
LWPOLYLINE
  5
24A
330
229
100
AcDbEntity
  8
0
  6
Continuous
 62
     7
100
AcDbPolyline
 90
        2
 70
     0
 43
0.2
 10
334.5446333876
 20
25.0597377898
 10
335.3399568395
 20
25.0597377898
  0
LWPOLYLINE
  5
24B
330
229
100
AcDbEntity
  8
0
  6
Continuous
 62
     7
100
AcDbPolyline
 90
        2
 70
     0
 43
0.2
 10
335.3399568395
 20
25.0597377898
 10
335.3399568395
 20
25.2717193614
  0
LWPOLYLINE
  5
24C
330
229
100
AcDbEntity
  8
0
  6
Continuous
 62
     7
100
AcDbPolyline
 90
        2
 70
     0
 43
0.2
 10
335.3399568395
 20
25.2717193614
 10
334.7759811768
 20
25.2717193614
  0
LWPOLYLINE
  5
24D
330
229
100
AcDbEntity
  8
0
  6
Continuous
 62
     7
100
AcDbPolyline
 90
        2
 70
     0
 43
0.2
 10
334.7759811768
 20
25.2717193614
 10
334.7759811768
 20
26.9168010391
  0
LWPOLYLINE
  5
24E
330
229
100
AcDbEntity
  8
0
  6
Continuous
 62
     7
100
AcDbPolyline
 90
        2
 70
     0
 43
0.2
 10
337.019060251
 20
26.2122894457
 10
336.7979189819
 20
26.2122894457
  0
LWPOLYLINE
  5
24F
330
229
100
AcDbEntity
  8
0
  6
Continuous
 62
     7
100
AcDbPolyline
 90
        2
 70
     0
 43
0.2
 10
336.7979189819
 20
26.2122894457
 10
336.7979189819
 20
25.0602612011
  0
LWPOLYLINE
  5
250
330
229
100
AcDbEntity
  8
0
  6
Continuous
 62
     7
100
AcDbPolyline
 90
        2
 70
     0
 43
0.2
 10
336.7979189819
 20
25.0602612011
 10
337.019060251
 20
25.0602612011
  0
LWPOLYLINE
  5
251
330
229
100
AcDbEntity
  8
0
  6
Continuous
 62
     7
100
AcDbPolyline
 90
        2
 70
     0
 43
0.2
 10
337.019060251
 20
25.0602612011
 10
337.019060251
 20
26.2122894457
  0
SPLINE
  5
252
330
229
100
AcDbEntity
  8
0
  6
Continuous
 62
     7
100
AcDbSpline
 70
     3
 71
     3
 72
    17
 73
    13
 74
     0
 42
0.000000001
 43
0.0000001
 40
0.0
 40
0.0
 40
0.0
 40
0.0
 40
1.0
 40
1.0
 40
1.0
 40
2.0
 40
2.0
 40
2.0
 40
3.0
 40
3.0
 40
3.0
 40
4.0
 40
4.0
 40
4.0
 40
4.0
 10
336.9086204693
 20
26.894817765
 30
0.0
 10
336.8246129576
 20
26.894817765
 30
0.0
 10
336.7560460788
 20
26.825727475
 30
0.0
 10
336.7560460788
 20
26.7398880238
 30
0.0
 10
336.7560460788
 20
26.6556188065
 30
0.0
 10
336.8246129576
 20
26.5896689842
 30
0.0
 10
336.9086204693
 20
26.5896689842
 30
0.0
 10
336.9923662753
 20
26.5896689842
 30
0.0
 10
337.0611948597
 20
26.6556188065
 30
0.0
 10
337.0611948597
 20
26.7398880238
 30
0.0
 10
337.0611948597
 20
26.825727475
 30
0.0
 10
336.9923662753
 20
26.894817765
 30
0.0
 10
336.9086204693
 20
26.894817765
 30
0.0
  0
SPLINE
  5
253
330
229
100
AcDbEntity
  8
0
  6
Continuous
 62
     7
100
AcDbSpline
 70
     3
 71
     3
 72
    17
 73
    13
 74
     0
 42
0.000000001
 43
0.0000001
 40
0.0
 40
0.0
 40
0.0
 40
0.0
 40
1.0
 40
1.0
 40
1.0
 40
2.0
 40
2.0
 40
2.0
 40
3.0
 40
3.0
 40
3.0
 40
4.0
 40
4.0
 40
4.0
 40
4.0
 10
339.1493441926
 20
25.2178079987
 30
0.0
 10
338.915379347
 20
25.2178079987
 30
0.0
 10
338.7850499363
 20
25.4198447558
 30
0.0
 10
338.7850499363
 20
25.6360136177
 30
0.0
 10
338.7850499363
 20
25.8506122457
 30
0.0
 10
338.9208751655
 20
26.0495085351
 30
0.0
 10
339.1493441926
 20
26.0495085351
 30
0.0
 10
339.3888048568
 20
26.0495085351
 30
0.0
 10
339.5243683804
 20
25.8605570602
 30
0.0
 10
339.5243683804
 20
25.6360136177
 30
0.0
 10
339.5243683804
 20
25.4098999414
 30
0.0
 10
339.3911602076
 20
25.2178079987
 30
0.0
 10
339.1493441926
 20
25.2178079987
 30
0.0
  0
SPLINE
  5
254
330
229
100
AcDbEntity
  8
0
  6
Continuous
 62
     7
100
AcDbSpline
 70
     3
 71
     3
 72
    50
 73
    46
 74
     0
 42
0.000000001
 43
0.0000001
 40
0.0
 40
0.0
 40
0.0
 40
0.0
 40
1.0
 40
1.0
 40
1.0
 40
2.0
 40
2.0
 40
2.0
 40
3.0
 40
3.0
 40
3.0
 40
4.0
 40
4.0
 40
4.0
 40
5.0
 40
5.0
 40
5.0
 40
6.0
 40
6.0
 40
6.0
 40
7.0
 40
7.0
 40
7.0
 40
8.0
 40
8.0
 40
8.0
 40
9.0
 40
9.0
 40
9.0
 40
10.0
 40
10.0
 40
10.0
 40
11.0
 40
11.0
 40
11.0
 40
12.0
 40
12.0
 40
12.0
 40
13.0
 40
13.0
 40
13.0
 40
14.0
 40
14.0
 40
14.0
 40
15.0
 40
15.0
 40
15.0
 40
15.0
 10
339.7334711899
 20
26.2128128569
 30
0.0
 10
339.7334711899
 20
26.2128128569
 30
0.0
 10
339.5118065095
 20
26.2128128569
 30
0.0
 10
339.5118065095
 20
26.2128128569
 30
0.0
 10
339.5118065095
 20
26.2128128569
 30
0.0
 10
339.5118065095
 20
26.0154868014
 30
0.0
 10
339.5118065095
 20
26.0154868014
 30
0.0
 10
339.5118065095
 20
26.0154868014
 30
0.0
 10
339.5070958079
 20
26.0154868014
 30
0.0
 10
339.5070958079
 20
26.0154868014
 30
0.0
 10
339.4157605382
 20
26.158378083
 30
0.0
 10
339.2778416638
 20
26.2468345907
 30
0.0
 10
339.1051159388
 20
26.2468345907
 30
0.0
 10
338.772749771
 20
26.2468345907
 30
0.0
 10
338.5636469615
 20
25.9589583823
 30
0.0
 10
338.5636469615
 20
25.6433413757
 30
0.0
 10
338.5636469615
 20
25.3135922644
 30
0.0
 10
338.7607113114
 20
25.0204819432
 30
0.0
 10
339.1155841646
 20
25.0204819432
 30
0.0
 10
339.2778416638
 20
25.0204819432
 30
0.0
 10
339.4178541833
 20
25.1089384508
 30
0.0
 10
339.5070958079
 20
25.2397912728
 30
0.0
 10
339.5070958079
 20
25.2397912728
 30
0.0
 10
339.5118065095
 20
25.2397912728
 30
0.0
 10
339.5118065095
 20
25.2397912728
 30
0.0
 10
339.5118065095
 20
25.2397912728
 30
0.0
 10
339.5118065095
 20
25.0204819432
 30
0.0
 10
339.5118065095
 20
25.0204819432
 30
0.0
 10
339.5118065095
 20
24.7839000411
 30
0.0
 10
339.4552780904
 20
24.5970422113
 30
0.0
 10
339.1820573981
 20
24.5970422113
 30
0.0
 10
338.9797589354
 20
24.5970422113
 30
0.0
 10
338.8371293594
 20
24.7153331624
 30
0.0
 10
338.8371293594
 20
24.9215572098
 30
0.0
 10
338.8371293594
 20
24.9215572098
 30
0.0
 10
338.615464679
 20
24.9215572098
 30
0.0
 10
338.615464679
 20
24.9215572098
 30
0.0
 10
338.6204370862
 20
24.5970422113
 30
0.0
 10
338.8515231698
 20
24.4002395671
 30
0.0
 10
339.171850878
 20
24.4002395671
 30
0.0
 10
339.6198909404
 20
24.4002395671
 30
0.0
 10
339.7334711899
 20
24.6854987189
 30
0.0
 10
339.7334711899
 20
25.0822444751
 30
0.0
 10
339.7334711899
 20
25.0822444751
 30
0.0
 10
339.7334711899
 20
26.2128128569
 30
0.0
 10
339.7334711899
 20
26.2128128569
 30
0.0
  0
SPLINE
  5
255
330
229
100
AcDbEntity
  8
0
  6
Continuous
 62
     7
100
AcDbSpline
 70
     3
 71
     3
 72
    44
 73
    40
 74
     0
 42
0.000000001
 43
0.0000001
 40
0.0
 40
0.0
 40
0.0
 40
0.0
 40
1.0
 40
1.0
 40
1.0
 40
2.0
 40
2.0
 40
2.0
 40
3.0
 40
3.0
 40
3.0
 40
4.0
 40
4.0
 40
4.0
 40
5.0
 40
5.0
 40
5.0
 40
6.0
 40
6.0
 40
6.0
 40
7.0
 40
7.0
 40
7.0
 40
8.0
 40
8.0
 40
8.0
 40
9.0
 40
9.0
 40
9.0
 40
10.0
 40
10.0
 40
10.0
 40
11.0
 40
11.0
 40
11.0
 40
12.0
 40
12.0
 40
12.0
 40
13.0
 40
13.0
 40
13.0
 40
13.0
 10
341.3023965253
 20
27.1978729007
 30
0.0
 10
341.3023965253
 20
27.1978729007
 30
0.0
 10
341.3023965253
 20
25.0597377898
 30
0.0
 10
341.3023965253
 20
25.0597377898
 30
0.0
 10
341.3023965253
 20
25.0597377898
 30
0.0
 10
341.5237995001
 20
25.0597377898
 30
0.0
 10
341.5237995001
 20
25.0597377898
 30
0.0
 10
341.5237995001
 20
25.0597377898
 30
0.0
 10
341.5237995001
 20
25.5894300131
 30
0.0
 10
341.5237995001
 20
25.5894300131
 30
0.0
 10
341.5237995001
 20
25.7993179395
 30
0.0
 10
341.5237995001
 20
26.0500319464
 30
0.0
 10
341.8090586519
 20
26.0500319464
 30
0.0
 10
342.0359574452
 20
26.0500319464
 30
0.0
 10
342.0629131266
 20
25.9170854793
 30
0.0
 10
342.0629131266
 20
25.7208062464
 30
0.0
 10
342.0629131266
 20
25.7208062464
 30
0.0
 10
342.0629131266
 20
25.0597377898
 30
0.0
 10
342.0629131266
 20
25.0597377898
 30
0.0
 10
342.0629131266
 20
25.0597377898
 30
0.0
 10
342.2848395126
 20
25.0597377898
 30
0.0
 10
342.2848395126
 20
25.0597377898
 30
0.0
 10
342.2848395126
 20
25.0597377898
 30
0.0
 10
342.2848395126
 20
25.7469768107
 30
0.0
 10
342.2848395126
 20
25.7469768107
 30
0.0
 10
342.2848395126
 20
26.027525261
 30
0.0
 10
342.2008320009
 20
26.2473580019
 30
0.0
 10
341.8757935911
 20
26.2473580019
 30
0.0
 10
341.7360427773
 20
26.2473580019
 30
0.0
 10
341.5978621973
 20
26.1808847684
 30
0.0
 10
341.5285102016
 20
26.0578831157
 30
0.0
 10
341.5285102016
 20
26.0578831157
 30
0.0
 10
341.5237995001
 20
26.0578831157
 30
0.0
 10
341.5237995001
 20
26.0578831157
 30
0.0
 10
341.5237995001
 20
26.0578831157
 30
0.0
 10
341.5237995001
 20
27.1978729007
 30
0.0
 10
341.5237995001
 20
27.1978729007
 30
0.0
 10
341.5237995001
 20
27.1978729007
 30
0.0
 10
341.3023965253
 20
27.1978729007
 30
0.0
 10
341.3023965253
 20
27.1978729007
 30
0.0
  0
LWPOLYLINE
  5
256
330
229
100
AcDbEntity
  8
0
  6
Continuous
 62
     7
100
AcDbPolyline
 90
        2
 70
     0
 43
0.2
 10
344.1246301895
 20
26.005541987
 10
344.341060757
 20
26.005541987
  0
LWPOLYLINE
  5
257
330
229
100
AcDbEntity
  8
0
  6
Continuous
 62
     7
100
AcDbPolyline
 90
        2
 70
     0
 43
0.2
 10
344.341060757
 20
26.005541987
 10
344.341060757
 20
26.2122894457
  0
LWPOLYLINE
  5
258
330
229
100
AcDbEntity
  8
0
  6
Continuous
 62
     7
100
AcDbPolyline
 90
        2
 70
     0
 43
0.2
 10
344.341060757
 20
26.2122894457
 10
344.1246301895
 20
26.2122894457
  0
LWPOLYLINE
  5
259
330
229
100
AcDbEntity
  8
0
  6
Continuous
 62
     7
100
AcDbPolyline
 90
        2
 70
     0
 43
0.2
 10
344.1246301895
 20
26.2122894457
 10
344.1246301895
 20
26.65300175
  0
LWPOLYLINE
  5
25A
330
229
100
AcDbEntity
  8
0
  6
Continuous
 62
     7
100
AcDbPolyline
 90
        2
 70
     0
 43
0.2
 10
344.1246301895
 20
26.65300175
 10
343.9029655091
 20
26.65300175
  0
LWPOLYLINE
  5
25B
330
229
100
AcDbEntity
  8
0
  6
Continuous
 62
     7
100
AcDbPolyline
 90
        2
 70
     0
 43
0.2
 10
343.9029655091
 20
26.65300175
 10
343.9029655091
 20
26.2122894457
  0
LWPOLYLINE
  5
25C
330
229
100
AcDbEntity
  8
0
  6
Continuous
 62
     7
100
AcDbPolyline
 90
        2
 70
     0
 43
0.2
 10
343.9029655091
 20
26.2122894457
 10
343.7823192072
 20
26.2122894457
  0
LWPOLYLINE
  5
25D
330
229
100
AcDbEntity
  8
0
  6
Continuous
 62
     7
100
AcDbPolyline
 90
        2
 70
     0
 43
0.2
 10
343.7823192072
 20
26.2122894457
 10
343.7823192072
 20
26.005541987
  0
LWPOLYLINE
  5
25E
330
229
100
AcDbEntity
  8
0
  6
Continuous
 62
     7
100
AcDbPolyline
 90
        2
 70
     0
 43
0.2
 10
343.7823192072
 20
26.005541987
 10
343.9029655091
 20
26.005541987
  0
LWPOLYLINE
  5
25F
330
229
100
AcDbEntity
  8
0
  6
Continuous
 62
     7
100
AcDbPolyline
 90
        2
 70
     0
 43
0.2
 10
343.9029655091
 20
26.005541987
 10
343.9029655091
 20
25.0597377898
  0
LWPOLYLINE
  5
260
330
229
100
AcDbEntity
  8
0
  6
Continuous
 62
     7
100
AcDbPolyline
 90
        2
 70
     0
 43
0.2
 10
343.9029655091
 20
25.0597377898
 10
344.1246301895
 20
25.0597377898
  0
LWPOLYLINE
  5
261
330
229
100
AcDbEntity
  8
0
  6
Continuous
 62
     7
100
AcDbPolyline
 90
        2
 70
     0
 43
0.2
 10
344.1246301895
 20
25.0597377898
 10
344.1246301895
 20
26.005541987
  0
SPLINE
  5
262
330
229
100
AcDbEntity
  8
0
  6
Continuous
 62
     7
100
AcDbSpline
 70
     3
 71
     3
 72
    20
 73
    16
 74
     0
 42
0.000000001
 43
0.0000001
 40
0.0
 40
0.0
 40
0.0
 40
0.0
 40
1.0
 40
1.0
 40
1.0
 40
2.0
 40
2.0
 40
2.0
 40
3.0
 40
3.0
 40
3.0
 40
4.0
 40
4.0
 40
4.0
 40
5.0
 40
5.0
 40
5.0
 40
5.0
 10
331.9066404967
 20
35.4206642332
 30
0.0
 10
331.9066404967
 20
35.4206642332
 30
0.0
 10
334.2229971512
 20
32.5911028109
 30
0.0
 10
334.2229971512
 20
32.5911028109
 30
0.0
 10
333.5713500978
 20
31.9389323462
 30
0.0
 10
332.7944768938
 20
31.2030160755
 30
0.0
 10
331.8232872491
 20
31.2030160755
 30
0.0
 10
330.8247493647
 20
31.2030160755
 30
0.0
 10
329.8814313711
 20
32.1325945228
 30
0.0
 10
329.8814313711
 20
33.1317866713
 30
0.0
 10
329.8814313711
 20
34.1309788198
 30
0.0
 10
331.0602844442
 20
34.8375840585
 30
0.0
 10
331.7818069046
 20
35.3374418384
 30
0.0
 10
331.7818069046
 20
35.3374418384
 30
0.0
 10
331.9066404967
 20
35.4206642332
 30
0.0
 10
331.9066404967
 20
35.4206642332
 30
0.0
  0
SPLINE
  5
263
330
229
100
AcDbEntity
  8
0
  6
Continuous
 62
     7
100
AcDbSpline
 70
     3
 71
     3
 72
    23
 73
    19
 74
     0
 42
0.000000001
 43
0.0000001
 40
0.0
 40
0.0
 40
0.0
 40
0.0
 40
1.0
 40
1.0
 40
1.0
 40
2.0
 40
2.0
 40
2.0
 40
3.0
 40
3.0
 40
3.0
 40
4.0
 40
4.0
 40
4.0
 40
5.0
 40
5.0
 40
5.0
 40
6.0
 40
6.0
 40
6.0
 40
6.0
 10
332.1840484793
 20
37.0584181529
 30
0.0
 10
332.1840484793
 20
37.0584181529
 30
0.0
 10
331.8375502067
 20
37.5017475137
 30
0.0
 10
331.8375502067
 20
37.5017475137
 30
0.0
 10
331.5317471618
 20
37.8898569837
 30
0.0
 10
331.2128588347
 20
38.2783590121
 30
0.0
 10
331.2128588347
 20
38.8053033262
 30
0.0
 10
331.2128588347
 20
39.4714750428
 30
0.0
 10
331.7541969591
 20
39.9151969621
 30
0.0
 10
332.3781032143
 20
39.9151969621
 30
0.0
 10
333.0718848763
 20
39.9151969621
 30
0.0
 10
333.5990908961
 20
39.5129553874
 30
0.0
 10
333.5990908961
 20
38.7779550864
 30
0.0
 10
333.5990908961
 20
38.0146905758
 30
0.0
 10
332.8778301414
 20
37.58457735
 30
0.0
 10
332.3507549745
 20
37.1688579346
 30
0.0
 10
332.3507549745
 20
37.1688579346
 30
0.0
 10
332.1840484793
 20
37.0584181529
 30
0.0
 10
332.1840484793
 20
37.0584181529
 30
0.0
  0
SPLINE
  5
264
330
229
100
AcDbEntity
  8
0
  6
Continuous
 62
     7
100
AcDbSpline
 70
     3
 71
     3
 72
    50
 73
    46
 74
     0
 42
0.000000001
 43
0.0000001
 40
0.0
 40
0.0
 40
0.0
 40
0.0
 40
1.0
 40
1.0
 40
1.0
 40
2.0
 40
2.0
 40
2.0
 40
3.0
 40
3.0
 40
3.0
 40
4.0
 40
4.0
 40
4.0
 40
5.0
 40
5.0
 40
5.0
 40
6.0
 40
6.0
 40
6.0
 40
7.0
 40
7.0
 40
7.0
 40
8.0
 40
8.0
 40
8.0
 40
9.0
 40
9.0
 40
9.0
 40
10.0
 40
10.0
 40
10.0
 40
11.0
 40
11.0
 40
11.0
 40
12.0
 40
12.0
 40
12.0
 40
13.0
 40
13.0
 40
13.0
 40
14.0
 40
14.0
 40
14.0
 40
15.0
 40
15.0
 40
15.0
 40
15.0
 10
336.1376356422
 20
30.2598289348
 30
0.0
 10
336.1376356422
 20
30.2598289348
 30
0.0
 10
337.7468636468
 20
30.2598289348
 30
0.0
 10
337.7468636468
 20
30.2598289348
 30
0.0
 10
337.7468636468
 20
30.2598289348
 30
0.0
 10
335.8738363531
 20
32.5769707062
 30
0.0
 10
335.8738363531
 20
32.5769707062
 30
0.0
 10
335.8738363531
 20
32.5769707062
 30
0.0
 10
337.1501747786
 20
34.0744504008
 30
0.0
 10
337.1501747786
 20
34.0744504008
 30
0.0
 10
337.1501747786
 20
34.0744504008
 30
0.0
 10
336.3179508309
 20
34.9354619693
 30
0.0
 10
336.3179508309
 20
34.9354619693
 30
0.0
 10
336.3179508309
 20
34.9354619693
 30
0.0
 10
335.0973557076
 20
33.5201578469
 30
0.0
 10
335.0973557076
 20
33.5201578469
 30
0.0
 10
335.0973557076
 20
33.5201578469
 30
0.0
 10
332.9194413388
 20
36.1555336813
 30
0.0
 10
332.9194413388
 20
36.1555336813
 30
0.0
 10
333.7930147782
 20
36.7935720412
 30
0.0
 10
334.8196860194
 20
37.58457735
 30
0.0
 10
334.8196860194
 20
38.7634304231
 30
0.0
 10
334.8196860194
 20
40.1371233482
 30
0.0
 10
333.6817898795
 20
40.9416064976
 30
0.0
 10
332.4064982766
 20
40.9416064976
 30
0.0
 10
331.0330670573
 20
40.9416064976
 30
0.0
 10
329.9921328585
 20
40.0953812979
 30
0.0
 10
329.9921328585
 20
38.6527289358
 30
0.0
 10
329.9921328585
 20
37.7651542444
 30
0.0
 10
330.547472235
 20
36.9882810403
 30
0.0
 10
331.1436376918
 20
36.3638513739
 30
0.0
 10
331.1436376918
 20
36.3638513739
 30
0.0
 10
330.4917289328
 20
35.8922578035
 30
0.0
 10
330.4917289328
 20
35.8922578035
 30
0.0
 10
329.4931910484
 20
35.1709970488
 30
0.0
 10
328.6603128365
 20
34.4497362942
 30
0.0
 10
328.6603128365
 20
33.1181779778
 30
0.0
 10
328.6603128365
 20
31.3145026798
 30
0.0
 10
330.1173590091
 20
30.0379025487
 30
0.0
 10
331.8648984465
 20
30.0379025487
 30
0.0
 10
333.0997565274
 20
30.0379025487
 30
0.0
 10
334.2091267521
 20
30.7460780212
 30
0.0
 10
335.000001208
 20
31.6746096459
 30
0.0
 10
335.000001208
 20
31.6746096459
 30
0.0
 10
336.1376356422
 20
30.2598289348
 30
0.0
 10
336.1376356422
 20
30.2598289348
 30
0.0
  0
LINE
  5
265
330
229
100
AcDbEntity
  8
0
  6
Continuous
 62
     7
100
AcDbLine
 10
321.9404970172
 20
28.2337038394
 30
0.0
 11
344.3544077449
 21
28.2337038394
 31
0.0
  0
LINE
  5
266
330
229
100
AcDbEntity
  8
0
  6
Continuous
 62
     7
100
AcDbLine
 10
344.3544077449
 20
28.2337038394
 30
0.0
 11
344.3544077449
 21
50.6476145671
 31
0.0
  0
LINE
  5
267
330
229
100
AcDbEntity
  8
0
  6
Continuous
 62
     7
100
AcDbLine
 10
344.3544077449
 20
50.6476145671
 30
0.0
 11
321.9404970172
 21
50.6476145671
 31
0.0
  0
LINE
  5
268
330
229
100
AcDbEntity
  8
0
  6
Continuous
 62
     7
100
AcDbLine
 10
321.9404970172
 20
50.6476145671
 30
0.0
 11
321.9404970172
 21
28.2337038394
 31
0.0
  0
ENDBLK
  5
269
330
229
100
AcDbEntity
  8
0
  6
ByBlock
 62
     0
100
AcDbBlockEnd
  0
BLOCK
  5
27E
330
22A
100
AcDbEntity
  8
0
100
AcDbBlockBegin
  2
*T4
 70
     1
 10
0.0
 20
0.0
 30
0.0
  3
*T4
  1
*T4
  0
MTEXT
  5
27F
330
22A
100
AcDbEntity
  8
0
  6
Continuous
 62
     0
100
AcDbMText
 10
30.06
 20
-3.0
 30
0.0
 40
3.0
 41
39.88
 71
     4
 72
     5
  1
2C0_C_101
 73
     1
 44
1.0
  0
MTEXT
  5
280
330
22A
100
AcDbEntity
  8
0
  6
Continuous
 62
     0
100
AcDbMText
 10
70.06
 20
-0.06
 30
0.0
 40
3.5
 41
19.88
 71
     1
 72
     5
  1
Rev:00
 73
     1
 44
1.0
  0
MTEXT
  5
281
330
22A
100
AcDbEntity
  8
0
  6
Continuous
 62
     0
100
AcDbMText
 10
30.06
 20
-6.06
 30
0.0
 40
3.5
 41
39.88
 71
     1
 72
     5
  1
Scale:1:1
 73
     1
 44
1.0
  0
MTEXT
  5
282
330
22A
100
AcDbEntity
  8
0
  6
Continuous
 62
     0
100
AcDbMText
 10
70.06
 20
-9.0
 30
0.0
 40
3.5
 41
19.88
 71
     4
 72
     5
  1
A3
 73
     1
 44
1.0
  0
MTEXT
  5
283
330
22A
100
AcDbEntity
  8
0
  6
Continuous
 62
     0
100
AcDbMText
 10
30.06
 20
-17.0
 30
0.0
 40
3.5
 41
59.88
 71
     4
 72
     5
  1
BRIGHT 3.6
 73
     1
 44
1.0
  0
MTEXT
  5
284
330
22A
100
AcDbEntity
  8
0
  6
Continuous
 62
     0
100
AcDbMText
 10
30.06
 20
-24.5
 30
0.0
 40
2.5
 41
59.88
 71
     4
 72
     5
  1
DATE:20/03/2014
 73
     1
 44
1.0
  0
MTEXT
  5
285
330
22A
100
AcDbEntity
  8
0
  6
Continuous
 62
     0
100
AcDbMText
 10
0.06
 20
-27.06
 30
0.0
 40
1.85
 41
89.88
 71
     1
 72
     5
  1
Any integral or partial reproductions are prohibited \Pwithout prior authorisation of L & L Luce & Light s.r.l., \Pin accordance with the law in force. \PAll rights reserved.
 73
     1
 44
1.0
  0
LINE
  5
286
330
22A
100
AcDbEntity
  8
0
  6
Continuous
 62
     0
370
    -2
100
AcDbLine
 10
0.0
 20
0.0
 30
0.0
 11
10.0
 21
0.0
 31
0.0
  0
LINE
  5
287
330
22A
100
AcDbEntity
  8
0
  6
Continuous
 62
     0
370
    -2
100
AcDbLine
 10
10.0
 20
0.0
 30
0.0
 11
20.0
 21
0.0
 31
0.0
  0
LINE
  5
288
330
22A
100
AcDbEntity
  8
0
  6
Continuous
 62
     0
370
    -2
100
AcDbLine
 10
20.0
 20
0.0
 30
0.0
 11
30.0
 21
0.0
 31
0.0
  0
LINE
  5
289
330
22A
100
AcDbEntity
  8
0
  6
Continuous
 62
     0
370
    -2
100
AcDbLine
 10
0.0
 20
0.0
 30
0.0
 11
0.0
 21
-6.0
 31
0.0
  0
LINE
  5
28A
330
22A
100
AcDbEntity
  8
0
  6
Continuous
 62
     0
370
    -2
100
AcDbLine
 10
0.0
 20
-6.0
 30
0.0
 11
0.0
 21
-12.0
 31
0.0
  0
LINE
  5
28B
330
22A
100
AcDbEntity
  8
0
  6
Continuous
 62
     0
370
    -2
100
AcDbLine
 10
0.0
 20
-12.0
 30
0.0
 11
0.0
 21
-22.0
 31
0.0
  0
LINE
  5
28C
330
22A
100
AcDbEntity
  8
0
  6
Continuous
 62
     0
370
    -2
100
AcDbLine
 10
0.0
 20
-22.0
 30
0.0
 11
0.0
 21
-27.0
 31
0.0
  0
LINE
  5
28D
330
22A
100
AcDbEntity
  8
0
  6
Continuous
 62
     0
370
    -2
100
AcDbLine
 10
30.0
 20
0.0
 30
0.0
 11
70.0
 21
0.0
 31
0.0
  0
LINE
  5
28E
330
22A
100
AcDbEntity
  8
0
  6
Continuous
 62
     0
370
    -2
100
AcDbLine
 10
30.0
 20
0.0
 30
0.0
 11
30.0
 21
-6.0
 31
0.0
  0
LINE
  5
28F
330
22A
100
AcDbEntity
  8
0
  6
Continuous
 62
     0
370
    -2
100
AcDbLine
 10
70.0
 20
0.0
 30
0.0
 11
90.0
 21
0.0
 31
0.0
  0
LINE
  5
4C5
330
22A
100
AcDbEntity
  8
0
  6
Continuous
 62
     0
370
    -2
100
AcDbLine
 10
70.0
 20
0.0
 30
0.0
 11
70.0
 21
-6.0
 31
0.0
  0
LINE
  5
4C6
330
22A
100
AcDbEntity
  8
0
  6
Continuous
 62
     0
370
    -2
100
AcDbLine
 10
90.0
 20
0.0
 30
0.0
 11
90.0
 21
-6.0
 31
0.0
  0
LINE
  5
4C7
330
22A
100
AcDbEntity
  8
0
  6
Continuous
 62
     0
370
    -2
100
AcDbLine
 10
30.0
 20
-6.0
 30
0.0
 11
70.0
 21
-6.0
 31
0.0
  0
LINE
  5
4C8
330
22A
100
AcDbEntity
  8
0
  6
Continuous
 62
     0
370
    -2
100
AcDbLine
 10
30.0
 20
-6.0
 30
0.0
 11
30.0
 21
-12.0
 31
0.0
  0
LINE
  5
4C9
330
22A
100
AcDbEntity
  8
0
  6
Continuous
 62
     0
370
    -2
100
AcDbLine
 10
70.0
 20
-6.0
 30
0.0
 11
90.0
 21
-6.0
 31
0.0
  0
LINE
  5
4CA
330
22A
100
AcDbEntity
  8
0
  6
Continuous
 62
     0
370
    -2
100
AcDbLine
 10
70.0
 20
-6.0
 30
0.0
 11
70.0
 21
-12.0
 31
0.0
  0
LINE
  5
4CB
330
22A
100
AcDbEntity
  8
0
  6
Continuous
 62
     0
370
    -2
100
AcDbLine
 10
90.0
 20
-6.0
 30
0.0
 11
90.0
 21
-12.0
 31
0.0
  0
LINE
  5
4CC
330
22A
100
AcDbEntity
  8
0
  6
Continuous
 62
     0
370
    -2
100
AcDbLine
 10
30.0
 20
-12.0
 30
0.0
 11
70.0
 21
-12.0
 31
0.0
  0
LINE
  5
4CD
330
22A
100
AcDbEntity
  8
0
  6
Continuous
 62
     0
370
    -2
100
AcDbLine
 10
70.0
 20
-12.0
 30
0.0
 11
90.0
 21
-12.0
 31
0.0
  0
LINE
  5
4CE
330
22A
100
AcDbEntity
  8
0
  6
Continuous
 62
     0
370
    -2
100
AcDbLine
 10
30.0
 20
-12.0
 30
0.0
 11
30.0
 21
-22.0
 31
0.0
  0
LINE
  5
4CF
330
22A
100
AcDbEntity
  8
0
  6
Continuous
 62
     0
370
    -2
100
AcDbLine
 10
90.0
 20
-12.0
 30
0.0
 11
90.0
 21
-22.0
 31
0.0
  0
LINE
  5
4D0
330
22A
100
AcDbEntity
  8
0
  6
Continuous
 62
     0
370
    -2
100
AcDbLine
 10
30.0
 20
-22.0
 30
0.0
 11
70.0
 21
-22.0
 31
0.0
  0
LINE
  5
4D1
330
22A
100
AcDbEntity
  8
0
  6
Continuous
 62
     0
370
    -2
100
AcDbLine
 10
70.0
 20
-22.0
 30
0.0
 11
90.0
 21
-22.0
 31
0.0
  0
LINE
  5
4D2
330
22A
100
AcDbEntity
  8
0
  6
Continuous
 62
     0
370
    -2
100
AcDbLine
 10
30.0
 20
-22.0
 30
0.0
 11
30.0
 21
-27.0
 31
0.0
  0
LINE
  5
4D3
330
22A
100
AcDbEntity
  8
0
  6
Continuous
 62
     0
370
    -2
100
AcDbLine
 10
90.0
 20
-22.0
 30
0.0
 11
90.0
 21
-27.0
 31
0.0
  0
LINE
  5
4D4
330
22A
100
AcDbEntity
  8
0
  6
Continuous
 62
     0
370
    -2
100
AcDbLine
 10
0.0
 20
-27.0
 30
0.0
 11
10.0
 21
-27.0
 31
0.0
  0
LINE
  5
4D5
330
22A
100
AcDbEntity
  8
0
  6
Continuous
 62
     0
370
    -2
100
AcDbLine
 10
10.0
 20
-27.0
 30
0.0
 11
20.0
 21
-27.0
 31
0.0
  0
LINE
  5
4D6
330
22A
100
AcDbEntity
  8
0
  6
Continuous
 62
     0
370
    -2
100
AcDbLine
 10
20.0
 20
-27.0
 30
0.0
 11
30.0
 21
-27.0
 31
0.0
  0
LINE
  5
4D7
330
22A
100
AcDbEntity
  8
0
  6
Continuous
 62
     0
370
    -2
100
AcDbLine
 10
30.0
 20
-27.0
 30
0.0
 11
70.0
 21
-27.0
 31
0.0
  0
LINE
  5
4D8
330
22A
100
AcDbEntity
  8
0
  6
Continuous
 62
     0
370
    -2
100
AcDbLine
 10
70.0
 20
-27.0
 30
0.0
 11
90.0
 21
-27.0
 31
0.0
  0
LINE
  5
4D9
330
22A
100
AcDbEntity
  8
0
  6
Continuous
 62
     0
370
    -2
100
AcDbLine
 10
0.0
 20
-27.0
 30
0.0
 11
0.0
 21
-40.0
 31
0.0
  0
LINE
  5
4DA
330
22A
100
AcDbEntity
  8
0
  6
Continuous
 62
     0
370
    -2
100
AcDbLine
 10
90.0
 20
-27.0
 30
0.0
 11
90.0
 21
-40.0
 31
0.0
  0
LINE
  5
4DB
330
22A
100
AcDbEntity
  8
0
  6
Continuous
 62
     0
370
    -2
100
AcDbLine
 10
0.0
 20
-40.0
 30
0.0
 11
10.0
 21
-40.0
 31
0.0
  0
LINE
  5
4DC
330
22A
100
AcDbEntity
  8
0
  6
Continuous
 62
     0
370
    -2
100
AcDbLine
 10
10.0
 20
-40.0
 30
0.0
 11
20.0
 21
-40.0
 31
0.0
  0
LINE
  5
4DD
330
22A
100
AcDbEntity
  8
0
  6
Continuous
 62
     0
370
    -2
100
AcDbLine
 10
20.0
 20
-40.0
 30
0.0
 11
30.0
 21
-40.0
 31
0.0
  0
LINE
  5
4DE
330
22A
100
AcDbEntity
  8
0
  6
Continuous
 62
     0
370
    -2
100
AcDbLine
 10
30.0
 20
-40.0
 30
0.0
 11
70.0
 21
-40.0
 31
0.0
  0
LINE
  5
4DF
330
22A
100
AcDbEntity
  8
0
  6
Continuous
 62
     0
370
    -2
100
AcDbLine
 10
70.0
 20
-40.0
 30
0.0
 11
90.0
 21
-40.0
 31
0.0
  0
ENDBLK
  5
290
330
22A
100
AcDbEntity
  8
0
100
AcDbBlockEnd
  0
ENDSEC
  0
SECTION
  2
ENTITIES
  0
MTEXT
  5
291
330
224
100
AcDbEntity
  8
0
  6
Continuous
 62
     2
100
AcDbMText
 10
1.6467220993
 20
53.595027386
 30
0.0
 40
4.0
 41
2.2857142857
 71
     1
 72
     1
  1
1
  7
TEXTSTYLE_2
 73
     1
 44
0.9
  0
MTEXT
  5
292
330
224
100
AcDbEntity
  8
0
  6
Continuous
 62
     2
100
AcDbMText
 10
1.6467220993
 20
153.595027386
 30
0.0
 40
4.0
 41
3.1428571429
 71
     1
 72
     1
  1
2
  7
TEXTSTYLE_2
 73
     1
 44
0.9
  0
MTEXT
  5
293
330
224
100
AcDbEntity
  8
0
  6
Continuous
 62
     2
100
AcDbMText
 10
1.6467220993
 20
253.595027386
 30
0.0
 40
4.0
 41
2.8571428571
 71
     1
 72
     1
  1
3
  7
TEXTSTYLE_2
 73
     1
 44
0.9
  0
MTEXT
  5
294
330
224
100
AcDbEntity
  8
0
  6
Continuous
 62
     2
100
AcDbMText
 10
414.6467220993
 20
60.6268709614
 30
0.0
 40
4.0
 41
2.2857142857
 71
     1
 72
     1
  1
1
  7
TEXTSTYLE_2
 73
     1
 44
0.9
  0
MTEXT
  5
295
330
224
100
AcDbEntity
  8
0
  6
Continuous
 62
     2
100
AcDbMText
 10
414.6467220993
 20
160.6268709614
 30
0.0
 40
4.0
 41
3.1428571429
 71
     1
 72
     1
  1
2
  7
TEXTSTYLE_2
 73
     1
 44
0.9
  0
MTEXT
  5
296
330
224
100
AcDbEntity
  8
0
  6
Continuous
 62
     2
100
AcDbMText
 10
414.6467220993
 20
260.6268709614
 30
0.0
 40
4.0
 41
2.8571428571
 71
     1
 72
     1
  1
3
  7
TEXTSTYLE_2
 73
     1
 44
0.9
  0
MTEXT
  5
297
330
224
100
AcDbEntity
  8
0
  6
Continuous
 62
     2
100
AcDbMText
 10
362.154890719
 20
5.35876025
 30
0.0
 40
4.0
 41
3.6
 71
     1
 72
     1
  1
A
  7
TEXTSTYLE_3
 73
     1
 44
0.9
  0
MTEXT
  5
298
330
224
100
AcDbEntity
  8
0
  6
Continuous
 62
     2
100
AcDbMText
 10
262.154890719
 20
5.35876025
 30
0.0
 40
4.0
 41
3.6
 71
     1
 72
     1
  1
B
  7
TEXTSTYLE_3
 73
     1
 44
0.9
  0
MTEXT
  5
299
330
224
100
AcDbEntity
  8
0
  6
Continuous
 62
     2
100
AcDbMText
 10
162.154890719
 20
5.35876025
 30
0.0
 40
4.0
 41
3.6
 71
     1
 72
     1
  1
C
  7
TEXTSTYLE_3
 73
     1
 44
0.9
  0
MTEXT
  5
29A
330
224
100
AcDbEntity
  8
0
  6
Continuous
 62
     2
100
AcDbMText
 10
55.7978688212
 20
5.5353441916
 30
0.0
 40
4.0
 41
3.6
 71
     1
 72
     1
  1
D
  7
TEXTSTYLE_3
 73
     1
 44
0.9
  0
MTEXT
  5
29B
330
224
100
AcDbEntity
  8
0
  6
Continuous
 62
     2
100
AcDbMText
 10
362.154890719
 20
295.35876025
 30
0.0
 40
4.0
 41
3.6
 71
     1
 72
     1
  1
A
  7
TEXTSTYLE_3
 73
     1
 44
0.9
  0
MTEXT
  5
29C
330
224
100
AcDbEntity
  8
0
  6
Continuous
 62
     2
100
AcDbMText
 10
262.154890719
 20
295.35876025
 30
0.0
 40
4.0
 41
3.6
 71
     1
 72
     1
  1
B
  7
TEXTSTYLE_3
 73
     1
 44
0.9
  0
MTEXT
  5
29D
330
224
100
AcDbEntity
  8
0
  6
Continuous
 62
     2
100
AcDbMText
 10
162.154890719
 20
295.35876025
 30
0.0
 40
4.0
 41
3.6
 71
     1
 72
     1
  1
C
  7
TEXTSTYLE_3
 73
     1
 44
0.9
  0
MTEXT
  5
29E
330
224
100
AcDbEntity
  8
0
  6
Continuous
 62
     2
100
AcDbMText
 10
53.9878834197
 20
295.579490177
 30
0.0
 40
4.0
 41
3.6
 71
     1
 72
     1
  1
D
  7
TEXTSTYLE_3
 73
     1
 44
0.9
  0
INSERT
  5
2A1
330
224
100
AcDbEntity
  8
0
  6
Continuous
 62
     2
100
AcDbBlockReference
  2
LOGO2_BL0
 10
333.1473869546
 20
37.5239270671
 30
0.0
  0
INSERT
  5
2A2
330
224
100
AcDbEntity
  8
0
  6
Continuous
 62
     2
100
AcDbBlockReference
  2
*T4
 10
319.3213399098
 20
51.0239270671
 30
0.0
  0
LINE
  5
2A5
330
224
100
AcDbEntity
  8
0
  6
Continuous
 62
     7
100
AcDbLine
 10
0.0
 20
0.0
 30
0.0
 11
0.0
 21
297.0
 31
0.0
  0
LWPOLYLINE
  5
2A6
330
224
100
AcDbEntity
  8
0
  6
Continuous
 62
     7
100
AcDbPolyline
 90
        2
 70
     0
 43
0.1000000003
 10
7.0536312849
 20
0.0
 10
7.0536312849
 20
297.0
  0
LWPOLYLINE
  5
2A7
330
224
100
AcDbEntity
  8
0
  6
Continuous
 62
     7
100
AcDbPolyline
 90
        2
 70
     0
 43
0.4999999952
 10
10.0536312849
 20
10.0318435754
 10
10.0536312849
 20
287.0
  0
LINE
  5
2A8
330
224
100
AcDbEntity
  8
0
  6
Continuous
 62
     7
100
AcDbLine
 10
0.0
 20
0.0
 30
0.0
 11
420.0
 21
0.0
 31
0.0
  0
LWPOLYLINE
  5
2A9
330
224
100
AcDbEntity
  8
0
  6
Continuous
 62
     7
100
AcDbPolyline
 90
        2
 70
     0
 43
0.1000000003
 10
0.0
 20
7.0318435754
 10
420.0
 20
7.0318435754
  0
LWPOLYLINE
  5
2AA
330
224
100
AcDbEntity
  8
0
  6
Continuous
 62
     7
100
AcDbPolyline
 90
        2
 70
     0
 43
0.4999999952
 10
10.0536312849
 20
10.0318435754
 10
410.0
 20
10.0318435754
  0
LINE
  5
2AB
330
224
100
AcDbEntity
  8
0
  6
Continuous
 62
     7
100
AcDbLine
 10
113.0
 20
297.0
 30
0.0
 11
113.0
 21
290.0
 31
0.0
  0
LINE
  5
2AC
330
224
100
AcDbEntity
  8
0
  6
Continuous
 62
     7
100
AcDbLine
 10
113.0
 20
7.0
 30
0.0
 11
113.0
 21
0.0
 31
0.0
  0
LWPOLYLINE
  5
2AD
330
224
100
AcDbEntity
  8
0
  6
Continuous
 62
     7
100
AcDbPolyline
 90
        2
 70
     0
 43
0.1000000003
 10
123.0
 20
10.0
 10
123.0
 20
0.0
  0
LWPOLYLINE
  5
2AE
330
224
100
AcDbEntity
  8
0
  6
Continuous
 62
     7
100
AcDbPolyline
 90
        2
 70
     0
 43
0.1000000003
 10
123.0
 20
287.0
 10
123.0
 20
297.0
  0
LINE
  5
2AF
330
224
100
AcDbEntity
  8
0
  6
Continuous
 62
     7
100
AcDbLine
 10
0.0
 20
99.9681564246
 30
0.0
 11
7.0
 21
99.9681564246
 31
0.0
  0
LINE
  5
2B0
330
224
100
AcDbEntity
  8
0
  6
Continuous
 62
     7
100
AcDbLine
 10
413.0
 20
107.0
 30
0.0
 11
420.0
 21
107.0
 31
0.0
  0
LWPOLYLINE
  5
2B1
330
224
100
AcDbEntity
  8
0
  6
Continuous
 62
     7
100
AcDbPolyline
 90
        2
 70
     0
 43
0.1000000003
 10
210.0
 20
10.0
 10
210.0
 20
0.0
  0
LWPOLYLINE
  5
2B2
330
224
100
AcDbEntity
  8
0
  6
Continuous
 62
     7
100
AcDbPolyline
 90
        2
 70
     0
 43
0.1000000003
 10
210.0
 20
287.0
 10
210.0
 20
297.0
  0
LWPOLYLINE
  5
2B3
330
224
100
AcDbEntity
  8
0
  6
Continuous
 62
     7
100
AcDbPolyline
 90
        2
 70
     0
 43
0.1000000003
 10
10.0
 20
148.5
 10
0.0
 20
148.5
  0
LWPOLYLINE
  5
2B4
330
224
100
AcDbEntity
  8
0
  6
Continuous
 62
     7
100
AcDbPolyline
 90
        2
 70
     0
 43
0.1000000003
 10
410.0
 20
148.5
 10
420.0
 20
148.5
  0
LINE
  5
2B5
330
224
100
AcDbEntity
  8
0
  6
Continuous
 62
     7
100
AcDbLine
 10
0.0
 20
199.9681564246
 30
0.0
 11
7.0
 21
199.9681564246
 31
0.0
  0
LWPOLYLINE
  5
2B6
330
224
100
AcDbEntity
  8
0
  6
Continuous
 62
     7
100
AcDbPolyline
 90
        2
 70
     0
 43
0.1000000003
 10
10.0
 20
202.9681564246
 10
0.0
 20
202.9681564246
  0
LWPOLYLINE
  5
2B7
330
224
100
AcDbEntity
  8
0
  6
Continuous
 62
     7
100
AcDbPolyline
 90
        2
 70
     0
 43
0.1000000003
 10
410.0
 20
210.0
 10
420.0
 20
210.0
  0
LINE
  5
2B8
330
224
100
AcDbEntity
  8
0
  6
Continuous
 62
     7
100
AcDbLine
 10
313.0
 20
297.0
 30
0.0
 11
313.0
 21
290.0
 31
0.0
  0
LINE
  5
2B9
330
224
100
AcDbEntity
  8
0
  6
Continuous
 62
     7
100
AcDbLine
 10
313.0
 20
7.0
 30
0.0
 11
313.0
 21
0.0
 31
0.0
  0
LWPOLYLINE
  5
2BA
330
224
100
AcDbEntity
  8
0
  6
Continuous
 62
     7
100
AcDbPolyline
 90
        2
 70
     0
 43
0.4999999952
 10
10.0536312849
 20
287.0
 10
410.0
 20
287.0
  0
LWPOLYLINE
  5
2BB
330
224
100
AcDbEntity
  8
0
  6
Continuous
 62
     7
100
AcDbPolyline
 90
        2
 70
     0
 43
0.1000000003
 10
0.0
 20
290.0
 10
420.0
 20
290.0
  0
LINE
  5
2BC
330
224
100
AcDbEntity
  8
0
  6
Continuous
 62
     7
100
AcDbLine
 10
0.0
 20
297.0
 30
0.0
 11
420.0
 21
297.0
 31
0.0
  0
LWPOLYLINE
  5
2BD
330
224
100
AcDbEntity
  8
0
  6
Continuous
 62
     7
100
AcDbPolyline
 90
        2
 70
     0
 43
0.4999999952
 10
410.0
 20
10.0318435754
 10
410.0
 20
287.0
  0
LWPOLYLINE
  5
2BE
330
224
100
AcDbEntity
  8
0
  6
Continuous
 62
     7
100
AcDbPolyline
 90
        2
 70
     0
 43
0.1000000003
 10
413.0
 20
0.0
 10
413.0
 20
297.0
  0
LINE
  5
2BF
330
224
100
AcDbEntity
  8
0
  6
Continuous
 62
     7
100
AcDbLine
 10
420.0
 20
0.0
 30
0.0
 11
420.0
 21
297.0
 31
0.0
  0
LINE
  5
2C0
330
224
100
AcDbEntity
  8
02___PRT_ALL_AXES
  6
Continuous
 62
     7
100
AcDbLine
 10
25.17748413056666
 20
246.5225531824
 30
0.0
 11
25.17748413056666
 21
247.5225530637333
 31
0.0
  0
LINE
  5
2C1
330
224
100
AcDbEntity
  8
7_ALL_FEATURES
  6
Continuous
 62
     7
100
AcDbLine
 10
38.27750652763333
 20
246.5225531824
 30
0.0
 11
37.77748413056667
 21
246.0225305465333
 31
0.0
  0
LINE
  5
2C2
330
224
100
AcDbEntity
  8
7_ALL_FEATURES
  6
Continuous
 62
     7
100
AcDbLine
 10
31.1774855251
 20
249.522549948
 30
0.0
 11
25.17748532803333
 21
247.5225494713333
 31
0.0
  0
LINE
  5
2C3
330
224
100
AcDbEntity
  8
02___PRT_ALL_AXES
  6
Continuous
 62
     7
100
AcDbLine
 10
37.77748413056667
 20
246.0225305465333
 30
0.0
 11
37.77748413056667
 21
230.2725547906666
 31
0.0
  0
LINE
  5
2C4
330
224
100
AcDbEntity
  8
7_ALL_FEATURES
  6
Continuous
 62
     7
100
AcDbLine
 10
45.96263496723333
 20
246.0225531824
 30
0.0
 11
45.96263496723333
 21
243.5225531824
 31
0.0
  0
LINE
  5
2C5
330
224
100
AcDbEntity
  8
7_ALL_FEATURES
  6
Continuous
 62
     7
100
AcDbLine
 10
50.67748413056666
 20
228.7725527670667
 30
0.0
 11
50.67748413056666
 21
224.7725531824
 31
0.0
  0
LINE
  5
2C6
330
224
100
AcDbEntity
  8
7_ALL_FEATURES
  6
Continuous
 62
     7
100
AcDbLine
 10
50.67748413056666
 20
221.2725531824
 30
0.0
 11
50.67748413056666
 21
218.5225531824
 31
0.0
  0
LINE
  5
2C7
330
224
100
AcDbEntity
  8
7_ALL_FEATURES
  6
Continuous
 62
     7
100
AcDbLine
 10
50.67748413056666
 20
215.0225531824
 30
0.0
 11
50.67748413056666
 21
212.5225531824
 31
0.0
  0
LINE
  5
2C8
330
224
100
AcDbEntity
  8
7_ALL_FEATURES
  6
Continuous
 62
     7
100
AcDbLine
 10
50.67748413056666
 20
209.0225531824
 30
0.0
 11
50.67748413056666
 21
206.5225531824
 31
0.0
  0
LINE
  5
2C9
330
224
100
AcDbEntity
  8
7_ALL_FEATURES
  6
Continuous
 62
     7
100
AcDbLine
 10
50.67748413056666
 20
203.0225531824
 30
0.0
 11
50.67748413056666
 21
200.0225565701333
 31
0.0
  0
LINE
  5
2CA
330
224
100
AcDbEntity
  8
02___PRT_ALL_AXES
  6
Continuous
 62
     7
100
AcDbLine
 10
51.72899932069999
 20
245.0225531824
 30
0.0
 11
51.72899932069999
 21
246.5225531824
 31
0.0
  0
LINE
  5
2CB
330
224
100
AcDbEntity
  8
02___PRT_ALL_AXES
  6
Continuous
 62
     7
100
AcDbLine
 10
52.47899932069999
 20
243.5225531824
 30
0.0
 11
52.47899932069999
 21
245.0225531824
 31
0.0
  0
LINE
  5
2CC
330
224
100
AcDbEntity
  8
02___PRT_ALL_AXES
  6
Continuous
 62
     7
100
AcDbLine
 10
80.33592956363333
 20
179.0225531824
 30
0.0
 11
90.01903869749998
 21
179.0225531824
 31
0.0
  0
LINE
  5
2CD
330
224
100
AcDbEntity
  8
7_ALL_FEATURES
  6
Continuous
 62
     7
100
AcDbLine
 10
51.67747955536665
 20
199.0225453561333
 30
0.0
 11
50.67747605083333
 21
200.0225484904
 31
0.0
  0
LINE
  5
2CE
330
224
100
AcDbEntity
  8
7_ALL_FEATURES
  6
Continuous
 62
     7
100
AcDbLine
 10
54.17748413056666
 20
224.7725531824
 30
0.0
 11
54.17748413056666
 21
221.2725531824
 31
0.0
  0
LINE
  5
2CF
330
224
100
AcDbEntity
  8
7_ALL_FEATURES
  6
Continuous
 62
     7
100
AcDbLine
 10
54.17748413056666
 20
218.5225531824
 30
0.0
 11
54.17748413056666
 21
215.0225531824
 31
0.0
  0
LINE
  5
2D0
330
224
100
AcDbEntity
  8
7_ALL_FEATURES
  6
Continuous
 62
     7
100
AcDbLine
 10
57.17748413056666
 20
212.5225531824
 30
0.0
 11
57.17748413056666
 21
209.0225531824
 31
0.0
  0
LINE
  5
2D1
330
224
100
AcDbEntity
  8
7_ALL_FEATURES
  6
Continuous
 62
     7
100
AcDbLine
 10
57.17748413056666
 20
206.5225531824
 30
0.0
 11
57.17748413056666
 21
203.0225531824
 31
0.0
  0
LINE
  5
2D2
330
224
100
AcDbEntity
  8
02___PRT_ALL_AXES
  6
Continuous
 62
     9
100
AcDbLine
 10
94.2275495335
 20
183.2790095678667
 30
0.0
 11
93.4819835763
 21
183.2790095678667
 31
0.0
  0
LINE
  5
2D3
330
224
100
AcDbEntity
  8
02___PRT_ALL_AXES
  6
Continuous
 62
     9
100
AcDbLine
 10
88.89379996496666
 20
183.2790095678667
 30
0.0
 11
86.1113099323
 21
183.2790095678667
 31
0.0
  0
LINE
  5
2D4
330
224
100
AcDbEntity
  8
02___PRT_ALL_AXES
  6
Continuous
 62
     9
100
AcDbLine
 10
77.80681048656666
 20
183.2790095678667
 30
0.0
 11
79.84373456203332
 21
183.2790095678667
 31
0.0
  0
LINE
  5
2D5
330
224
100
AcDbEntity
  8
02___PRT_ALL_AXES
  6
Continuous
 62
     7
100
AcDbLine
 10
94.2275495335
 20
183.3057145884
 30
0.0
 11
93.4819835763
 21
183.3057145884
 31
0.0
  0
LINE
  5
2D6
330
224
100
AcDbEntity
  8
02___PRT_ALL_AXES
  6
Continuous
 62
     7
100
AcDbLine
 10
88.89379996496666
 20
183.3057145884
 30
0.0
 11
86.1113099323
 21
183.3057145884
 31
0.0
  0
LINE
  5
2D7
330
224
100
AcDbEntity
  8
02___PRT_ALL_AXES
  6
Continuous
 62
     7
100
AcDbLine
 10
77.80681048656666
 20
183.3057145884
 30
0.0
 11
79.84373456203332
 21
183.3057145884
 31
0.0
  0
LINE
  5
2D8
330
224
100
AcDbEntity
  8
02___PRT_ALL_AXES
  6
Continuous
 62
     7
100
AcDbLine
 10
58.47899932069999
 20
243.5225531824
 30
0.0
 11
58.47899932069999
 21
245.0225531824
 31
0.0
  0
LINE
  5
2D9
330
224
100
AcDbEntity
  8
7_ALL_FEATURES
  6
Continuous
 62
     7
100
AcDbLine
 10
58.55126387496666
 20
246.0225531824
 30
0.0
 11
58.55126387496666
 21
243.5225531824
 31
0.0
  0
LINE
  5
2DA
330
224
100
AcDbEntity
  8
02___PRT_ALL_AXES
  6
Continuous
 62
     7
100
AcDbLine
 10
94.65800223949998
 20
191.5225531824
 30
0.0
 11
75.6969660215
 21
191.5225531824
 31
0.0
  0
LINE
  5
2DB
330
224
100
AcDbEntity
  8
02___PRT_ALL_AXES
  6
Continuous
 62
     7
100
AcDbLine
 10
94.65800223949998
 20
195.5225531824
 30
0.0
 11
75.6969660215
 21
195.5225531824
 31
0.0
  0
LINE
  5
2DC
330
224
100
AcDbEntity
  8
7_ALL_FEATURES
  6
Continuous
 62
     7
100
AcDbLine
 10
38.2774873159
 20
229.7725547913334
 30
0.0
 11
37.7774857491
 21
230.2725564092
 31
0.0
  0
LINE
  5
2DD
330
224
100
AcDbEntity
  8
7_ALL_FEATURES
  6
Continuous
 62
     7
100
AcDbLine
 10
118.6772802557667
 20
199.0225531824
 30
0.0
 11
51.67768800536665
 21
199.0225531824
 31
0.0
  0
LINE
  5
2DE
330
224
100
AcDbEntity
  8
7_ALL_FEATURES
  6
Continuous
 62
     7
100
AcDbLine
 10
119.6774841304333
 20
200.022557658
 30
0.0
 11
50.67748413056666
 21
200.022557658
 31
0.0
  0
LINE
  5
2DF
330
224
100
AcDbEntity
  8
7_ALL_FEATURES
  6
Continuous
 62
     7
100
AcDbLine
 10
50.67747935469999
 20
228.7725479913334
 30
0.0
 11
49.67747879149999
 21
229.7725482657334
 31
0.0
  0
LINE
  5
2E0
330
224
100
AcDbEntity
  8
02___PRT_ALL_AXES
  6
Continuous
 62
     7
100
AcDbLine
 10
75.6969660215
 20
199.0225531824
 30
0.0
 11
75.6969660215
 21
195.5225531824
 31
0.0
  0
LINE
  5
2E1
330
224
100
AcDbEntity
  8
02___PRT_ALL_AXES
  6
Continuous
 62
     7
100
AcDbLine
 10
75.6969660215
 20
191.5225531824
 30
0.0
 11
75.6969660215
 21
184.0225531824
 31
0.0
  0
LINE
  5
2E2
330
224
100
AcDbEntity
  8
02___PRT_ALL_AXES
  6
Continuous
 62
     7
100
AcDbLine
 10
76.12741872763331
 20
183.2790095678667
 30
0.0
 11
76.12741872763331
 21
183.3057145884
 31
0.0
  0
LINE
  5
2E3
330
224
100
AcDbEntity
  8
7_ALL_FEATURES
  6
Continuous
 62
     7
100
AcDbLine
 10
119.6772568025667
 20
203.0225531824
 30
0.0
 11
50.67771145843333
 21
203.0225531824
 31
0.0
  0
LINE
  5
2E4
330
224
100
AcDbEntity
  8
02___PRT_ALL_AXES
  6
Continuous
 62
     7
100
AcDbLine
 10
77.67748413056665
 20
191.5225531824
 30
0.0
 11
77.67748413056665
 21
195.5225531824
 31
0.0
  0
LINE
  5
2E5
330
224
100
AcDbEntity
  8
02___PRT_ALL_AXES
  6
Continuous
 62
     7
100
AcDbLine
 10
77.80681048656666
 20
183.2790095678667
 30
0.0
 11
77.80681048656666
 21
183.3057145884
 31
0.0
  0
LINE
  5
2E6
330
224
100
AcDbEntity
  8
02___PRT_ALL_AXES
  6
Continuous
 62
     7
100
AcDbLine
 10
78.2372631927
 20
199.0225531824
 30
0.0
 11
78.2372631927
 21
195.5225531824
 31
0.0
  0
LINE
  5
2E7
330
224
100
AcDbEntity
  8
02___PRT_ALL_AXES
  6
Continuous
 62
     7
100
AcDbLine
 10
78.2372631927
 20
191.5225531824
 30
0.0
 11
78.2372631927
 21
184.0225531824
 31
0.0
  0
LINE
  5
2E8
330
224
100
AcDbEntity
  8
02___PRT_ALL_AXES
  6
Continuous
 62
     7
100
AcDbLine
 10
79.84373456203332
 20
183.2790095678667
 30
0.0
 11
79.84373456203332
 21
183.3057145884
 31
0.0
  0
LINE
  5
2E9
330
224
100
AcDbEntity
  8
7_ALL_FEATURES
  6
Continuous
 62
     7
100
AcDbLine
 10
119.6772568025667
 20
206.5225531824
 30
0.0
 11
50.67771145843333
 21
206.5225531824
 31
0.0
  0
LINE
  5
2EA
330
224
100
AcDbEntity
  8
7_ALL_FEATURES
  6
Continuous
 62
     7
100
AcDbLine
 10
119.6772568025667
 20
209.0225531824
 30
0.0
 11
50.67771145843333
 21
209.0225531824
 31
0.0
  0
LINE
  5
2EB
330
224
100
AcDbEntity
  8
7_ALL_FEATURES
  6
Continuous
 62
     7
100
AcDbLine
 10
119.6772568025667
 20
212.5225531824
 30
0.0
 11
50.67771145843333
 21
212.5225531824
 31
0.0
  0
LINE
  5
2EC
330
224
100
AcDbEntity
  8
02___PRT_ALL_AXES
  6
Continuous
 62
     7
100
AcDbLine
 10
86.1113099323
 20
183.2790095678667
 30
0.0
 11
86.1113099323
 21
183.3057145884
 31
0.0
  0
LINE
  5
2ED
330
224
100
AcDbEntity
  8
02___PRT_ALL_AXES
  6
Continuous
 62
     7
100
AcDbLine
 10
87.71778130163332
 20
199.0225531824
 30
0.0
 11
87.71778130163332
 21
195.5225531824
 31
0.0
  0
LINE
  5
2EE
330
224
100
AcDbEntity
  8
02___PRT_ALL_AXES
  6
Continuous
 62
     7
100
AcDbLine
 10
87.71778130163332
 20
191.5225531824
 30
0.0
 11
87.71778130163332
 21
184.0225531824
 31
0.0
  0
LINE
  5
2EF
330
224
100
AcDbEntity
  8
02___PRT_ALL_AXES
  6
Continuous
 62
     7
100
AcDbLine
 10
88.89379996496666
 20
183.2790095678667
 30
0.0
 11
88.89379996496666
 21
183.3057145884
 31
0.0
  0
LINE
  5
2F0
330
224
100
AcDbEntity
  8
7_ALL_FEATURES
  6
Continuous
 62
     7
100
AcDbLine
 10
119.6772568025667
 20
215.0225531824
 30
0.0
 11
50.67771145843333
 21
215.0225531824
 31
0.0
  0
LINE
  5
2F1
330
224
100
AcDbEntity
  8
7_ALL_FEATURES
  6
Continuous
 62
     7
100
AcDbLine
 10
119.6772568025667
 20
218.5225531824
 30
0.0
 11
50.67771145843333
 21
218.5225531824
 31
0.0
  0
LINE
  5
2F2
330
224
100
AcDbEntity
  8
02___PRT_ALL_AXES
  6
Continuous
 62
     7
100
AcDbLine
 10
92.67748413056665
 20
191.5225531824
 30
0.0
 11
92.67748413056665
 21
195.5225531824
 31
0.0
  0
LINE
  5
2F3
330
224
100
AcDbEntity
  8
02___PRT_ALL_AXES
  6
Continuous
 62
     7
100
AcDbLine
 10
93.4819835763
 20
183.2790095678667
 30
0.0
 11
93.4819835763
 21
183.3057145884
 31
0.0
  0
LINE
  5
2F4
330
224
100
AcDbEntity
  8
02___PRT_ALL_AXES
  6
Continuous
 62
     7
100
AcDbLine
 10
94.2275495335
 20
183.2790095678667
 30
0.0
 11
94.2275495335
 21
183.3057145884
 31
0.0
  0
LINE
  5
2F5
330
224
100
AcDbEntity
  8
02___PRT_ALL_AXES
  6
Continuous
 62
     7
100
AcDbLine
 10
94.65800223949998
 20
199.0225531824
 30
0.0
 11
94.65800223949998
 21
195.5225531824
 31
0.0
  0
LINE
  5
2F6
330
224
100
AcDbEntity
  8
02___PRT_ALL_AXES
  6
Continuous
 62
     7
100
AcDbLine
 10
94.65800223949998
 20
191.5225531824
 30
0.0
 11
94.65800223949998
 21
184.0225531824
 31
0.0
  0
LINE
  5
2F7
330
224
100
AcDbEntity
  8
7_ALL_FEATURES
  6
Continuous
 62
     7
100
AcDbLine
 10
119.6772568025667
 20
221.2725531824
 30
0.0
 11
50.67771145843333
 21
221.2725531824
 31
0.0
  0
LINE
  5
2F8
330
224
100
AcDbEntity
  8
7_ALL_FEATURES
  6
Continuous
 62
     7
100
AcDbLine
 10
119.6774889063
 20
228.7725479913334
 30
0.0
 11
120.6774894696333
 21
229.7725482657334
 31
0.0
  0
LINE
  5
2F9
330
224
100
AcDbEntity
  8
7_ALL_FEATURES
  6
Continuous
 62
     7
100
AcDbLine
 10
119.6772568025667
 20
224.7725531824
 30
0.0
 11
50.67771145843333
 21
224.7725531824
 31
0.0
  0
LINE
  5
2FA
330
224
100
AcDbEntity
  8
7_ALL_FEATURES
  6
Continuous
 62
     7
100
AcDbLine
 10
50.67748414883334
 20
228.7725529978667
 30
0.0
 11
119.6774841123
 21
228.7725529978667
 31
0.0
  0
LINE
  5
2FB
330
224
100
AcDbEntity
  8
7_ALL_FEATURES
  6
Continuous
 62
     7
100
AcDbLine
 10
38.2775761151
 20
229.7725531824
 30
0.0
 11
132.0773921459
 21
229.7725531824
 31
0.0
  0
LINE
  5
2FC
330
224
100
AcDbEntity
  8
7_ALL_FEATURES
  6
Continuous
 62
     7
100
AcDbLine
 10
37.77748413136666
 20
230.2725551280001
 30
0.0
 11
132.5774841296333
 21
230.2725551280001
 31
0.0
  0
LINE
  5
2FD
330
224
100
AcDbEntity
  8
7_ALL_FEATURES
  6
Continuous
 62
     7
100
AcDbLine
 10
132.0774809451
 20
229.7725547913334
 30
0.0
 11
132.5774825119
 21
230.2725564092
 31
0.0
  0
LINE
  5
2FE
330
224
100
AcDbEntity
  8
7_ALL_FEATURES
  6
Continuous
 62
     7
100
AcDbLine
 10
111.8037043860333
 20
246.0225531824
 30
0.0
 11
111.8037043860333
 21
243.5225531824
 31
0.0
  0
LINE
  5
2FF
330
224
100
AcDbEntity
  8
02___PRT_ALL_AXES
  6
Continuous
 62
     7
100
AcDbLine
 10
111.8759689403
 20
243.5225531824
 30
0.0
 11
111.8759689403
 21
245.0225531824
 31
0.0
  0
LINE
  5
300
330
224
100
AcDbEntity
  8
7_ALL_FEATURES
  6
Continuous
 62
     7
100
AcDbLine
 10
113.1774841305667
 20
212.5225531824
 30
0.0
 11
113.1774841305667
 21
209.0225531824
 31
0.0
  0
LINE
  5
301
330
224
100
AcDbEntity
  8
7_ALL_FEATURES
  6
Continuous
 62
     7
100
AcDbLine
 10
113.1774841305667
 20
206.5225531824
 30
0.0
 11
113.1774841305667
 21
203.0225531824
 31
0.0
  0
LINE
  5
302
330
224
100
AcDbEntity
  8
7_ALL_FEATURES
  6
Continuous
 62
     7
100
AcDbLine
 10
116.1774841305667
 20
224.7725531824
 30
0.0
 11
116.1774841305667
 21
221.2725531824
 31
0.0
  0
LINE
  5
303
330
224
100
AcDbEntity
  8
7_ALL_FEATURES
  6
Continuous
 62
     7
100
AcDbLine
 10
116.1774841305667
 20
218.5225531824
 30
0.0
 11
116.1774841305667
 21
215.0225531824
 31
0.0
  0
LINE
  5
304
330
224
100
AcDbEntity
  8
02___PRT_ALL_AXES
  6
Continuous
 62
     7
100
AcDbLine
 10
117.8759689403
 20
243.5225531824
 30
0.0
 11
117.8759689403
 21
245.0225531824
 31
0.0
  0
LINE
  5
305
330
224
100
AcDbEntity
  8
02___PRT_ALL_AXES
  6
Continuous
 62
     7
100
AcDbLine
 10
124.3923332939
 20
243.5225531824
 30
0.0
 11
111.8037043860333
 21
243.5225531824
 31
0.0
  0
LINE
  5
306
330
224
100
AcDbEntity
  8
02___PRT_ALL_AXES
  6
Continuous
 62
     7
100
AcDbLine
 10
58.55126387496666
 20
243.5225531824
 30
0.0
 11
45.96263496723333
 21
243.5225531824
 31
0.0
  0
LINE
  5
307
330
224
100
AcDbEntity
  8
02___PRT_ALL_AXES
  6
Continuous
 62
     7
100
AcDbLine
 10
51.72901649909999
 20
245.0225531824
 30
0.0
 11
58.55126387496666
 21
245.0225531824
 31
0.0
  0
LINE
  5
308
330
224
100
AcDbEntity
  8
02___PRT_ALL_AXES
  6
Continuous
 62
     7
100
AcDbLine
 10
111.8037043860333
 20
245.0225531824
 30
0.0
 11
118.6259517619
 21
245.0225531824
 31
0.0
  0
LINE
  5
309
330
224
100
AcDbEntity
  8
7_ALL_FEATURES
  6
Continuous
 62
     7
100
AcDbLine
 10
111.8037043860333
 20
246.0225531824
 30
0.0
 11
58.55126387496666
 21
246.0225531824
 31
0.0
  0
LINE
  5
30A
330
224
100
AcDbEntity
  8
7_ALL_FEATURES
  6
Continuous
 62
     7
100
AcDbLine
 10
45.96263496723333
 20
246.0225531824
 30
0.0
 11
37.77748413056667
 21
246.0225305465333
 31
0.0
  0
LINE
  5
30B
330
224
100
AcDbEntity
  8
7_ALL_FEATURES
  6
Continuous
 62
     7
100
AcDbLine
 10
132.5774841305667
 20
246.0225303818667
 30
0.0
 11
124.3923332939
 21
246.0225531824
 31
0.0
  0
LINE
  5
30C
330
224
100
AcDbEntity
  8
02___PRT_ALL_AXES
  6
Continuous
 62
     7
100
AcDbLine
 10
25.1780678891
 20
246.5225531824
 30
0.0
 11
145.1769003719
 21
246.5225531824
 31
0.0
  0
LINE
  5
30D
330
224
100
AcDbEntity
  8
02___PRT_ALL_AXES
  6
Continuous
 62
     7
100
AcDbLine
 10
118.6259689403
 20
245.0225531824
 30
0.0
 11
118.6259689403
 21
246.5225531824
 31
0.0
  0
LINE
  5
30E
330
224
100
AcDbEntity
  8
7_ALL_FEATURES
  6
Continuous
 62
     7
100
AcDbLine
 10
119.6774841305667
 20
228.7725527670667
 30
0.0
 11
119.6774841305667
 21
224.7725531824
 31
0.0
  0
LINE
  5
30F
330
224
100
AcDbEntity
  8
7_ALL_FEATURES
  6
Continuous
 62
     7
100
AcDbLine
 10
119.6774841305667
 20
221.2725531824
 30
0.0
 11
119.6774841305667
 21
218.5225531824
 31
0.0
  0
LINE
  5
310
330
224
100
AcDbEntity
  8
7_ALL_FEATURES
  6
Continuous
 62
     7
100
AcDbLine
 10
119.6774841305667
 20
215.0225531824
 30
0.0
 11
119.6774841305667
 21
212.5225531824
 31
0.0
  0
LINE
  5
311
330
224
100
AcDbEntity
  8
7_ALL_FEATURES
  6
Continuous
 62
     7
100
AcDbLine
 10
119.6774841305667
 20
209.0225531824
 30
0.0
 11
119.6774841305667
 21
206.5225531824
 31
0.0
  0
LINE
  5
312
330
224
100
AcDbEntity
  8
7_ALL_FEATURES
  6
Continuous
 62
     7
100
AcDbLine
 10
119.6774841305667
 20
203.0225531824
 30
0.0
 11
119.6774841305667
 21
200.0225565701333
 31
0.0
  0
LINE
  5
313
330
224
100
AcDbEntity
  8
7_ALL_FEATURES
  6
Continuous
 62
     7
100
AcDbLine
 10
118.6774887057667
 20
199.0225453561333
 30
0.0
 11
119.6774922103
 21
200.0225484904
 31
0.0
  0
LINE
  5
314
330
224
100
AcDbEntity
  8
7_ALL_FEATURES
  6
Continuous
 62
     7
100
AcDbLine
 10
25.17748413056666
 20
247.5225530430667
 30
0.0
 11
145.1774841305667
 21
247.5225530430667
 31
0.0
  0
LINE
  5
315
330
224
100
AcDbEntity
  8
7_ALL_FEATURES
  6
Continuous
 62
     7
100
AcDbLine
 10
31.1777051695
 20
249.5225531824
 30
0.0
 11
139.1772630916333
 21
249.5225531824
 31
0.0
  0
LINE
  5
316
330
224
100
AcDbEntity
  8
7_ALL_FEATURES
  6
Continuous
 62
     7
100
AcDbLine
 10
124.3923332939
 20
246.0225531824
 30
0.0
 11
124.3923332939
 21
243.5225531824
 31
0.0
  0
LINE
  5
317
330
224
100
AcDbEntity
  8
02___PRT_ALL_AXES
  6
Continuous
 62
     7
100
AcDbLine
 10
132.5774841305667
 20
246.0225303818667
 30
0.0
 11
132.5774841305667
 21
230.2725547906666
 31
0.0
  0
LINE
  5
318
330
224
100
AcDbEntity
  8
7_ALL_FEATURES
  6
Continuous
 62
     7
100
AcDbLine
 10
139.1774827360333
 20
249.522549948
 30
0.0
 11
145.1774829331
 21
247.5225494713333
 31
0.0
  0
LINE
  5
319
330
224
100
AcDbEntity
  8
7_ALL_FEATURES
  6
Continuous
 62
     7
100
AcDbLine
 10
132.0774615704333
 20
246.5225531824
 30
0.0
 11
132.5774841305667
 21
246.0225303818667
 31
0.0
  0
LINE
  5
31A
330
224
100
AcDbEntity
  8
02___PRT_ALL_AXES
  6
Continuous
 62
     7
100
AcDbLine
 10
145.1774841305667
 20
246.5225531824
 30
0.0
 11
145.1774841305667
 21
247.5225530637333
 31
0.0
  0
LINE
  5
31B
330
224
100
AcDbEntity
  8
02___PRT_ALL_AXES
  6
Continuous
 62
     7
100
AcDbLine
 10
196.3424151196334
 20
246.5225531824
 30
0.0
 11
196.3424151196334
 21
247.522552834
 31
0.0
  0
LINE
  5
31C
330
224
100
AcDbEntity
  8
7_ALL_FEATURES
  6
Continuous
 62
     7
100
AcDbLine
 10
209.4424441651
 20
246.5225531824
 30
0.0
 11
208.9424151196333
 21
246.0225238273333
 31
0.0
  0
LINE
  5
31D
330
224
100
AcDbEntity
  8
7_ALL_FEATURES
  6
Continuous
 62
     7
100
AcDbLine
 10
202.3424170648333
 20
249.5225501316
 30
0.0
 11
196.3424162481667
 21
247.5225494484
 31
0.0
  0
LINE
  5
31E
330
224
100
AcDbEntity
  8
02___PRT_ALL_AXES
  6
Continuous
 62
     7
100
AcDbLine
 10
208.9424151196333
 20
246.0225238273333
 30
0.0
 11
208.9424151196333
 21
230.2725545054667
 31
0.0
  0
LINE
  5
31F
330
224
100
AcDbEntity
  8
7_ALL_FEATURES
  6
Continuous
 62
     7
100
AcDbLine
 10
217.1275659563
 20
246.0225531824
 30
0.0
 11
217.1275659563
 21
243.5225531824
 31
0.0
  0
LINE
  5
320
330
224
100
AcDbEntity
  8
7_ALL_FEATURES
  6
Continuous
 62
     7
100
AcDbLine
 10
221.8424151196334
 20
228.77255274
 30
0.0
 11
221.8424151196334
 21
224.7725531824
 31
0.0
  0
LINE
  5
321
330
224
100
AcDbEntity
  8
7_ALL_FEATURES
  6
Continuous
 62
     7
100
AcDbLine
 10
221.8424151196334
 20
221.2725531824
 30
0.0
 11
221.8424151196334
 21
218.5225531824
 31
0.0
  0
LINE
  5
322
330
224
100
AcDbEntity
  8
7_ALL_FEATURES
  6
Continuous
 62
     7
100
AcDbLine
 10
221.8424151196334
 20
215.0225531824
 30
0.0
 11
221.8424151196334
 21
212.5225531824
 31
0.0
  0
LINE
  5
323
330
224
100
AcDbEntity
  8
7_ALL_FEATURES
  6
Continuous
 62
     7
100
AcDbLine
 10
221.8424151196334
 20
209.0225531824
 30
0.0
 11
221.8424151196334
 21
206.5225531824
 31
0.0
  0
LINE
  5
324
330
224
100
AcDbEntity
  8
7_ALL_FEATURES
  6
Continuous
 62
     7
100
AcDbLine
 10
221.8424151196334
 20
203.0225531824
 30
0.0
 11
221.8424151196334
 21
200.0225547093334
 31
0.0
  0
LINE
  5
325
330
224
100
AcDbEntity
  8
02___PRT_ALL_AXES
  6
Continuous
 62
     7
100
AcDbLine
 10
222.8939303097667
 20
245.0225531824
 30
0.0
 11
222.8939303097667
 21
246.5225531824
 31
0.0
  0
LINE
  5
326
330
224
100
AcDbEntity
  8
02___PRT_ALL_AXES
  6
Continuous
 62
     7
100
AcDbLine
 10
223.6439303097667
 20
243.5225531824
 30
0.0
 11
223.6439303097667
 21
245.0225531824
 31
0.0
  0
LINE
  5
327
330
224
100
AcDbEntity
  8
02___PRT_ALL_AXES
  6
Continuous
 62
     7
100
AcDbLine
 10
251.5008605527
 20
179.0225531824
 30
0.0
 11
261.1839696865666
 21
179.0225531824
 31
0.0
  0
LINE
  5
328
330
224
100
AcDbEntity
  8
7_ALL_FEATURES
  6
Continuous
 62
     7
100
AcDbLine
 10
222.8424096515
 20
199.0225462489334
 30
0.0
 11
221.8424079703
 21
200.02254756
 31
0.0
  0
LINE
  5
329
330
224
100
AcDbEntity
  8
7_ALL_FEATURES
  6
Continuous
 62
     7
100
AcDbLine
 10
225.3424151196334
 20
224.7725531824
 30
0.0
 11
225.3424151196334
 21
221.2725531824
 31
0.0
  0
LINE
  5
32A
330
224
100
AcDbEntity
  8
7_ALL_FEATURES
  6
Continuous
 62
     7
100
AcDbLine
 10
225.3424151196334
 20
218.5225531824
 30
0.0
 11
225.3424151196334
 21
215.0225531824
 31
0.0
  0
LINE
  5
32B
330
224
100
AcDbEntity
  8
7_ALL_FEATURES
  6
Continuous
 62
     7
100
AcDbLine
 10
228.3424151196334
 20
212.5225531824
 30
0.0
 11
228.3424151196334
 21
209.0225531824
 31
0.0
  0
LINE
  5
32C
330
224
100
AcDbEntity
  8
7_ALL_FEATURES
  6
Continuous
 62
     7
100
AcDbLine
 10
228.3424151196334
 20
206.5225531824
 30
0.0
 11
228.3424151196334
 21
203.0225531824
 31
0.0
  0
LINE
  5
32D
330
224
100
AcDbEntity
  8
02___PRT_ALL_AXES
  6
Continuous
 62
     9
100
AcDbLine
 10
247.2923497167
 20
183.2790095678667
 30
0.0
 11
248.0379156739
 21
183.2790095678667
 31
0.0
  0
LINE
  5
32E
330
224
100
AcDbEntity
  8
02___PRT_ALL_AXES
  6
Continuous
 62
     9
100
AcDbLine
 10
252.6260992852334
 20
183.2790095678667
 30
0.0
 11
255.4085893177667
 21
183.2790095678667
 31
0.0
  0
LINE
  5
32F
330
224
100
AcDbEntity
  8
02___PRT_ALL_AXES
  6
Continuous
 62
     9
100
AcDbLine
 10
261.6761646881666
 20
183.2790095678667
 30
0.0
 11
263.7130887636333
 21
183.2790095678667
 31
0.0
  0
LINE
  5
330
330
224
100
AcDbEntity
  8
02___PRT_ALL_AXES
  6
Continuous
 62
     7
100
AcDbLine
 10
247.2923497167
 20
183.3057145884
 30
0.0
 11
248.0379156739
 21
183.3057145884
 31
0.0
  0
LINE
  5
331
330
224
100
AcDbEntity
  8
02___PRT_ALL_AXES
  6
Continuous
 62
     7
100
AcDbLine
 10
252.6260992852334
 20
183.3057145884
 30
0.0
 11
255.4085893177667
 21
183.3057145884
 31
0.0
  0
LINE
  5
332
330
224
100
AcDbEntity
  8
02___PRT_ALL_AXES
  6
Continuous
 62
     7
100
AcDbLine
 10
261.6761646881666
 20
183.3057145884
 30
0.0
 11
263.7130887636333
 21
183.3057145884
 31
0.0
  0
LINE
  5
333
330
224
100
AcDbEntity
  8
02___PRT_ALL_AXES
  6
Continuous
 62
     7
100
AcDbLine
 10
229.6439303097667
 20
243.5225531824
 30
0.0
 11
229.6439303097667
 21
245.0225531824
 31
0.0
  0
LINE
  5
334
330
224
100
AcDbEntity
  8
7_ALL_FEATURES
  6
Continuous
 62
     7
100
AcDbLine
 10
229.7161948640333
 20
246.0225531824
 30
0.0
 11
229.7161948640333
 21
243.5225531824
 31
0.0
  0
LINE
  5
335
330
224
100
AcDbEntity
  8
02___PRT_ALL_AXES
  6
Continuous
 62
     7
100
AcDbLine
 10
265.8229332287
 20
191.5225531824
 30
0.0
 11
246.8618970105667
 21
191.5225531824
 31
0.0
  0
LINE
  5
336
330
224
100
AcDbEntity
  8
02___PRT_ALL_AXES
  6
Continuous
 62
     7
100
AcDbLine
 10
265.8229332287
 20
195.5225531824
 30
0.0
 11
246.8618970105667
 21
195.5225531824
 31
0.0
  0
LINE
  5
337
330
224
100
AcDbEntity
  8
7_ALL_FEATURES
  6
Continuous
 62
     7
100
AcDbLine
 10
209.4424181652333
 20
229.7725549310667
 30
0.0
 11
208.9424168808333
 21
230.2725562666667
 31
0.0
  0
LINE
  5
338
330
224
100
AcDbEntity
  8
7_ALL_FEATURES
  6
Continuous
 62
     7
100
AcDbLine
 10
289.8422141603
 20
199.0225531824
 30
0.0
 11
222.8426160789667
 21
199.0225531824
 31
0.0
  0
LINE
  5
339
330
224
100
AcDbEntity
  8
7_ALL_FEATURES
  6
Continuous
 62
     7
100
AcDbLine
 10
290.8424151195
 20
200.0225553172
 30
0.0
 11
221.8424151196334
 21
200.0225553172
 31
0.0
  0
LINE
  5
33A
330
224
100
AcDbEntity
  8
7_ALL_FEATURES
  6
Continuous
 62
     7
100
AcDbLine
 10
221.8424103573667
 20
228.7725479777334
 30
0.0
 11
220.8424097669667
 21
229.7725482793333
 31
0.0
  0
LINE
  5
33B
330
224
100
AcDbEntity
  8
02___PRT_ALL_AXES
  6
Continuous
 62
     7
100
AcDbLine
 10
246.8618970105667
 20
199.0225531824
 30
0.0
 11
246.8618970105667
 21
195.5225531824
 31
0.0
  0
LINE
  5
33C
330
224
100
AcDbEntity
  8
02___PRT_ALL_AXES
  6
Continuous
 62
     7
100
AcDbLine
 10
246.8618970105667
 20
191.5225531824
 30
0.0
 11
246.8618970105667
 21
184.0225531824
 31
0.0
  0
LINE
  5
33D
330
224
100
AcDbEntity
  8
02___PRT_ALL_AXES
  6
Continuous
 62
     7
100
AcDbLine
 10
247.2923497167
 20
183.2790095678667
 30
0.0
 11
247.2923497167
 21
183.3057145884
 31
0.0
  0
LINE
  5
33E
330
224
100
AcDbEntity
  8
7_ALL_FEATURES
  6
Continuous
 62
     7
100
AcDbLine
 10
290.8421877916333
 20
203.0225531824
 30
0.0
 11
221.8426424475
 21
203.0225531824
 31
0.0
  0
LINE
  5
33F
330
224
100
AcDbEntity
  8
02___PRT_ALL_AXES
  6
Continuous
 62
     7
100
AcDbLine
 10
248.0379156739
 20
183.2790095678667
 30
0.0
 11
248.0379156739
 21
183.3057145884
 31
0.0
  0
LINE
  5
340
330
224
100
AcDbEntity
  8
02___PRT_ALL_AXES
  6
Continuous
 62
     7
100
AcDbLine
 10
248.8424151196334
 20
191.5225531824
 30
0.0
 11
248.8424151196334
 21
195.5225531824
 31
0.0
  0
LINE
  5
341
330
224
100
AcDbEntity
  8
7_ALL_FEATURES
  6
Continuous
 62
     7
100
AcDbLine
 10
290.8421877916333
 20
206.5225531824
 30
0.0
 11
221.8426424475
 21
206.5225531824
 31
0.0
  0
LINE
  5
342
330
224
100
AcDbEntity
  8
7_ALL_FEATURES
  6
Continuous
 62
     7
100
AcDbLine
 10
290.8421877916333
 20
209.0225531824
 30
0.0
 11
221.8426424475
 21
209.0225531824
 31
0.0
  0
LINE
  5
343
330
224
100
AcDbEntity
  8
02___PRT_ALL_AXES
  6
Continuous
 62
     7
100
AcDbLine
 10
252.6260992852334
 20
183.2790095678667
 30
0.0
 11
252.6260992852334
 21
183.3057145884
 31
0.0
  0
LINE
  5
344
330
224
100
AcDbEntity
  8
02___PRT_ALL_AXES
  6
Continuous
 62
     7
100
AcDbLine
 10
253.8021179484333
 20
199.0225531824
 30
0.0
 11
253.8021179484333
 21
195.5225531824
 31
0.0
  0
LINE
  5
345
330
224
100
AcDbEntity
  8
02___PRT_ALL_AXES
  6
Continuous
 62
     7
100
AcDbLine
 10
253.8021179484333
 20
191.5225531824
 30
0.0
 11
253.8021179484333
 21
184.0225531824
 31
0.0
  0
LINE
  5
346
330
224
100
AcDbEntity
  8
02___PRT_ALL_AXES
  6
Continuous
 62
     7
100
AcDbLine
 10
255.4085893177667
 20
183.2790095678667
 30
0.0
 11
255.4085893177667
 21
183.3057145884
 31
0.0
  0
LINE
  5
347
330
224
100
AcDbEntity
  8
7_ALL_FEATURES
  6
Continuous
 62
     7
100
AcDbLine
 10
290.8421877916333
 20
212.5225531824
 30
0.0
 11
221.8426424475
 21
212.5225531824
 31
0.0
  0
LINE
  5
348
330
224
100
AcDbEntity
  8
7_ALL_FEATURES
  6
Continuous
 62
     7
100
AcDbLine
 10
290.8421877916333
 20
215.0225531824
 30
0.0
 11
221.8426424475
 21
215.0225531824
 31
0.0
  0
LINE
  5
349
330
224
100
AcDbEntity
  8
7_ALL_FEATURES
  6
Continuous
 62
     7
100
AcDbLine
 10
290.8421877916333
 20
218.5225531824
 30
0.0
 11
221.8426424475
 21
218.5225531824
 31
0.0
  0
LINE
  5
34A
330
224
100
AcDbEntity
  8
02___PRT_ALL_AXES
  6
Continuous
 62
     7
100
AcDbLine
 10
261.6761646881666
 20
183.2790095678667
 30
0.0
 11
261.6761646881666
 21
183.3057145884
 31
0.0
  0
LINE
  5
34B
330
224
100
AcDbEntity
  8
02___PRT_ALL_AXES
  6
Continuous
 62
     7
100
AcDbLine
 10
263.2826360575
 20
199.0225531824
 30
0.0
 11
263.2826360575
 21
195.5225531824
 31
0.0
  0
LINE
  5
34C
330
224
100
AcDbEntity
  8
02___PRT_ALL_AXES
  6
Continuous
 62
     7
100
AcDbLine
 10
263.2826360575
 20
191.5225531824
 30
0.0
 11
263.2826360575
 21
184.0225531824
 31
0.0
  0
LINE
  5
34D
330
224
100
AcDbEntity
  8
02___PRT_ALL_AXES
  6
Continuous
 62
     7
100
AcDbLine
 10
263.7130887636333
 20
183.2790095678667
 30
0.0
 11
263.7130887636333
 21
183.3057145884
 31
0.0
  0
LINE
  5
34E
330
224
100
AcDbEntity
  8
02___PRT_ALL_AXES
  6
Continuous
 62
     7
100
AcDbLine
 10
263.8424151196334
 20
191.5225531824
 30
0.0
 11
263.8424151196334
 21
195.5225531824
 31
0.0
  0
LINE
  5
34F
330
224
100
AcDbEntity
  8
02___PRT_ALL_AXES
  6
Continuous
 62
     7
100
AcDbLine
 10
265.3924805225666
 20
183.2790095678667
 30
0.0
 11
265.3924805225666
 21
183.3057145884
 31
0.0
  0
LINE
  5
350
330
224
100
AcDbEntity
  8
02___PRT_ALL_AXES
  6
Continuous
 62
     7
100
AcDbLine
 10
265.8229332287
 20
199.0225531824
 30
0.0
 11
265.8229332287
 21
195.5225531824
 31
0.0
  0
LINE
  5
351
330
224
100
AcDbEntity
  8
02___PRT_ALL_AXES
  6
Continuous
 62
     7
100
AcDbLine
 10
265.8229332287
 20
191.5225531824
 30
0.0
 11
265.8229332287
 21
184.0225531824
 31
0.0
  0
LINE
  5
352
330
224
100
AcDbEntity
  8
7_ALL_FEATURES
  6
Continuous
 62
     7
100
AcDbLine
 10
290.8421877916333
 20
221.2725531824
 30
0.0
 11
221.8426424475
 21
221.2725531824
 31
0.0
  0
LINE
  5
353
330
224
100
AcDbEntity
  8
7_ALL_FEATURES
  6
Continuous
 62
     7
100
AcDbLine
 10
290.8424198819
 20
228.7725479777334
 30
0.0
 11
291.8424204723
 21
229.7725482793333
 31
0.0
  0
LINE
  5
354
330
224
100
AcDbEntity
  8
7_ALL_FEATURES
  6
Continuous
 62
     7
100
AcDbLine
 10
290.8421877916333
 20
224.7725531824
 30
0.0
 11
221.8426424475
 21
224.7725531824
 31
0.0
  0
LINE
  5
355
330
224
100
AcDbEntity
  8
7_ALL_FEATURES
  6
Continuous
 62
     7
100
AcDbLine
 10
221.8424151376333
 20
228.77255298
 30
0.0
 11
290.8424151015
 21
228.77255298
 31
0.0
  0
LINE
  5
356
330
224
100
AcDbEntity
  8
7_ALL_FEATURES
  6
Continuous
 62
     7
100
AcDbLine
 10
209.4425068224334
 20
229.7725531824
 30
0.0
 11
303.2423234168334
 21
229.7725531824
 31
0.0
  0
LINE
  5
357
330
224
100
AcDbEntity
  8
7_ALL_FEATURES
  6
Continuous
 62
     7
100
AcDbLine
 10
208.9424151204333
 20
230.2725547965333
 30
0.0
 11
303.7424151188333
 21
230.2725547965333
 31
0.0
  0
LINE
  5
358
330
224
100
AcDbEntity
  8
7_ALL_FEATURES
  6
Continuous
 62
     7
100
AcDbLine
 10
303.2424120740333
 20
229.7725549310667
 30
0.0
 11
303.7424133584333
 21
230.2725562666667
 31
0.0
  0
LINE
  5
359
330
224
100
AcDbEntity
  8
7_ALL_FEATURES
  6
Continuous
 62
     7
100
AcDbLine
 10
282.9686353752333
 20
246.0225531824
 30
0.0
 11
282.9686353752333
 21
243.5225531824
 31
0.0
  0
LINE
  5
35A
330
224
100
AcDbEntity
  8
02___PRT_ALL_AXES
  6
Continuous
 62
     7
100
AcDbLine
 10
283.0408999295
 20
243.5225531824
 30
0.0
 11
283.0408999295
 21
245.0225531824
 31
0.0
  0
LINE
  5
35B
330
224
100
AcDbEntity
  8
7_ALL_FEATURES
  6
Continuous
 62
     7
100
AcDbLine
 10
284.3424151196334
 20
212.5225531824
 30
0.0
 11
284.3424151196334
 21
209.0225531824
 31
0.0
  0
LINE
  5
35C
330
224
100
AcDbEntity
  8
7_ALL_FEATURES
  6
Continuous
 62
     7
100
AcDbLine
 10
284.3424151196334
 20
206.5225531824
 30
0.0
 11
284.3424151196334
 21
203.0225531824
 31
0.0
  0
LINE
  5
35D
330
224
100
AcDbEntity
  8
7_ALL_FEATURES
  6
Continuous
 62
     7
100
AcDbLine
 10
287.3424151196334
 20
224.7725531824
 30
0.0
 11
287.3424151196334
 21
221.2725531824
 31
0.0
  0
LINE
  5
35E
330
224
100
AcDbEntity
  8
7_ALL_FEATURES
  6
Continuous
 62
     7
100
AcDbLine
 10
287.3424151196334
 20
218.5225531824
 30
0.0
 11
287.3424151196334
 21
215.0225531824
 31
0.0
  0
LINE
  5
35F
330
224
100
AcDbEntity
  8
02___PRT_ALL_AXES
  6
Continuous
 62
     7
100
AcDbLine
 10
289.0408999295
 20
243.5225531824
 30
0.0
 11
289.0408999295
 21
245.0225531824
 31
0.0
  0
LINE
  5
360
330
224
100
AcDbEntity
  8
02___PRT_ALL_AXES
  6
Continuous
 62
     7
100
AcDbLine
 10
295.5572642829666
 20
243.5225531824
 30
0.0
 11
282.9686353752333
 21
243.5225531824
 31
0.0
  0
LINE
  5
361
330
224
100
AcDbEntity
  8
02___PRT_ALL_AXES
  6
Continuous
 62
     7
100
AcDbLine
 10
229.7161948640333
 20
243.5225531824
 30
0.0
 11
217.1275659563
 21
243.5225531824
 31
0.0
  0
LINE
  5
362
330
224
100
AcDbEntity
  8
7_ALL_FEATURES
  6
Continuous
 62
     7
100
AcDbLine
 10
229.6439303097667
 20
244.5225457681334
 30
0.0
 11
229.7161948640333
 21
244.5225465204
 31
0.0
  0
LINE
  5
363
330
224
100
AcDbEntity
  8
02___PRT_ALL_AXES
  6
Continuous
 62
     7
100
AcDbLine
 10
222.8939474883
 20
245.0225531824
 30
0.0
 11
229.7161948640333
 21
245.0225531824
 31
0.0
  0
LINE
  5
364
330
224
100
AcDbEntity
  8
02___PRT_ALL_AXES
  6
Continuous
 62
     7
100
AcDbLine
 10
282.9686353752333
 20
245.0225531824
 30
0.0
 11
289.7908827509667
 21
245.0225531824
 31
0.0
  0
LINE
  5
365
330
224
100
AcDbEntity
  8
7_ALL_FEATURES
  6
Continuous
 62
     7
100
AcDbLine
 10
282.9686353752333
 20
246.0225531824
 30
0.0
 11
229.7161948640333
 21
246.0225531824
 31
0.0
  0
LINE
  5
366
330
224
100
AcDbEntity
  8
7_ALL_FEATURES
  6
Continuous
 62
     7
100
AcDbLine
 10
303.7424151196333
 20
246.0225245854667
 30
0.0
 11
295.5572642829666
 21
246.0225531824
 31
0.0
  0
LINE
  5
367
330
224
100
AcDbEntity
  8
7_ALL_FEATURES
  6
Continuous
 62
     7
100
AcDbLine
 10
217.1275659563
 20
246.0225531824
 30
0.0
 11
208.9424151196333
 21
246.0225238273333
 31
0.0
  0
LINE
  5
368
330
224
100
AcDbEntity
  8
02___PRT_ALL_AXES
  6
Continuous
 62
     7
100
AcDbLine
 10
196.3429988781667
 20
246.5225531824
 30
0.0
 11
316.3418313609666
 21
246.5225531824
 31
0.0
  0
LINE
  5
369
330
224
100
AcDbEntity
  8
02___PRT_ALL_AXES
  6
Continuous
 62
     7
100
AcDbLine
 10
289.7908999295
 20
245.0225531824
 30
0.0
 11
289.7908999295
 21
246.5225531824
 31
0.0
  0
LINE
  5
36A
330
224
100
AcDbEntity
  8
7_ALL_FEATURES
  6
Continuous
 62
     7
100
AcDbLine
 10
290.8424151196334
 20
228.77255274
 30
0.0
 11
290.8424151196334
 21
224.7725531824
 31
0.0
  0
LINE
  5
36B
330
224
100
AcDbEntity
  8
7_ALL_FEATURES
  6
Continuous
 62
     7
100
AcDbLine
 10
290.8424151196334
 20
221.2725531824
 30
0.0
 11
290.8424151196334
 21
218.5225531824
 31
0.0
  0
LINE
  5
36C
330
224
100
AcDbEntity
  8
7_ALL_FEATURES
  6
Continuous
 62
     7
100
AcDbLine
 10
290.8424151196334
 20
215.0225531824
 30
0.0
 11
290.8424151196334
 21
212.5225531824
 31
0.0
  0
LINE
  5
36D
330
224
100
AcDbEntity
  8
7_ALL_FEATURES
  6
Continuous
 62
     7
100
AcDbLine
 10
290.8424151196334
 20
209.0225531824
 30
0.0
 11
290.8424151196334
 21
206.5225531824
 31
0.0
  0
LINE
  5
36E
330
224
100
AcDbEntity
  8
7_ALL_FEATURES
  6
Continuous
 62
     7
100
AcDbLine
 10
290.8424151196334
 20
203.0225531824
 30
0.0
 11
290.8424151196334
 21
200.0225547093334
 31
0.0
  0
LINE
  5
36F
330
224
100
AcDbEntity
  8
7_ALL_FEATURES
  6
Continuous
 62
     7
100
AcDbLine
 10
289.8424205876333
 20
199.0225462489334
 30
0.0
 11
290.8424222689667
 21
200.02254756
 31
0.0
  0
LINE
  5
370
330
224
100
AcDbEntity
  8
7_ALL_FEATURES
  6
Continuous
 62
     7
100
AcDbLine
 10
196.3424151196334
 20
247.5225528008
 30
0.0
 11
316.3424151196334
 21
247.5225528008
 31
0.0
  0
LINE
  5
371
330
224
100
AcDbEntity
  8
7_ALL_FEATURES
  6
Continuous
 62
     7
100
AcDbLine
 10
202.3426366700333
 20
249.5225531824
 30
0.0
 11
310.3421935692333
 21
249.5225531824
 31
0.0
  0
LINE
  5
372
330
224
100
AcDbEntity
  8
7_ALL_FEATURES
  6
Continuous
 62
     7
100
AcDbLine
 10
295.5572642829666
 20
246.0225531824
 30
0.0
 11
295.5572642829666
 21
243.5225531824
 31
0.0
  0
LINE
  5
373
330
224
100
AcDbEntity
  8
02___PRT_ALL_AXES
  6
Continuous
 62
     7
100
AcDbLine
 10
303.7424151196333
 20
246.0225245854667
 30
0.0
 11
303.7424151196333
 21
230.2725545054667
 31
0.0
  0
LINE
  5
374
330
224
100
AcDbEntity
  8
7_ALL_FEATURES
  6
Continuous
 62
     7
100
AcDbLine
 10
310.3424131744333
 20
249.5225501316
 30
0.0
 11
316.3424139911
 21
247.5225494484
 31
0.0
  0
LINE
  5
375
330
224
100
AcDbEntity
  8
7_ALL_FEATURES
  6
Continuous
 62
     7
100
AcDbLine
 10
303.2423868244333
 20
246.5225531824
 30
0.0
 11
303.7424151196333
 21
246.0225245854667
 31
0.0
  0
LINE
  5
376
330
224
100
AcDbEntity
  8
02___PRT_ALL_AXES
  6
Continuous
 62
     7
100
AcDbLine
 10
316.3424151196334
 20
246.5225531824
 30
0.0
 11
316.3424151196334
 21
247.522552834
 31
0.0
  0
LINE
  5
377
330
224
100
AcDbEntity
  8
7_ALL_FEATURES
  6
Continuous
 62
     7
100
AcDbLine
 10
302.9187377291
 20
102.3040476632
 30
0.0
 11
302.2802601948
 21
102.8173281561
 31
0.0
  0
LINE
  5
378
330
224
100
AcDbEntity
  8
7_ALL_FEATURES
  6
Continuous
 62
     7
100
AcDbLine
 10
299.068069622
 20
118.0001263441
 30
0.0
 11
299.0505723146
 21
117.1012384703
 31
0.0
  0
LINE
  5
379
330
224
100
AcDbEntity
  8
7_ALL_FEATURES
  6
Continuous
 62
     7
100
AcDbLine
 10
299.0049278627
 20
114.756349421
 30
0.0
 11
298.9723246827
 21
113.0814286715
 31
0.0
  0
LINE
  5
37A
330
224
100
AcDbEntity
  8
7_ALL_FEATURES
  6
Continuous
 62
     7
100
AcDbLine
 10
298.9266802307
 20
110.7365396222
 30
0.0
 11
298.8875564486
 21
108.7266364615
 31
0.0
  0
LINE
  5
37B
330
224
100
AcDbEntity
  8
02___PRT_ALL_AXES
  6
Continuous
 62
     7
100
AcDbLine
 10
302.1471691534
 20
141.3030018678
 30
0.0
 11
302.1235353608
 21
140.0888647903
 31
0.0
  0
LINE
  5
37C
330
224
100
AcDbEntity
  8
02___PRT_ALL_AXES
  6
Continuous
 62
     7
100
AcDbLine
 10
318.6780865323
 20
95.5276459749
 30
0.0
 11
318.6784347997
 21
95.5455374921
 31
0.0
  0
LINE
  5
37D
330
224
100
AcDbEntity
  8
02___PRT_ALL_AXES
  6
Continuous
 62
     7
100
AcDbLine
 10
318.9257647928
 20
96.6874169216
 30
0.0
 11
318.9020764093
 21
95.4704753557
 31
0.0
  0
LINE
  5
37E
330
224
100
AcDbEntity
  8
02___PRT_ALL_AXES
  6
Continuous
 62
     7
100
AcDbLine
 10
320.0635417496
 20
94.7615103529
 30
0.0
 11
320.063890017
 21
94.7794018701
 31
0.0
  0
LINE
  5
37F
330
224
100
AcDbEntity
  8
02___PRT_ALL_AXES
  6
Continuous
 62
     7
100
AcDbLine
 10
324.6327776788
 20
93.9390276973
 30
0.0
 11
324.6331259462
 21
93.9569192145
 31
0.0
  0
LINE
  5
380
330
224
100
AcDbEntity
  8
02___PRT_ALL_AXES
  6
Continuous
 62
     7
100
AcDbLine
 10
325.8538120949
 20
96.2903004143
 30
0.0
 11
325.8136365281
 21
94.2263639969
 31
0.0
  0
LINE
  5
381
330
224
100
AcDbEntity
  8
02___PRT_ALL_AXES
  6
Continuous
 62
     7
100
AcDbLine
 10
326.7608087458
 20
94.0727202645
 30
0.0
 11
326.7611570133
 21
94.0906117816
 31
0.0
  0
LINE
  5
382
330
224
100
AcDbEntity
  8
02___PRT_ALL_AXES
  6
Continuous
 62
     7
100
AcDbLine
 10
330.493989752
 20
95.4167984226
 30
0.0
 11
330.4943380195
 21
95.4346899398
 31
0.0
  0
LINE
  5
383
330
224
100
AcDbEntity
  8
02___PRT_ALL_AXES
  6
Continuous
 62
     7
100
AcDbLine
 10
331.4669747675
 20
96.589233634
 30
0.0
 11
331.4605554788
 21
96.2594559926
 31
0.0
  0
LINE
  5
384
330
224
100
AcDbEntity
  8
02___PRT_ALL_AXES
  6
Continuous
 62
     7
100
AcDbLine
 10
348.6383620934
 20
140.3980272702
 30
0.0
 11
348.6145191636
 21
139.1731462069
 31
0.0
  0
LINE
  5
385
330
224
100
AcDbEntity
  8
7_ALL_FEATURES
  6
Continuous
 62
     7
100
AcDbLine
 10
350.808478524
 20
117.003781313
 30
0.0
 11
350.7907709091
 21
116.0940893215
 31
0.0
  0
LINE
  5
386
330
224
100
AcDbEntity
  8
7_ALL_FEATURES
  6
Continuous
 62
     7
100
AcDbLine
 10
350.7451264571
 20
113.7492002722
 30
0.0
 11
350.7125232771
 21
112.0742795227
 31
0.0
  0
LINE
  5
387
330
224
100
AcDbEntity
  8
7_ALL_FEATURES
  6
Continuous
 62
     7
100
AcDbLine
 10
350.6668788251
 20
109.7293904733
 30
0.0
 11
350.627755043
 21
107.7194873127
 31
0.0
  0
LINE
  5
388
330
224
100
AcDbEntity
  8
7_ALL_FEATURES
  6
Continuous
 62
     7
100
AcDbLine
 10
346.3496864221
 20
101.4586438801
 30
0.0
 11
347.0076509453
 21
101.9466851923
 31
0.0
  0
CIRCLE
  5
389
330
224
100
AcDbEntity
  8
7_ALL_FEATURES
  6
Continuous
 62
     7
100
AcDbCircle
 10
85.17748413056665
 20
94.59462100942102
 30
0.0
 40
60.0
  0
CIRCLE
  5
38A
330
224
100
AcDbEntity
  8
7_ALL_FEATURES
  6
Continuous
 62
     7
100
AcDbCircle
 10
85.17748413056665
 20
94.59462100942102
 30
0.0
 40
53.99999561946667
  0
CIRCLE
  5
38B
330
224
100
AcDbEntity
  8
7_ALL_FEATURES
  6
Continuous
 62
     7
100
AcDbCircle
 10
85.17748413056665
 20
94.59462100942102
 30
0.0
 40
31.87500331093333
  0
CIRCLE
  5
38C
330
224
100
AcDbEntity
  8
7_ALL_FEATURES
  6
Continuous
 62
     7
100
AcDbCircle
 10
85.17748413056665
 20
94.59462100942102
 30
0.0
 40
31.375
  0
CIRCLE
  5
38D
330
224
100
AcDbEntity
  8
7_ALL_FEATURES
  6
Continuous
 62
     7
100
AcDbCircle
 10
85.17748413056665
 20
94.59462100942102
 30
0.0
 40
31.0
  0
CIRCLE
  5
38E
330
224
100
AcDbEntity
  8
7_ALL_FEATURES
  6
Continuous
 62
     7
100
AcDbCircle
 10
85.17748413056665
 20
94.59462100942102
 30
0.0
 40
30.50000026533333
  0
CIRCLE
  5
38F
330
224
100
AcDbEntity
  8
02___PRT_ALL_AXES
  6
Continuous
 62
     7
100
AcDbCircle
 10
127.1774841305667
 20
94.59462100942102
 30
0.0
 40
5.0
  0
CIRCLE
  5
390
330
224
100
AcDbEntity
  8
02___PRT_ALL_AXES
  6
Continuous
 62
     7
100
AcDbCircle
 10
43.17748413056666
 20
94.59462100942102
 30
0.0
 40
5.0
  0
CIRCLE
  5
391
330
224
100
AcDbEntity
  8
02___PRT_ALL_AXES
  6
Continuous
 62
     7
100
AcDbCircle
 10
43.17748413056666
 20
94.59462100942102
 30
0.0
 40
3.5
  0
CIRCLE
  5
392
330
224
100
AcDbEntity
  8
02___PRT_ALL_AXES
  6
Continuous
 62
     7
100
AcDbCircle
 10
127.1774841305667
 20
94.59462100942102
 30
0.0
 40
3.5
  0
ARC
  5
393
330
224
100
AcDbEntity
  8
7_ALL_FEATURES
  6
Continuous
 62
     7
100
AcDbCircle
 10
42.6407613767
 20
265.2222750798667
 30
0.0
 40
24.93538471106666
100
AcDbArc
 50
309.647999365
 51
311.4159325296999
  0
ARC
  5
394
330
224
100
AcDbEntity
  8
7_ALL_FEATURES
  6
Continuous
 62
     7
100
AcDbCircle
 10
127.7083709144333
 20
265.2154497513333
 30
0.0
 40
24.92640559893333
100
AcDbArc
 50
228.5837490181999
 51
230.3523190869999
  0
ARC
  5
395
330
224
100
AcDbEntity
  8
7_ALL_FEATURES
  6
Continuous
 62
     7
100
AcDbCircle
 10
56.7598954811
 20
241.8019691908
 30
0.0
 40
11.5928496856
100
AcDbArc
 50
155.9710679168001
 51
158.6497714450998
  0
ARC
  5
396
330
224
100
AcDbEntity
  8
7_ALL_FEATURES
  6
Continuous
 62
     7
100
AcDbCircle
 10
113.9330981548333
 20
241.9432960445334
 30
0.0
 40
11.22657287373333
100
AcDbArc
 50
21.30652267070007
 51
24.07263796729975
  0
ARC
  5
397
330
224
100
AcDbEntity
  8
02___PRT_ALL_AXES
  6
Continuous
 62
     7
100
AcDbCircle
 10
90.01914372723331
 20
183.2790095678667
 30
0.0
 40
4.256456385466667
100
AcDbArc
 50
270.0
 51
338.4246501717005
  0
ARC
  5
398
330
224
100
AcDbEntity
  8
02___PRT_ALL_AXES
  6
Continuous
 62
     7
100
AcDbCircle
 10
80.33582453376667
 20
183.2790095678667
 30
0.0
 40
4.256456385466667
100
AcDbArc
 50
201.5753498282997
 51
270.0
  0
ARC
  5
399
330
224
100
AcDbEntity
  8
7_ALL_FEATURES
  6
Continuous
 62
     7
100
AcDbCircle
 10
213.7892516465666
 20
265.241502956
 30
0.0
 40
24.960680092
100
AcDbArc
 50
309.6488952558001
 51
311.415036639
  0
ARC
  5
39A
330
224
100
AcDbEntity
  8
7_ALL_FEATURES
  6
Continuous
 62
     7
100
AcDbCircle
 10
298.8555400777666
 20
265.1946768045333
 30
0.0
 40
24.8990775976
100
AcDbArc
 50
228.5827783932999
 51
230.3532897119
  0
ARC
  5
39B
330
224
100
AcDbEntity
  8
7_ALL_FEATURES
  6
Continuous
 62
     7
100
AcDbCircle
 10
227.9193337493667
 20
241.8042656721334
 30
0.0
 40
11.5868978428
100
AcDbArc
 50
155.9703798064002
 51
158.6504595555
  0
ARC
  5
39C
330
224
100
AcDbEntity
  8
7_ALL_FEATURES
  6
Continuous
 62
     7
100
AcDbCircle
 10
285.0933373571
 20
241.94133443
 30
0.0
 40
11.231656744
100
AcDbArc
 50
21.30714881620004
 51
24.07201182190004
  0
ARC
  5
39D
330
224
100
AcDbEntity
  8
02___PRT_ALL_AXES
  6
Continuous
 62
     7
100
AcDbCircle
 10
261.1840747163
 20
183.2790095678667
 30
0.0
 40
4.256456385466667
100
AcDbArc
 50
270.0
 51
338.6298099801
  0
ARC
  5
39E
330
224
100
AcDbEntity
  8
02___PRT_ALL_AXES
  6
Continuous
 62
     7
100
AcDbCircle
 10
251.5007555228333
 20
183.2790095678667
 30
0.0
 40
4.256456385466667
100
AcDbArc
 50
201.3701900198992
 51
270.0
  0
ARC
  5
39F
330
224
100
AcDbEntity
  8
7_ALL_FEATURES
  6
Continuous
 62
     7
100
AcDbCircle
 10
313.1285791791
 20
146.2458204969
 30
0.0
 40
31.5095629093
100
AcDbArc
 50
241.0596102907
 51
241.6756186771
  0
ARC
  5
3A0
330
224
100
AcDbEntity
  8
7_ALL_FEATURES
  6
Continuous
 62
     7
100
AcDbCircle
 10
312.7972175821
 20
144.9070354143
 30
0.0
 40
30.2440821761
100
AcDbArc
 50
240.3445342716
 51
241.059923571
  0
ARC
  5
3A1
330
224
100
AcDbEntity
  8
7_ALL_FEATURES
  6
Continuous
 62
     7
100
AcDbCircle
 10
320.0740421752
 20
122.2642690693
 30
0.0
 40
28.8362594661
100
AcDbArc
 50
109.0796066807
 51
109.7985861275
  0
ARC
  5
3A2
330
224
100
AcDbEntity
  8
7_ALL_FEATURES
  6
Continuous
 62
     7
100
AcDbCircle
 10
307.2774343597
 20
137.2452519525
 30
0.0
 40
20.7621351012
100
AcDbArc
 50
231.2191519125
 51
232.3396002121
  0
ARC
  5
3A3
330
224
100
AcDbEntity
  8
7_ALL_FEATURES
  6
Continuous
 62
     7
100
AcDbCircle
 10
312.2096278734
 20
115.1889083509
 30
0.0
 40
15.86340304
100
AcDbArc
 50
231.2497043515
 51
234.1348647864
  0
ARC
  5
3A4
330
224
100
AcDbEntity
  8
7_ALL_FEATURES
  6
Continuous
 62
     7
100
AcDbCircle
 10
313.3695461741
 20
146.1584251281
 30
0.0
 40
13.0439324311
100
AcDbArc
 50
229.8590737718
 51
232.058519713
  0
ARC
  5
3A5
330
224
100
AcDbEntity
  8
7_ALL_FEATURES
  6
Continuous
 62
     7
100
AcDbCircle
 10
313.2715273077
 20
136.5638533942
 30
0.0
 40
12.6619365582
100
AcDbArc
 50
126.553377499
 51
128.4530571358
  0
ARC
  5
3A6
330
224
100
AcDbEntity
  8
7_ALL_FEATURES
  6
Continuous
 62
     7
100
AcDbCircle
 10
312.7212806736
 20
145.3929812509
 30
0.0
 40
12.04086332
100
AcDbArc
 50
227.9186058423
 51
229.8691387244
  0
ARC
  5
3A7
330
224
100
AcDbEntity
  8
7_ALL_FEATURES
  6
Continuous
 62
     7
100
AcDbCircle
 10
289.4907630244
 20
140.7458780044
 30
0.0
 40
9.1067998208
100
AcDbArc
 50
178.8896100533
 51
183.0685619608
  0
ARC
  5
3A8
330
224
100
AcDbEntity
  8
7_ALL_FEATURES
  6
Continuous
 62
     7
100
AcDbCircle
 10
307.5244919494
 20
142.1006728568
 30
0.0
 40
6.0780664214
100
AcDbArc
 50
201.6146003133
 51
205.5846554016
  0
ARC
  5
3A9
330
224
100
AcDbEntity
  8
02___PRT_ALL_AXES
  6
Continuous
 62
     7
100
AcDbCircle
 10
307.1786816928
 20
139.6007740297
 30
0.0
 40
5.3604812562
100
AcDbArc
 50
159.8290585959
 51
161.4303607839
  0
ARC
  5
3AA
330
224
100
AcDbEntity
  8
02___PRT_ALL_AXES
  6
Continuous
 62
     7
100
AcDbCircle
 10
293.4151544931
 20
138.9842249437
 30
0.0
 40
3.2627039362
100
AcDbArc
 50
108.2082143546
 51
109.7900014662
  0
ARC
  5
3AB
330
224
100
AcDbEntity
  8
0
  6
Continuous
 62
     7
100
AcDbCircle
 10
293.4054400704
 20
138.8005085285
 30
0.0
 40
3.2444856753
100
AcDbArc
 50
108.836845257
 51
109.796874094
  0
ARC
  5
3AC
330
224
100
AcDbEntity
  8
02___PRT_ALL_AXES
  6
Continuous
 62
     7
100
AcDbCircle
 10
293.3067490778
 20
139.6434388731
 30
0.0
 40
2.9264557515
100
AcDbArc
 50
109.764148926
 51
113.0284585932
  0
ARC
  5
3AD
330
224
100
AcDbEntity
  8
02___PRT_ALL_AXES
  6
Continuous
 62
     7
100
AcDbCircle
 10
296.8304896569
 20
142.5531515468
 30
0.0
 40
0.951081965
100
AcDbArc
 50
21.152728531
 51
26.6051118086
  0
ARC
  5
3AE
330
224
100
AcDbEntity
  8
02___PRT_ALL_AXES
  6
Continuous
 62
     7
100
AcDbCircle
 10
296.9090188517
 20
142.5837664038
 30
0.0
 40
0.8667964178
100
AcDbArc
 50
15.3209493059
 51
21.1385557074
  0
ARC
  5
3AF
330
224
100
AcDbEntity
  8
02___PRT_ALL_AXES
  6
Continuous
 62
     7
100
AcDbCircle
 10
291.0571372319
 20
143.1921500018
 30
0.0
 40
0.7735803535
100
AcDbArc
 50
178.9666967244
 51
191.6214028303
  0
ARC
  5
3B0
330
224
100
AcDbEntity
  8
02___PRT_ALL_AXES
  6
Continuous
 62
     7
100
AcDbCircle
 10
321.7516577367
 20
190.9263772689
 30
0.0
 40
71.25438953
100
AcDbArc
 50
253.8622055695
 51
254.4617192406
  0
ARC
  5
3B1
330
224
100
AcDbEntity
  8
02___PRT_ALL_AXES
  6
Continuous
 62
     7
100
AcDbCircle
 10
320.2135502239
 20
185.7633050595
 30
0.0
 40
65.8672621337
100
AcDbArc
 50
251.1916505228
 51
253.8991162228
  0
ARC
  5
3B2
330
224
100
AcDbEntity
  8
7_ALL_FEATURES
  6
Continuous
 62
     7
100
AcDbCircle
 10
321.489385393
 20
185.4725433699
 30
0.0
 40
61.7271506292
100
AcDbArc
 50
252.2749183597
 51
254.6245627693
  0
ARC
  5
3B3
330
224
100
AcDbEntity
  8
7_ALL_FEATURES
  6
Continuous
 62
     7
100
AcDbCircle
 10
316.7399323437
 20
172.1549910457
 30
0.0
 40
47.5827096034
100
AcDbArc
 50
246.6655183013
 51
248.3681074517
  0
ARC
  5
3B4
330
224
100
AcDbEntity
  8
7_ALL_FEATURES
  6
Continuous
 62
     7
100
AcDbCircle
 10
330.5934609804
 20
128.9288263986
 30
0.0
 40
31.7586404006
100
AcDbArc
 50
288.7683334759
 51
289.7985005818
  0
ARC
  5
3B5
330
224
100
AcDbEntity
  8
7_ALL_FEATURES
  6
Continuous
 62
     7
100
AcDbCircle
 10
330.9421352163
 20
126.1930732403
 30
0.0
 40
29.279303254
100
AcDbArc
 50
289.7925023954
 51
291.0334094151
  0
ARC
  5
3B6
330
224
100
AcDbEntity
  8
7_ALL_FEATURES
  6
Continuous
 62
     7
100
AcDbCircle
 10
343.3805529184
 20
136.5070831139
 30
0.0
 40
20.7175265888
100
AcDbArc
 50
305.4872800779
 51
306.5615850957
  0
ARC
  5
3B7
330
224
100
AcDbEntity
  8
7_ALL_FEATURES
  6
Continuous
 62
     7
100
AcDbCircle
 10
337.1756759951
 20
115.2770663073
 30
0.0
 40
16.5646918648
100
AcDbArc
 50
303.5951501801
 51
303.8875229098
  0
ARC
  5
3B8
330
224
100
AcDbEntity
  8
7_ALL_FEATURES
  6
Continuous
 62
     7
100
AcDbCircle
 10
337.7986263483
 20
114.3667920063
 30
0.0
 40
15.4617105404
100
AcDbArc
 50
303.8519649154
 51
306.5496035174
  0
ARC
  5
3B9
330
224
100
AcDbEntity
  8
7_ALL_FEATURES
  6
Continuous
 62
     7
100
AcDbCircle
 10
337.0534886461
 20
135.0341811845
 30
0.0
 40
14.0252623412
100
AcDbArc
 50
51.1752292576
 51
53.1254778243
  0
ARC
  5
3BA
330
224
100
AcDbEntity
  8
7_ALL_FEATURES
  6
Continuous
 62
     7
100
AcDbCircle
 10
337.3690842006
 20
146.013316016
 30
0.0
 40
13.4519053517
100
AcDbArc
 50
305.0779011663
 51
307.8849545556
  0
ARC
  5
3BB
330
224
100
AcDbEntity
  8
7_ALL_FEATURES
  6
Continuous
 62
     7
100
AcDbCircle
 10
337.6774123041
 20
135.8148594238
 30
0.0
 40
13.0258990018
100
AcDbArc
 50
49.4584965931
 51
51.1604472076
  0
ARC
  5
3BC
330
224
100
AcDbEntity
  8
7_ALL_FEATURES
  6
Continuous
 62
     7
100
AcDbCircle
 10
337.4473950074
 20
136.227276463
 30
0.0
 40
12.490612648
100
AcDbArc
 50
49.27949091439999
 51
51.22341653579999
  0
ARC
  5
3BD
330
224
100
AcDbEntity
  8
7_ALL_FEATURES
  6
Continuous
 62
     7
100
AcDbCircle
 10
338.1344371832
 20
145.0175072773
 30
0.0
 40
12.1959837913
100
AcDbArc
 50
307.9199677771999
 51
309.8079405966
  0
ARC
  5
3BE
330
224
100
AcDbEntity
  8
7_ALL_FEATURES
  6
Continuous
 62
     7
100
AcDbCircle
 10
338.3410512353
 20
136.591711567
 30
0.0
 40
12.0041771941
100
AcDbArc
 50
46.7725529376
 51
49.45548860040001
  0
ARC
  5
3BF
330
224
100
AcDbEntity
  8
7_ALL_FEATURES
  6
Continuous
 62
     7
100
AcDbCircle
 10
338.9939666963
 20
137.2948050403
 30
0.0
 40
11.0446969172
100
AcDbArc
 50
45.48400014130001
 51
46.7424369539
  0
ARC
  5
3C0
330
224
100
AcDbEntity
  8
7_ALL_FEATURES
  6
Continuous
 62
     7
100
AcDbCircle
 10
361.2146450487
 20
139.3530813651
 30
0.0
 40
9.1558753668
100
AcDbArc
 50
352.8863197328
 51
354.6693168095
  0
ARC
  5
3C1
330
224
100
AcDbEntity
  8
7_ALL_FEATURES
  6
Continuous
 62
     7
100
AcDbCircle
 10
361.2695670888
 20
139.3479902545
 30
0.0
 40
9.1007178761
100
AcDbArc
 50
354.6691066913
 51
358.8840851435
  0
ARC
  5
3C2
330
224
100
AcDbEntity
  8
7_ALL_FEATURES
  6
Continuous
 62
     7
100
AcDbCircle
 10
343.3624545411
 20
141.3722482687
 30
0.0
 40
6.0044495311
100
AcDbArc
 50
332.1794409848
 51
336.2123464543
  0
ARC
  5
3C3
330
224
100
AcDbEntity
  8
7_ALL_FEATURES
  6
Continuous
 62
     7
100
AcDbCircle
 10
345.3105580167
 20
117.9164600329
 30
0.0
 40
5.5175824599
100
AcDbArc
 50
342.0054879059
 51
349.9068997145
  0
ARC
  5
3C4
330
224
100
AcDbEntity
  8
02___PRT_ALL_AXES
  6
Continuous
 62
     7
100
AcDbCircle
 10
343.5445553554
 20
138.8929795075
 30
0.0
 40
5.3603139713
100
AcDbArc
 50
16.3055964608
 51
17.8534866061
  0
ARC
  5
3C5
330
224
100
AcDbEntity
  8
7_ALL_FEATURES
  6
Continuous
 62
     7
100
AcDbCircle
 10
345.4331087925
 20
113.8473492963
 30
0.0
 40
5.3129100279
100
AcDbArc
 50
358.9482154858
 51
10.2178978955
  0
ARC
  5
3C6
330
224
100
AcDbEntity
  8
7_ALL_FEATURES
  6
Continuous
 62
     7
100
AcDbCircle
 10
345.3548611605
 20
109.8275394974
 30
0.0
 40
5.3129100279
100
AcDbArc
 50
358.9482154858
 51
10.2178978955
  0
ARC
  5
3C7
330
224
100
AcDbEntity
  8
02___PRT_ALL_AXES
  6
Continuous
 62
     7
100
AcDbCircle
 10
343.6244125958
 20
138.9165092836
 30
0.0
 40
5.2770625307
100
AcDbArc
 50
15.3755764834
 51
16.3038309963
  0
ARC
  5
3C8
330
224
100
AcDbEntity
  8
02___PRT_ALL_AXES
  6
Continuous
 62
     7
100
AcDbCircle
 10
343.8341131462
 20
138.9715083629
 30
0.0
 40
5.0602853894
100
AcDbArc
 50
6.9105094217
 51
15.4046813092
  0
ARC
  5
3C9
330
224
100
AcDbEntity
  8
02___PRT_ALL_AXES
  6
Continuous
 62
     9
100
AcDbCircle
 10
328.2524872223
 20
98.2618672933
 30
0.0
 40
3.6219815668
100
AcDbArc
 50
308.2329941079
 51
308.4349443066
  0
ARC
  5
3CA
330
224
100
AcDbEntity
  8
02___PRT_ALL_AXES
  6
Continuous
 62
     9
100
AcDbCircle
 10
328.3903319516
 20
98.0903087362
 30
0.0
 40
3.4019097082
100
AcDbArc
 50
308.4125344381
 51
312.2504379829
  0
ARC
  5
3CB
330
224
100
AcDbEntity
  8
02___PRT_ALL_AXES
  6
Continuous
 62
     7
100
AcDbCircle
 10
356.1556557553
 20
135.4906486432
 30
0.0
 40
3.2627039363
100
AcDbArc
 50
108.2082143546
 51
109.7900014662
  0
ARC
  5
3CC
330
224
100
AcDbEntity
  8
0
  6
Continuous
 62
     7
100
AcDbCircle
 10
356.1459413325
 20
135.3069322281
 30
0.0
 40
3.2444856753
100
AcDbArc
 50
108.836845257
 51
109.796874094
  0
ARC
  5
3CD
330
224
100
AcDbEntity
  8
02___PRT_ALL_AXES
  6
Continuous
 62
     7
100
AcDbCircle
 10
356.0472503399
 20
136.1498625728
 30
0.0
 40
2.9264557514
100
AcDbArc
 50
109.764148926
 51
113.0284585932
  0
ARC
  5
3CE
330
224
100
AcDbEntity
  8
02___PRT_ALL_AXES
  6
Continuous
 62
     7
100
AcDbCircle
 10
359.5709909191
 20
139.0595752463
 30
0.0
 40
0.951081965
100
AcDbArc
 50
21.152728531
 51
26.6051118086
  0
ARC
  5
3CF
330
224
100
AcDbEntity
  8
02___PRT_ALL_AXES
  6
Continuous
 62
     7
100
AcDbCircle
 10
359.6495201139
 20
139.0901901034
 30
0.0
 40
0.8667964178
100
AcDbArc
 50
15.3209493058
 51
21.1385557075
  0
ARC
  5
3D0
330
224
100
AcDbEntity
  8
02___PRT_ALL_AXES
  6
Continuous
 62
     7
100
AcDbCircle
 10
353.7976384941
 20
139.6985737014
 30
0.0
 40
0.7735803535
100
AcDbArc
 50
178.9666967244
 51
191.6214028303
  0
ARC
  5
3D1
330
224
100
AcDbEntity
  8
02___PRT_ALL_AXES
  6
Continuous
 62
     7
100
AcDbCircle
 10
329.6069098247
 20
196.856087595
 30
0.0
 40
77.5160296347
100
AcDbArc
 50
280.2691459142
 51
283.0124918111999
  0
ARC
  5
3D2
330
224
100
AcDbEntity
  8
7_ALL_FEATURES
  6
Continuous
 62
     7
100
AcDbCircle
 10
329.831313526
 20
196.4957754268
 30
0.0
 40
76.4643969167
100
AcDbArc
 50
280.6210941593
 51
283.3995715796
  0
ARC
  5
3D3
330
224
100
AcDbEntity
  8
02___PRT_ALL_AXES
  6
Continuous
 62
     7
100
AcDbCircle
 10
330.7022671845
 20
191.9149017687
 30
0.0
 40
72.4551082432
100
AcDbArc
 50
283.0483495175
 51
283.3058959597
  0
ARC
  5
3D4
330
224
100
AcDbEntity
  8
02___PRT_ALL_AXES
  6
Continuous
 62
     7
100
AcDbCircle
 10
330.9928151172
 20
190.6917126637
 30
0.0
 40
71.1978858506
100
AcDbArc
 50
283.3049049995
 51
283.8973195326
  0
ARC
  5
3D5
330
224
100
AcDbEntity
  8
7_ALL_FEATURES
  6
Continuous
 62
     7
100
AcDbCircle
 10
333.2970072393
 20
177.4449126124
 30
0.0
 40
53.5634337634
100
AcDbArc
 50
286.6943637317
 51
289.3451026139
  0
ARC
  5
3D6
330
224
100
AcDbEntity
  8
7_ALL_FEATURES
  6
Continuous
 62
     7
100
AcDbCircle
 10
334.7067301028
 20
173.3216653689
 30
0.0
 40
49.206015136
100
AcDbArc
 50
289.3867009197
 51
289.7999854626
  0
ARC
  5
3D7
330
224
100
AcDbEntity
  8
7_ALL_FEATURES
  6
Continuous
 62
     7
100
AcDbCircle
 10
327.2620845537
 20
154.5977865193
 30
0.0
 40
45.5179177087
100
AcDbArc
 50
279.8955940801
 51
281.5168767794
  0
ARC
  5
3D8
330
224
100
AcDbEntity
  8
7_ALL_FEATURES
  6
Continuous
 62
     7
100
AcDbCircle
 10
327.498664001
 20
153.4218170956
 30
0.0
 40
44.3183907865
100
AcDbArc
 50
281.5207214724999
 51
281.6559185291
  0
ARC
  5
3D9
330
224
100
AcDbEntity
  8
7_ALL_FEATURES
  6
Continuous
 62
     7
100
AcDbCircle
 10
327.6262220574
 20
152.8078918511
 30
0.0
 40
43.6913545412
100
AcDbArc
 50
281.6547462383
 51
282.2778511711
  0
SPLINE
  5
3DA
330
224
100
AcDbEntity
  8
02___PRT_ALL_AXES
  6
Continuous
 62
     7
100
AcDbSpline
210
0.0
220
0.0
230
1.0
 70
     8
 71
     3
 72
    11
 73
     7
 74
     0
 42
0.000000001
 43
0.0000001
 40
0.0
 40
0.0
 40
0.0
 40
0.0
 40
0.2966417642
 40
0.5690549749
 40
0.8041883655
 40
1.0
 40
1.0
 40
1.0
 40
1.0
 10
94.2275495335
 20
183.2790095678667
 30
0.0
 10
94.2275495335
 20
183.1214799641333
 30
0.0
 10
94.21549786949998
 20
182.8191352762667
 30
0.0
 10
94.16362449976666
 20
182.3947281856
 30
0.0
 10
94.08566915456666
 20
182.0289338877334
 30
0.0
 10
94.0155976035
 20
181.8104829166667
 30
0.0
 10
93.97736155723334
 20
181.7137835394667
 30
0.0
  0
SPLINE
  5
3DB
330
224
100
AcDbEntity
  8
02___PRT_ALL_AXES
  6
Continuous
 62
     7
100
AcDbSpline
210
0.0
220
0.0
230
1.0
 70
     8
 71
     3
 72
     9
 73
     5
 74
     0
 42
0.000000001
 43
0.0000001
 40
0.0
 40
0.0
 40
0.0
 40
0.0
 40
0.5240182247
 40
1.0
 40
1.0
 40
1.0
 40
1.0
 10
94.65800223949998
 20
184.0225531824
 30
0.0
 10
94.59081643003333
 20
183.8927601652
 30
0.0
 10
94.45670062123332
 20
183.6480637737334
 30
0.0
 10
94.30552847856666
 20
183.413151978
 30
0.0
 10
94.2275495335
 20
183.3057145884
 30
0.0
  0
SPLINE
  5
3DC
330
224
100
AcDbEntity
  8
02___PRT_ALL_AXES
  6
Continuous
 62
     7
100
AcDbSpline
210
0.0
220
0.0
230
1.0
 70
     8
 71
     3
 72
     9
 73
     5
 74
     0
 42
0.000000001
 43
0.0000001
 40
0.0
 40
0.0
 40
0.0
 40
0.0
 40
0.5240182247
 40
1.0
 40
1.0
 40
1.0
 40
1.0
 10
75.6969660215
 20
184.0225531824
 30
0.0
 10
75.76415183109998
 20
183.8927601652
 30
0.0
 10
75.89826763989998
 20
183.6480637737334
 30
0.0
 10
76.04943978243332
 20
183.413151978
 30
0.0
 10
76.12741872763331
 20
183.3057145884
 30
0.0
  0
SPLINE
  5
3DD
330
224
100
AcDbEntity
  8
02___PRT_ALL_AXES
  6
Continuous
 62
     7
100
AcDbSpline
210
0.0
220
0.0
230
1.0
 70
     8
 71
     3
 72
    11
 73
     7
 74
     0
 42
0.000000001
 43
0.0000001
 40
0.0
 40
0.0
 40
0.0
 40
0.0
 40
0.2966417642
 40
0.5690549749
 40
0.8041883655
 40
1.0
 40
1.0
 40
1.0
 40
1.0
 10
76.12741872763331
 20
183.2790095678667
 30
0.0
 10
76.12741872763331
 20
183.1214799641333
 30
0.0
 10
76.13947039163332
 20
182.8191352762667
 30
0.0
 10
76.19134376136668
 20
182.3947281856
 30
0.0
 10
76.26929910643332
 20
182.0289338877334
 30
0.0
 10
76.33937065750001
 20
181.8104829166667
 30
0.0
 10
76.37760670376667
 20
181.7137835394667
 30
0.0
  0
SPLINE
  5
3DE
330
224
100
AcDbEntity
  8
02___PRT_ALL_AXES
  6
Continuous
 62
     7
100
AcDbSpline
210
0.0
220
0.0
230
1.0
 70
     8
 71
     3
 72
     9
 73
     5
 74
     0
 42
0.000000001
 43
0.0000001
 40
0.0
 40
0.0
 40
0.0
 40
0.0
 40
0.2503519107
 40
1.0
 40
1.0
 40
1.0
 40
1.0
 10
78.2372631927
 20
184.0225531824
 30
0.0
 10
78.36767820896665
 20
183.9550454024
 30
0.0
 10
78.89194724043332
 20
183.6920075373334
 30
0.0
 10
79.43121871603333
 20
183.458004516
 30
0.0
 10
79.84373456203332
 20
183.3057145884
 30
0.0
  0
SPLINE
  5
3DF
330
224
100
AcDbEntity
  8
02___PRT_ALL_AXES
  6
Continuous
 62
     7
100
AcDbSpline
210
0.0
220
0.0
230
1.0
 70
     8
 71
     3
 72
    21
 73
    17
 74
     0
 42
0.000000001
 43
0.0000001
 40
0.0
 40
0.0
 40
0.0
 40
0.0
 40
0.0757978139
 40
0.1477199372
 40
0.2143827427
 40
0.2763840284
 40
0.3349392434
 40
0.3911975693
 40
0.5000056115
 40
0.6088138995
 40
0.6650727281
 40
0.7236285732
 40
0.7856285468
 40
0.8522892775
 40
0.9242080782
 40
1.0
 40
1.0
 40
1.0
 40
1.0
 10
88.89379996496666
 20
183.2790095678667
 30
0.0
 10
88.89379996496666
 20
183.1015407173333
 30
0.0
 10
88.93711105176666
 20
182.7540949761334
 30
0.0
 10
89.11932521376667
 20
182.2815117328
 30
0.0
 10
89.38607305923333
 20
181.8902276442667
 30
0.0
 10
89.70598636043331
 20
181.5862305636
 30
0.0
 10
90.0573048075
 20
181.362743278
 30
0.0
 10
90.54337261763334
 20
181.1624088553333
 30
0.0
 10
91.18793230283333
 20
181.0642316134667
 30
0.0
 10
91.83248969443332
 20
181.1624319741333
 30
0.0
 10
92.31855343403333
 20
181.3627842894666
 30
0.0
 10
92.66986511829998
 20
181.5862818445334
 30
0.0
 10
92.98976042856665
 20
181.8902885896
 30
0.0
 10
93.25648577976665
 20
182.2815682592
 30
0.0
 10
93.43867904976668
 20
182.7541306456
 30
0.0
 10
93.4819835763
 20
183.1015545129333
 30
0.0
 10
93.4819835763
 20
183.2790095678667
 30
0.0
  0
SPLINE
  5
3E0
330
224
100
AcDbEntity
  8
02___PRT_ALL_AXES
  6
Continuous
 62
     7
100
AcDbSpline
210
0.0
220
0.0
230
1.0
 70
     8
 71
     3
 72
     9
 73
     5
 74
     0
 42
0.000000001
 43
0.0000001
 40
0.0
 40
0.0
 40
0.0
 40
0.0
 40
0.4759818969
 40
1.0
 40
1.0
 40
1.0
 40
1.0
 10
77.80681048656666
 20
183.3057145884
 30
0.0
 10
77.88478945163334
 20
183.4131520054667
 30
0.0
 10
78.0359615971
 20
183.6480637997334
 30
0.0
 10
78.17007739869999
 20
183.8927601953334
 30
0.0
 10
78.2372631927
 20
184.0225531824
 30
0.0
  0
SPLINE
  5
3E1
330
224
100
AcDbEntity
  8
02___PRT_ALL_AXES
  6
Continuous
 62
     7
100
AcDbSpline
210
0.0
220
0.0
230
1.0
 70
     8
 71
     3
 72
     9
 73
     5
 74
     0
 42
0.000000001
 43
0.0000001
 40
0.0
 40
0.0
 40
0.0
 40
0.0
 40
0.2535842523
 40
1.0
 40
1.0
 40
1.0
 40
1.0
 10
87.71778130163332
 20
184.0225531824
 30
0.0
 10
87.81288153576668
 20
183.955307162
 30
0.0
 10
88.19168842056666
 20
183.695635458
 30
0.0
 10
88.58768698509999
 20
183.4600874893333
 30
0.0
 10
88.89379996496666
 20
183.3057145884
 30
0.0
  0
SPLINE
  5
3E2
330
224
100
AcDbEntity
  8
02___PRT_ALL_AXES
  6
Continuous
 62
     7
100
AcDbSpline
210
0.0
220
0.0
230
1.0
 70
     8
 71
     3
 72
    22
 73
    18
 74
     0
 42
0.000000001
 43
0.0000001
 40
0.0
 40
0.0
 40
0.0
 40
0.0
 40
0.0666700745
 40
0.1222050592
 40
0.1684950687
 40
0.207582743
 40
0.2417963325
 40
0.2738751254
 40
0.3068349149
 40
0.3435677081
 40
0.3865707126
 40
0.4379875692
 40
0.499762231
 40
0.5737022184
 40
0.6613023932
 40
0.7631493848
 40
1.0
 40
1.0
 40
1.0
 40
1.0
 10
76.37760670376667
 20
181.7137835394667
 30
0.0
 10
76.40525361283335
 20
181.6438642056
 30
0.0
 10
76.46215557936665
 20
181.5179513602667
 30
0.0
 10
76.56219299163334
 20
181.3556706009333
 30
0.0
 10
76.6666962775
 20
181.2348123189334
 30
0.0
 10
76.77487832896668
 20
181.1522664070667
 30
0.0
 10
76.88646662323333
 20
181.1066845225334
 30
0.0
 10
77.00014000683333
 20
181.0986971706667
 30
0.0
 10
77.11288445083335
 20
181.1286273314667
 30
0.0
 10
77.2225397615
 20
181.1956169462667
 30
0.0
 10
77.32863524843333
 20
181.3000808713333
 30
0.0
 10
77.43070012869998
 20
181.4445227625334
 30
0.0
 10
77.52745547803335
 20
181.6326903444
 30
0.0
 10
77.61660329936666
 20
181.8687006252
 30
0.0
 10
77.69468035029999
 20
182.15571288
 30
0.0
 10
77.78170600563334
 20
182.6289156417334
 30
0.0
 10
77.80681048656666
 20
183.0119023898667
 30
0.0
 10
77.80681048656666
 20
183.2790095678667
 30
0.0
  0
SPLINE
  5
3E3
330
224
100
AcDbEntity
  8
02___PRT_ALL_AXES
  6
Continuous
 62
     7
100
AcDbSpline
210
0.0
220
0.0
230
1.0
 70
     8
 71
     3
 72
     9
 73
     5
 74
     0
 42
0.000000001
 43
0.0000001
 40
0.0
 40
0.0
 40
0.0
 40
0.0
 40
0.2464701132
 40
1.0
 40
1.0
 40
1.0
 40
1.0
 10
93.4819835763
 20
183.3057145884
 30
0.0
 10
93.58307117710001
 20
183.3566931068
 30
0.0
 10
93.98840795496665
 20
183.5730575458666
 30
0.0
 10
94.37538902763333
 20
183.8227154637333
 30
0.0
 10
94.65800223949998
 20
184.0225531824
 30
0.0
  0
SPLINE
  5
3E4
330
224
100
AcDbEntity
  8
02___PRT_ALL_AXES
  6
Continuous
 62
     7
100
AcDbSpline
210
0.0
220
0.0
230
1.0
 70
     8
 71
     3
 72
     9
 73
     5
 74
     0
 42
0.000000001
 43
0.0000001
 40
0.0
 40
0.0
 40
0.0
 40
0.0
 40
0.2497571678
 40
1.0
 40
1.0
 40
1.0
 40
1.0
 10
86.1113099323
 20
183.3057145884
 30
0.0
 10
86.24875252696665
 20
183.3564547550667
 30
0.0
 10
86.79526027656667
 20
183.569887196
 30
0.0
 10
87.32694154749998
 20
183.8202396385334
 30
0.0
 10
87.71778130163332
 20
184.0225531824
 30
0.0
  0
SPLINE
  5
3E5
330
224
100
AcDbEntity
  8
02___PRT_ALL_AXES
  6
Continuous
 62
     7
100
AcDbSpline
210
0.0
220
0.0
230
1.0
 70
     8
 71
     3
 72
    19
 73
    15
 74
     0
 42
0.000000001
 43
0.0000001
 40
0.0
 40
0.0
 40
0.0
 40
0.0
 40
0.0637445686
 40
0.1271127482
 40
0.1899898845
 40
0.2524574515
 40
0.3763216056
 40
0.4998556008
 40
0.6234243596
 40
0.7473509561
 40
0.8098660446
 40
0.8727998324
 40
0.9362155993
 40
1.0
 40
1.0
 40
1.0
 40
1.0
 10
79.84373456203332
 20
183.2790095678667
 30
0.0
 10
79.84373456203332
 20
183.1004367924
 30
0.0
 10
79.90646665136666
 20
182.7416910816
 30
0.0
 10
80.16249129216666
 20
182.2667887041333
 30
0.0
 10
80.5293498787
 20
181.879235506
 30
0.0
 10
81.1078478007
 20
181.4816275650667
 30
0.0
 10
81.93542119803334
 20
181.1785782106667
 30
0.0
 10
82.9763873283
 20
181.0657503228
 30
0.0
 10
84.01759755163334
 20
181.1780513416
 30
0.0
 10
84.84568873176667
 20
181.480868354
 30
0.0
 10
85.4247913659
 20
181.8784276536
 30
0.0
 10
85.7921025151
 20
182.2661500406667
 30
0.0
 10
86.04848866816667
 20
182.7413287649333
 30
0.0
 10
86.1113099323
 20
183.1003252076
 30
0.0
 10
86.1113099323
 20
183.2790095678667
 30
0.0
  0
SPLINE
  5
3E6
330
224
100
AcDbEntity
  8
02___PRT_ALL_AXES
  6
Continuous
 62
     7
100
AcDbSpline
210
0.0
220
0.0
230
1.0
 70
     8
 71
     3
 72
    11
 73
     7
 74
     0
 42
0.000000001
 43
0.0000001
 40
0.0
 40
0.0
 40
0.0
 40
0.0
 40
0.1965153749
 40
0.431970596
 40
0.7041013179
 40
1.0
 40
1.0
 40
1.0
 40
1.0
 10
265.1460747537666
 20
181.7233948772
 30
0.0
 10
265.1837711699
 20
181.8199820334667
 30
0.0
 10
265.2528217371
 20
182.0377524032
 30
0.0
 10
265.3296003383
 20
182.4017117138667
 30
0.0
 10
265.3806374203
 20
182.8230477586667
 30
0.0
 10
265.3924805225666
 20
183.1228916610667
 30
0.0
 10
265.3924805225666
 20
183.2790095678667
 30
0.0
  0
SPLINE
  5
3E7
330
224
100
AcDbEntity
  8
02___PRT_ALL_AXES
  6
Continuous
 62
     7
100
AcDbSpline
210
0.0
220
0.0
230
1.0
 70
     8
 71
     3
 72
    11
 73
     7
 74
     0
 42
0.000000001
 43
0.0000001
 40
0.0
 40
0.0
 40
0.0
 40
0.0
 40
0.1965153749
 40
0.431970596
 40
0.7041013179
 40
1.0
 40
1.0
 40
1.0
 40
1.0
 10
247.5387554855
 20
181.7233948772
 30
0.0
 10
247.5010590693666
 20
181.8199820334667
 30
0.0
 10
247.4320085020333
 20
182.0377524032
 30
0.0
 10
247.3552299009667
 20
182.4017117138667
 30
0.0
 10
247.3041928189667
 20
182.8230477586667
 30
0.0
 10
247.2923497167
 20
183.1228916610667
 30
0.0
 10
247.2923497167
 20
183.2790095678667
 30
0.0
  0
SPLINE
  5
3E8
330
224
100
AcDbEntity
  8
02___PRT_ALL_AXES
  6
Continuous
 62
     7
100
AcDbSpline
210
0.0
220
0.0
230
1.0
 70
     8
 71
     3
 72
     9
 73
     5
 74
     0
 42
0.000000001
 43
0.0000001
 40
0.0
 40
0.0
 40
0.0
 40
0.0
 40
0.4759818969
 40
1.0
 40
1.0
 40
1.0
 40
1.0
 10
265.3924805225666
 20
183.3057145884
 30
0.0
 10
265.4704594876333
 20
183.4131520054667
 30
0.0
 10
265.6216316331
 20
183.6480637997334
 30
0.0
 10
265.7557474347
 20
183.8927601953334
 30
0.0
 10
265.8229332287
 20
184.0225531824
 30
0.0
  0
SPLINE
  5
3E9
330
224
100
AcDbEntity
  8
02___PRT_ALL_AXES
  6
Continuous
 62
     7
100
AcDbSpline
210
0.0
220
0.0
230
1.0
 70
     8
 71
     3
 72
     9
 73
     5
 74
     0
 42
0.000000001
 43
0.0000001
 40
0.0
 40
0.0
 40
0.0
 40
0.0
 40
0.4759818969
 40
1.0
 40
1.0
 40
1.0
 40
1.0
 10
247.2923497167
 20
183.3057145884
 30
0.0
 10
247.2143707516333
 20
183.4131520054667
 30
0.0
 10
247.0631986061666
 20
183.6480637997334
 30
0.0
 10
246.9290828045667
 20
183.8927601953334
 30
0.0
 10
246.8618970105667
 20
184.0225531824
 30
0.0
  0
SPLINE
  5
3EA
330
224
100
AcDbEntity
  8
02___PRT_ALL_AXES
  6
Continuous
 62
     7
100
AcDbSpline
210
0.0
220
0.0
230
1.0
 70
     8
 71
     3
 72
     9
 73
     5
 74
     0
 42
0.000000001
 43
0.0000001
 40
0.0
 40
0.0
 40
0.0
 40
0.0
 40
0.5240182247
 40
1.0
 40
1.0
 40
1.0
 40
1.0
 10
263.2826360575
 20
184.0225531824
 30
0.0
 10
263.3498218671
 20
183.8927601652
 30
0.0
 10
263.4839376759
 20
183.6480637737334
 30
0.0
 10
263.6351098184333
 20
183.413151978
 30
0.0
 10
263.7130887636333
 20
183.3057145884
 30
0.0
  0
SPLINE
  5
3EB
330
224
100
AcDbEntity
  8
02___PRT_ALL_AXES
  6
Continuous
 62
     7
100
AcDbSpline
210
0.0
220
0.0
230
1.0
 70
     8
 71
     3
 72
     9
 73
     5
 74
     0
 42
0.000000001
 43
0.0000001
 40
0.0
 40
0.0
 40
0.0
 40
0.0
 40
0.2503519107
 40
1.0
 40
1.0
 40
1.0
 40
1.0
 10
253.8021179484333
 20
184.0225531824
 30
0.0
 10
253.9325329648333
 20
183.9550454024
 30
0.0
 10
254.4568019961667
 20
183.6920075373334
 30
0.0
 10
254.9960734717666
 20
183.458004516
 30
0.0
 10
255.4085893177667
 20
183.3057145884
 30
0.0
  0
SPLINE
  5
3EC
330
224
100
AcDbEntity
  8
02___PRT_ALL_AXES
  6
Continuous
 62
     7
100
AcDbSpline
210
0.0
220
0.0
230
1.0
 70
     8
 71
     3
 72
     9
 73
     5
 74
     0
 42
0.000000001
 43
0.0000001
 40
0.0
 40
0.0
 40
0.0
 40
0.0
 40
0.2497571678
 40
1.0
 40
1.0
 40
1.0
 40
1.0
 10
261.6761646881666
 20
183.3057145884
 30
0.0
 10
261.8136072827
 20
183.3564547550667
 30
0.0
 10
262.3601150324333
 20
183.569887196
 30
0.0
 10
262.8917963033667
 20
183.8202396385334
 30
0.0
 10
263.2826360575
 20
184.0225531824
 30
0.0
  0
SPLINE
  5
3ED
330
224
100
AcDbEntity
  8
02___PRT_ALL_AXES
  6
Continuous
 62
     7
100
AcDbSpline
210
0.0
220
0.0
230
1.0
 70
     8
 71
     3
 72
    20
 73
    16
 74
     0
 42
0.000000001
 43
0.0000001
 40
0.0
 40
0.0
 40
0.0
 40
0.0
 40
0.0320135405
 40
0.0639703746
 40
0.1273407445
 40
0.1902217611
 40
0.2526934217
 40
0.3765655995
 40
0.5001025754
 40
0.6236356537
 40
0.7475089911
 40
0.8099832605
 40
0.8728683607
 40
0.9362454255
 40
1.0
 40
1.0
 40
1.0
 40
1.0
 10
255.4085893177667
 20
183.2790095678667
 30
0.0
 10
255.4085893177667
 20
183.1893073224
 30
0.0
 10
255.4241060785666
 20
183.0096728969334
 30
0.0
 10
255.5142199492333
 20
182.6629964448
 30
0.0
 10
255.7274992207
 20
182.2662507405334
 30
0.0
 10
256.0945241793667
 20
181.8790305390667
 30
0.0
 10
256.6732633693667
 20
181.4812911553334
 30
0.0
 10
257.5011224037667
 20
181.1783804893334
 30
0.0
 10
258.5422834603
 20
181.0657355805334
 30
0.0
 10
259.5834510120333
 20
181.1783257812
 30
0.0
 10
260.4113248393667
 20
181.4812514208
 30
0.0
 10
260.9901053109667
 20
181.8788458950667
 30
0.0
 10
261.3571816337666
 20
182.2664517257333
 30
0.0
 10
261.6133827309666
 20
182.7414876170667
 30
0.0
 10
261.6761646881666
 20
183.1003686428
 30
0.0
 10
261.6761646881666
 20
183.2790095678667
 30
0.0
  0
SPLINE
  5
3EE
330
224
100
AcDbEntity
  8
02___PRT_ALL_AXES
  6
Continuous
 62
     7
100
AcDbSpline
210
0.0
220
0.0
230
1.0
 70
     8
 71
     3
 72
     9
 73
     5
 74
     0
 42
0.000000001
 43
0.0000001
 40
0.0
 40
0.0
 40
0.0
 40
0.0
 40
0.2535842523
 40
1.0
 40
1.0
 40
1.0
 40
1.0
 10
246.8618970105667
 20
184.0225531824
 30
0.0
 10
246.9569972447
 20
183.955307162
 30
0.0
 10
247.3358041295
 20
183.695635458
 30
0.0
 10
247.7318026940333
 20
183.4600874893333
 30
0.0
 10
248.0379156739
 20
183.3057145884
 30
0.0
  0
SPLINE
  5
3EF
330
224
100
AcDbEntity
  8
02___PRT_ALL_AXES
  6
Continuous
 62
     7
100
AcDbSpline
210
0.0
220
0.0
230
1.0
 70
     8
 71
     3
 72
     9
 73
     5
 74
     0
 42
0.000000001
 43
0.0000001
 40
0.0
 40
0.0
 40
0.0
 40
0.0
 40
0.2464701132
 40
1.0
 40
1.0
 40
1.0
 40
1.0
 10
252.6260992852334
 20
183.3057145884
 30
0.0
 10
252.7271868860333
 20
183.3566931068
 30
0.0
 10
253.1325236639
 20
183.5730575458666
 30
0.0
 10
253.5195047364333
 20
183.8227154637333
 30
0.0
 10
253.8021179484333
 20
184.0225531824
 30
0.0
  0
SPLINE
  5
3F0
330
224
100
AcDbEntity
  8
02___PRT_ALL_AXES
  6
Continuous
 62
     7
100
AcDbSpline
210
0.0
220
0.0
230
1.0
 70
     8
 71
     3
 72
    21
 73
    17
 74
     0
 42
0.000000001
 43
0.0000001
 40
0.0
 40
0.0
 40
0.0
 40
0.0
 40
0.0757978139
 40
0.1477199372
 40
0.2143827427
 40
0.2763840284
 40
0.3349392434
 40
0.3911975693
 40
0.5000056115
 40
0.6088138995
 40
0.6650727281
 40
0.7236285732
 40
0.7856285468
 40
0.8522892775
 40
0.9242080782
 40
1.0
 40
1.0
 40
1.0
 40
1.0
 10
248.0379156739
 20
183.2790095678667
 30
0.0
 10
248.0379156739
 20
183.1015407173333
 30
0.0
 10
248.0812267607
 20
182.7540949761334
 30
0.0
 10
248.2634409227
 20
182.2815117328
 30
0.0
 10
248.5301887681666
 20
181.8902276442667
 30
0.0
 10
248.8501020693666
 20
181.5862305636
 30
0.0
 10
249.2014205164333
 20
181.362743278
 30
0.0
 10
249.6874883265667
 20
181.1624088553333
 30
0.0
 10
250.3320480117666
 20
181.0642316134667
 30
0.0
 10
250.9766054033666
 20
181.1624319741333
 30
0.0
 10
251.4626691429667
 20
181.3627842894666
 30
0.0
 10
251.8139808272333
 20
181.5862818445334
 30
0.0
 10
252.1338761375
 20
181.8902885896
 30
0.0
 10
252.4006014887
 20
182.2815682592
 30
0.0
 10
252.5827947587
 20
182.7541306456
 30
0.0
 10
252.6260992852334
 20
183.1015545129333
 30
0.0
 10
252.6260992852334
 20
183.2790095678667
 30
0.0
  0
SPLINE
  5
3F1
330
224
100
AcDbEntity
  8
02___PRT_ALL_AXES
  6
Continuous
 62
     7
100
AcDbSpline
210
0.0
220
0.0
230
1.0
 70
     8
 71
     3
 72
    22
 73
    18
 74
     0
 42
0.000000001
 43
0.0000001
 40
0.0
 40
0.0
 40
0.0
 40
0.0
 40
0.2366441222
 40
0.3383397042
 40
0.4257643556
 40
0.4995186534
 40
0.5611073128
 40
0.6123474549
 40
0.6551931783
 40
0.691801998
 40
0.7246917625
 40
0.7567756055
 40
0.7910814255
 40
0.8303520388
 40
0.8769240975
 40
0.9328352486
 40
1.0
 40
1.0
 40
1.0
 40
1.0
 10
263.7130887636333
 20
183.2790095678667
 30
0.0
 10
263.7130887636333
 20
183.0113219164
 30
0.0
 10
263.7382925108333
 20
182.6275676882667
 30
0.0
 10
263.8256880893667
 20
182.1535536526667
 30
0.0
 10
263.9040562297666
 20
181.8662801342666
 30
0.0
 10
263.9935124128334
 20
181.6302234561333
 30
0.0
 10
264.0905828096333
 20
181.4421861913334
 30
0.0
 10
264.1929665467
 20
181.29802306
 30
0.0
 10
264.2993950187
 20
181.1939745745333
 30
0.0
 10
264.4094121977666
 20
181.1275607156
 30
0.0
 10
264.5225219375
 20
181.0983997409333
 30
0.0
 10
264.6365105133667
 20
181.1073883902667
 30
0.0
 10
264.7483294964333
 20
181.1541847726667
 30
0.0
 10
264.8567519307
 20
181.2381217954667
 30
0.0
 10
264.9613962252333
 20
181.3607536874667
 30
0.0
 10
265.0615691571
 20
181.5251543490667
 30
0.0
 10
265.1184519431
 20
181.6526186865333
 30
0.0
 10
265.1460747537666
 20
181.7233948772
 30
0.0
  0
SPLINE
  5
3F2
330
224
100
AcDbEntity
  8
02___PRT_ALL_AXES
  6
Continuous
 62
     7
100
AcDbSpline
 70
     0
 71
     3
 72
    13
 73
     9
 74
     0
 42
0.000000001
 43
0.0000001
 40
0.0
 40
0.0
 40
0.0
 40
0.0
 40
0.3446113351
 40
0.6262211466
 40
0.743209008
 40
0.8446661401
 40
0.9304531066
 40
1.0
 40
1.0
 40
1.0
 40
1.0
 10
317.8810608145
 20
96.834779106
 30
0.0
 10
317.9036260754
 20
96.6066515818
 30
0.0
 10
317.95985448
 20
96.1934703286
 30
0.0
 10
318.0607774799
 20
95.7089623831
 30
0.0
 10
318.1497046549
 20
95.3883241742
 30
0.0
 10
318.2134321922
 20
95.196106789
 30
0.0
 10
318.2774806396
 20
95.0376525337
 30
0.0
 10
318.3248535278
 20
94.9454376566
 30
0.0
 10
318.3495433573
 20
94.9063129822
 30
0.0
  0
SPLINE
  5
3F3
330
224
100
AcDbEntity
  8
02___PRT_ALL_AXES
  6
Continuous
 62
     7
100
AcDbSpline
 70
     0
 71
     3
 72
    11
 73
     7
 74
     0
 42
0.000000001
 43
0.0000001
 40
0.0
 40
0.0
 40
0.0
 40
0.0
 40
0.2521230835
 40
0.5020892124
 40
0.7506889808
 40
1.0
 40
1.0
 40
1.0
 40
1.0
 10
318.3494565616
 20
94.9064813752
 30
0.0
 10
318.4635274197
 20
94.725750339
 30
0.0
 10
318.717974842
 20
94.382354903
 30
0.0
 10
319.165420648
 20
93.927407146
 30
0.0
 10
319.6643395451
 20
93.5338779399
 30
0.0
 10
320.0239172901
 20
93.3111215975
 30
0.0
 10
320.2088591596
 20
93.208851562
 30
0.0
  0
SPLINE
  5
3F4
330
224
100
AcDbEntity
  8
02___PRT_ALL_AXES
  6
Continuous
 62
     7
100
AcDbSpline
 70
     0
 71
     3
 72
    20
 73
    16
 74
     0
 42
0.000000001
 43
0.0000001
 40
0.0
 40
0.0
 40
0.0
 40
0.0
 40
0.1220854027
 40
0.1853660101
 40
0.2501064736
 40
0.3818976295
 40
0.5124347551
 40
0.5758487378
 40
0.6377170391
 40
0.6982684232
 40
0.7580482209
 40
0.8177285973
 40
0.8778391242
 40
0.9386104824
 40
1.0
 40
1.0
 40
1.0
 40
1.0
 10
320.2088591596
 20
93.208851562
 30
0.0
 10
320.6544302641
 20
92.9624575314
 30
0.0
 10
321.3770711643
 20
92.6682610309
 30
0.0
 10
322.3873843993
 20
92.4069652495
 30
0.0
 10
323.4561687914
 20
92.2216241642
 30
0.0
 10
324.8229706616
 20
92.1425395779
 30
0.0
 10
326.1820501048
 20
92.2598409149
 30
0.0
 10
327.2271255656
 20
92.4801590062
 30
0.0
 10
327.969278018
 20
92.707554751
 30
0.0
 10
328.6709214439
 20
93.0030799642
 30
0.0
 10
329.3259237836
 20
93.3739295424
 30
0.0
 10
329.9242555855
 20
93.8285825879
 30
0.0
 10
330.4494945968
 20
94.3728873882
 30
0.0
 10
330.8790889234
 20
95.0046230602
 30
0.0
 10
331.0850704702
 20
95.4745583942
 30
0.0
 10
331.1648539092
 20
95.7178361218
 30
0.0
  0
SPLINE
  5
3F5
330
224
100
AcDbEntity
  8
02___PRT_ALL_AXES
  6
Continuous
 62
     7
100
AcDbSpline
 70
     0
 71
     3
 72
     9
 73
     5
 74
     0
 42
0.000000001
 43
0.0000001
 40
0.0
 40
0.0
 40
0.0
 40
0.0
 40
0.5732865721
 40
1.0
 40
1.0
 40
1.0
 40
1.0
 10
331.2220704525
 20
96.0384774836
 30
0.0
 10
331.2163875348
 20
95.976370797
 30
0.0
 10
331.2031582197
 20
95.8683164868
 30
0.0
 10
331.1792852036
 20
95.7617580596
 30
0.0
 10
331.1648035835
 20
95.7176538478
 30
0.0
  0
SPLINE
  5
3F6
330
224
100
AcDbEntity
  8
02___PRT_ALL_AXES
  6
Continuous
 62
     7
100
AcDbSpline
 70
     0
 71
     3
 72
     9
 73
     5
 74
     0
 42
0.000000001
 43
0.0000001
 40
0.0
 40
0.0
 40
0.0
 40
0.0
 40
0.2469425094
 40
1.0
 40
1.0
 40
1.0
 40
1.0
 10
330.4943380195
 20
95.4346899398
 30
0.0
 10
330.5772467376
 20
95.4984521462
 30
0.0
 10
330.909183284
 20
95.7616050943
 30
0.0
 10
331.2271928173
 20
96.0420285986
 30
0.0
 10
331.4605554788
 20
96.2594559926
 30
0.0
  0
SPLINE
  5
3F7
330
224
100
AcDbEntity
  8
02___PRT_ALL_AXES
  6
Continuous
 62
     7
100
AcDbSpline
 70
     0
 71
     3
 72
     9
 73
     5
 74
     0
 42
0.000000001
 43
0.0000001
 40
0.0
 40
0.0
 40
0.0
 40
0.0
 40
0.5310548618
 40
1.0
 40
1.0
 40
1.0
 40
1.0
 10
318.6784347997
 20
95.5455374921
 30
0.0
 10
318.7129020009
 20
95.5210120846
 30
0.0
 10
318.784383143
 20
95.4826222004
 30
0.0
 10
318.8647228017
 20
95.4701759159
 30
0.0
 10
318.9020764093
 20
95.4704753557
 30
0.0
  0
SPLINE
  5
3F8
330
224
100
AcDbEntity
  8
02___PRT_ALL_AXES
  6
Continuous
 62
     9
100
AcDbSpline
 70
     0
 71
     3
 72
     9
 73
     5
 74
     0
 42
0.000000001
 43
0.0000001
 40
0.0
 40
0.0
 40
0.0
 40
0.0
 40
0.2619042058
 40
1.0
 40
1.0
 40
1.0
 40
1.0
 10
319.3048043288
 20
95.1208122799
 30
0.0
 10
319.247691134
 20
95.1523950063
 30
0.0
 10
319.0316391665
 20
95.2765408022
 30
0.0
 10
318.8238409772
 20
95.4154652694
 30
0.0
 10
318.6780865323
 20
95.5276459749
 30
0.0
  0
SPLINE
  5
3F9
330
224
100
AcDbEntity
  8
02___PRT_ALL_AXES
  6
Continuous
 62
     7
100
AcDbSpline
 70
     0
 71
     3
 72
    19
 73
    15
 74
     0
 42
0.000000001
 43
0.0000001
 40
0.0
 40
0.0
 40
0.0
 40
0.0
 40
0.0913926781
 40
0.1281744488
 40
0.1595539538
 40
0.1868653469
 40
0.2127971231
 40
0.2752853246
 40
0.3193932441
 40
0.37492355
 40
0.4434478734
 40
0.5261066841
 40
0.7355541771
 40
1.0
 40
1.0
 40
1.0
 40
1.0
 10
318.3495433573
 20
94.9063129822
 30
0.0
 10
318.365645583
 20
94.8807966319
 30
0.0
 10
318.390320046
 20
94.8459445791
 30
0.0
 10
318.4288330569
 20
94.8097287261
 30
0.0
 10
318.4556418417
 20
94.7926593882
 30
0.0
 10
318.4829243041
 20
94.784554293
 30
0.0
 10
318.5221097516
 20
94.7887428794
 30
0.0
 10
318.5565262876
 20
94.8213442696
 30
0.0
 10
318.5831374066
 20
94.8673486917
 30
0.0
 10
318.6042127908
 20
94.919048431
 30
0.0
 10
318.6232994785
 20
94.9845915598
 30
0.0
 10
318.6479243161
 20
95.1011903427
 30
0.0
 10
318.6693803523
 20
95.2839761619
 30
0.0
 10
318.676387441
 20
95.4403586845
 30
0.0
 10
318.6780865323
 20
95.5276459749
 30
0.0
  0
SPLINE
  5
3FA
330
224
100
AcDbEntity
  8
02___PRT_ALL_AXES
  6
Continuous
 62
     7
100
AcDbSpline
 70
     0
 71
     3
 72
     9
 73
     5
 74
     0
 42
0.000000001
 43
0.0000001
 40
0.0
 40
0.0
 40
0.0
 40
0.0
 40
0.2473338757
 40
1.0
 40
1.0
 40
1.0
 40
1.0
 10
325.8136365281
 20
94.2263639969
 30
0.0
 10
325.8906782924
 20
94.2090488448
 30
0.0
 10
326.2033293128
 20
94.1444803705
 30
0.0
 10
326.5212328782
 20
94.1039659923
 30
0.0
 10
326.7611570133
 20
94.0906117816
 30
0.0
  0
SPLINE
  5
3FB
330
224
100
AcDbEntity
  8
02___PRT_ALL_AXES
  6
Continuous
 62
     7
100
AcDbSpline
 70
     0
 71
     3
 72
    21
 73
    17
 74
     0
 42
0.000000001
 43
0.0000001
 40
0.0
 40
0.0
 40
0.0
 40
0.0
 40
0.0626447603
 40
0.1179685121
 40
0.1694252768
 40
0.2204415098
 40
0.272932365
 40
0.3276692892
 40
0.3848842695
 40
0.4446267969
 40
0.5069190526
 40
0.5718117281
 40
0.709436419
 40
0.782218245
 40
0.8567169624
 40
1.0
 40
1.0
 40
1.0
 40
1.0
 10
326.7608087458
 20
94.0727202645
 30
0.0
 10
326.7586170719
 20
93.9601275613
 30
0.0
 10
326.7847556098
 20
93.7448770053
 30
0.0
 10
326.9309032433
 20
93.4695015862
 30
0.0
 10
327.1509396984
 20
93.2813537555
 30
0.0
 10
327.411424609
 20
93.1732501148
 30
0.0
 10
327.6944662571
 20
93.1290546616
 30
0.0
 10
327.9912284646
 20
93.1370866374
 30
0.0
 10
328.2962186458
 20
93.1898921549
 30
0.0
 10
328.6053978086
 20
93.2830427668
 30
0.0
 10
328.9153983594
 20
93.4144230688
 30
0.0
 10
329.3327725304
 20
93.6445575695
 30
0.0
 10
329.727153577
 20
93.9512869068
 30
0.0
 10
330.0693369187
 20
94.3348785677
 30
0.0
 10
330.3572728551
 20
94.7702219746
 30
0.0
 10
330.4889768875
 20
95.159272902
 30
0.0
 10
330.493989752
 20
95.4167984226
 30
0.0
  0
SPLINE
  5
3FC
330
224
100
AcDbEntity
  8
02___PRT_ALL_AXES
  6
Continuous
 62
     7
100
AcDbSpline
 70
     0
 71
     3
 72
     9
 73
     5
 74
     0
 42
0.000000001
 43
0.0000001
 40
0.0
 40
0.0
 40
0.0
 40
0.0
 40
0.2505902067
 40
1.0
 40
1.0
 40
1.0
 40
1.0
 10
318.9020764093
 20
95.4704753557
 30
0.0
 10
318.9962601263
 20
95.4081411316
 30
0.0
 10
319.3746804154
 20
95.1633493634
 30
0.0
 10
319.7645534917
 20
94.9358719029
 30
0.0
 10
320.063890017
 20
94.7794018701
 30
0.0
  0
SPLINE
  5
3FD
330
224
100
AcDbEntity
  8
02___PRT_ALL_AXES
  6
Continuous
 62
     7
100
AcDbSpline
 70
     0
 71
     3
 72
     9
 73
     5
 74
     0
 42
0.000000001
 43
0.0000001
 40
0.0
 40
0.0
 40
0.0
 40
0.0
 40
0.252029255
 40
1.0
 40
1.0
 40
1.0
 40
1.0
 10
324.6331259462
 20
93.9569192145
 30
0.0
 10
324.7336419357
 20
93.9728225591
 30
0.0
 10
325.1312794137
 20
94.0434060509
 30
0.0
 10
325.5237990425
 20
94.1414456101
 30
0.0
 10
325.8136365281
 20
94.2263639969
 30
0.0
  0
SPLINE
  5
3FE
330
224
100
AcDbEntity
  8
02___PRT_ALL_AXES
  6
Continuous
 62
     7
100
AcDbSpline
 70
     0
 71
     3
 72
    25
 73
    21
 74
     0
 42
0.000000001
 43
0.0000001
 40
0.0
 40
0.0
 40
0.0
 40
0.0
 40
0.0616078488
 40
0.1264284179
 40
0.1929987169
 40
0.2600624228
 40
0.3268955424
 40
0.3931267712
 40
0.458567001
 40
0.5231026945
 40
0.5866363895
 40
0.6490481787
 40
0.710175706
 40
0.7698557189
 40
0.8280001663
 40
0.8848243651
 40
0.9131042762
 40
0.941538392
 40
0.9704231889
 40
1.0
 40
1.0
 40
1.0
 40
1.0
 10
320.0635417496
 20
94.7615103529
 30
0.0
 10
320.0611392602
 20
94.6380874423
 30
0.0
 10
320.1061559145
 20
94.3826473886
 30
0.0
 10
320.2868348614
 20
94.0360653991
 30
0.0
 10
320.5471443022
 20
93.7319490285
 30
0.0
 10
320.8587978373
 20
93.4760182714
 30
0.0
 10
321.202079323
 20
93.2666630563
 30
0.0
 10
321.5643541029
 20
93.1005359127
 30
0.0
 10
321.9374639108
 20
92.9745521687
 30
0.0
 10
322.3157948173
 20
92.8869049311
 30
0.0
 10
322.694887414
 20
92.8374105851
 30
0.0
 10
323.0703659452
 20
92.827808921
 30
0.0
 10
323.4369064599
 20
92.8618728408
 30
0.0
 10
323.7871024988
 20
92.9457667334
 30
0.0
 10
324.1093904447
 20
93.0879442392
 30
0.0
 10
324.3400854193
 20
93.2656986015
 30
0.0
 10
324.4830144064
 20
93.4439912909
 30
0.0
 10
324.5654567345
 20
93.5955475222
 30
0.0
 10
324.6183847091
 20
93.7625259611
 30
0.0
 10
324.6316242872
 20
93.8797745959
 30
0.0
 10
324.6327776788
 20
93.9390276973
 30
0.0
  0
SPLINE
  5
3FF
330
224
100
AcDbEntity
  8
02___PRT_ALL_AXES
  6
Continuous
 62
     7
100
AcDbSpline
 70
     0
 71
     3
 72
     9
 73
     5
 74
     0
 42
0.000000001
 43
0.0000001
 40
0.0
 40
0.0
 40
0.0
 40
0.0
 40
0.5057853295
 40
1.0
 40
1.0
 40
1.0
 40
1.0
 10
324.6331259462
 20
93.9569192145
 30
0.0
 10
324.9928355599
 20
93.9535447005
 30
0.0
 10
325.7044913993
 20
93.9720320528
 30
0.0
 10
326.4130168601
 20
94.0421559276
 30
0.0
 10
326.7611570133
 20
94.0906117816
 30
0.0
  0
SPLINE
  5
400
330
224
100
AcDbEntity
  8
02___PRT_ALL_AXES
  6
Continuous
 62
     7
100
AcDbSpline
 70
     0
 71
     3
 72
     9
 73
     5
 74
     0
 42
0.000000001
 43
0.0000001
 40
0.0
 40
0.0
 40
0.0
 40
0.0
 40
0.4709059469
 40
1.0
 40
1.0
 40
1.0
 40
1.0
 10
318.6784347997
 20
95.5455374921
 30
0.0
 10
318.8758068532
 20
95.3936290119
 30
0.0
 10
319.3240832811
 20
95.1085323915
 30
0.0
 10
319.8046117922
 20
94.8846822894
 30
0.0
 10
320.063890017
 20
94.7794018701
 30
0.0
  0
SPLINE
  5
401
330
224
100
AcDbEntity
  8
02___PRT_ALL_AXES
  6
Continuous
 62
     9
100
AcDbSpline
 70
     0
 71
     3
 72
     9
 73
     5
 74
     0
 42
0.000000001
 43
0.0000001
 40
0.0
 40
0.0
 40
0.0
 40
0.0
 40
0.2400405479
 40
1.0
 40
1.0
 40
1.0
 40
1.0
 10
319.3048043288
 20
95.1208122799
 30
0.0
 10
319.3636075858
 20
95.0882949749
 30
0.0
 10
319.6108613008
 20
94.9569679773
 30
0.0
 10
319.8664338782
 20
94.8415463813
 30
0.0
 10
320.0635417496
 20
94.7615103529
 30
0.0
  0
SPLINE
  5
402
330
224
100
AcDbEntity
  8
02___PRT_ALL_AXES
  6
Continuous
 62
     9
100
AcDbSpline
 70
     0
 71
     3
 72
     9
 73
     5
 74
     0
 42
0.000000001
 43
0.0000001
 40
0.0
 40
0.0
 40
0.0
 40
0.0
 40
0.5057853295
 40
1.0
 40
1.0
 40
1.0
 40
1.0
 10
324.6327776788
 20
93.9390276973
 30
0.0
 10
324.9924872924
 20
93.9356531833
 30
0.0
 10
325.7041431318
 20
93.9541405356
 30
0.0
 10
326.4126685927
 20
94.0242644104
 30
0.0
 10
326.7608087458
 20
94.0727202645
 30
0.0
  0
SPLINE
  5
403
330
224
100
AcDbEntity
  8
7_ALL_FEATURES
  6
Continuous
 62
     7
100
AcDbSpline
 70
     0
 71
     3
 72
     9
 73
     5
 74
     0
 42
0.000000001
 43
0.0000001
 40
0.0
 40
0.0
 40
0.0
 40
0.0
 40
0.531313053
 40
1.0
 40
1.0
 40
1.0
 40
1.0
 10
310.7302192794
 20
149.297271014
 30
0.0
 10
309.7916430366
 20
148.9593501315
 30
0.0
 10
308.0569421167
 20
148.2285465745
 30
0.0
 10
306.4372694671
 20
147.2593771795
 30
0.0
 10
305.7304398718
 20
146.7352170042
 30
0.0
  0
SPLINE
  5
404
330
224
100
AcDbEntity
  8
7_ALL_FEATURES
  6
Continuous
 62
     7
100
AcDbSpline
 70
     0
 71
     3
 72
    17
 73
    13
 74
     0
 42
0.000000001
 43
0.0000001
 40
0.0
 40
0.0
 40
0.0
 40
0.0
 40
0.0464021981
 40
0.0969802077
 40
0.1515744574
 40
0.2098862339
 40
0.335892325
 40
0.4709162104
 40
0.6100156036
 40
0.7479253339
 40
0.8794690913
 40
1.0
 40
1.0
 40
1.0
 40
1.0
 10
345.2700814349
 20
145.9648830158
 30
0.0
 10
344.8381335922
 20
146.3121143801
 30
0.0
 10
343.8890399783
 20
146.9810762089
 30
0.0
 10
342.3100745882
 20
147.8713655306
 30
0.0
 10
340.5316213113
 20
148.6826157058
 30
0.0
 10
337.8526768659
 20
149.6713310098
 30
0.0
 10
334.1503354989
 20
150.6296680418
 30
0.0
 10
329.4136319362
 20
151.3206744873
 30
0.0
 10
324.4898634217
 20
151.5473688961
 30
0.0
 10
319.6084156914
 20
151.2990565324
 30
0.0
 10
314.9970219698
 20
150.5881290904
 30
0.0
 10
312.0846813407
 20
149.7849256116
 30
0.0
 10
310.7302192794
 20
149.297271014
 30
0.0
  0
SPLINE
  5
405
330
224
100
AcDbEntity
  8
7_ALL_FEATURES
  6
Continuous
 62
     7
100
AcDbSpline
 70
     0
 71
     3
 72
    12
 73
     8
 74
     0
 42
0.000000001
 43
0.0000001
 40
0.0
 40
0.0
 40
0.0
 40
0.0
 40
0.2897181134
 40
0.5476921844
 40
0.7806132735
 40
0.891224807
 40
1.0
 40
1.0
 40
1.0
 40
1.0
 10
305.401233863
 20
146.4910300469
 30
0.0
 10
304.9098904992
 20
146.1266488758
 30
0.0
 10
304.0255234546
 20
145.3723420723
 30
0.0
 10
302.9797958934
 20
144.0845105083
 30
0.0
 10
302.4210037949
 20
142.9266598889
 30
0.0
 10
302.1950520515
 20
141.9958655462
 30
0.0
 10
302.1516376161
 20
141.5326896574
 30
0.0
 10
302.1471726382
 20
141.3030645665
 30
0.0
  0
SPLINE
  5
406
330
224
100
AcDbEntity
  8
7_ALL_FEATURES
  6
Continuous
 62
     7
100
AcDbSpline
 70
     0
 71
     3
 72
    12
 73
     8
 74
     0
 42
0.000000001
 43
0.0000001
 40
0.0
 40
0.0
 40
0.0
 40
0.0
 40
0.108780896
 40
0.2193966033
 40
0.4523216967
 40
0.7102960258
 40
1.0
 40
1.0
 40
1.0
 40
1.0
 10
348.6383586095
 20
140.3979646133
 30
0.0
 10
348.6428228506
 20
140.627551809
 30
0.0
 10
348.6175041109
 20
141.0919852641
 30
0.0
 10
348.4280521281
 20
142.0307077734
 30
0.0
 10
347.9149517222
 20
143.2092293494
 30
0.0
 10
346.9205116723
 20
144.5365864106
 30
0.0
 10
346.0664629911
 20
145.3246395862
 30
0.0
 10
345.5898447647
 20
145.7078207197
 30
0.0
  0
LINE
  5
407
330
224
100
AcDbEntity
  8
7_ALL_FEATURES
  6
Continuous
 62
     9
100
AcDbLine
 10
302.1132619243
 20
141.4332603408
 30
0.0
 11
302.1195372886
 21
141.4440363279
 31
0.0
  0
SPLINE
  5
408
330
224
100
AcDbEntity
  8
7_ALL_FEATURES
  6
Continuous
 62
     7
100
AcDbSpline
 70
     0
 71
     3
 72
    11
 73
     7
 74
     0
 42
0.000000001
 43
0.0000001
 40
0.0
 40
0.0
 40
0.0
 40
0.0
 40
0.2848748685
 40
0.5416645396
 40
0.7768094783
 40
1.0
 40
1.0
 40
1.0
 40
1.0
 10
345.9425032082
 20
135.6486159029
 30
0.0
 10
346.3526205646
 20
135.99062439
 30
0.0
 10
347.0901674913
 20
136.695643307
 30
0.0
 10
347.9536801065
 20
137.8796920181
 30
0.0
 10
348.495370855
 20
139.1191293589
 30
0.0
 10
348.6302249045
 20
139.9796640649
 30
0.0
 10
348.6383586095
 20
140.3979646133
 30
0.0
  0
SPLINE
  5
409
330
224
100
AcDbEntity
  8
7_ALL_FEATURES
  6
Continuous
 62
     7
100
AcDbSpline
 70
     0
 71
     3
 72
    21
 73
    17
 74
     0
 42
0.000000001
 43
0.0000001
 40
0.0
 40
0.0
 40
0.0
 40
0.0
 40
0.1701361077
 40
0.2477628968
 40
0.3202269441
 40
0.3875798302
 40
0.4500347963
 40
0.5619457347
 40
0.6133554399
 40
0.663161099
 40
0.712736023
 40
0.763478909
 40
0.8166654212
 40
0.8733408558
 40
0.934280199
 40
1.0
 40
1.0
 40
1.0
 40
1.0
 10
340.0683533087
 20
133.0737299836
 30
0.0
 10
341.0116405567
 20
133.4133469957
 30
0.0
 10
342.362064471
 20
133.9824950989
 30
0.0
 10
344.0112687709
 20
134.9027873134
 30
0.0
 10
345.076504687
 20
135.6176825374
 30
0.0
 10
346.0009802524
 20
136.3740366937
 30
0.0
 10
346.9991129659
 20
137.3918044324
 30
0.0
 10
347.7526157558
 20
138.5167495554
 30
0.0
 10
348.1624641619
 20
139.710400691
 30
0.0
 10
348.2930969741
 20
140.5947483951
 30
0.0
 10
348.2527300307
 20
141.4838490573
 30
0.0
 10
348.0425419589
 20
142.3687799374
 30
0.0
 10
347.6658134753
 20
143.2416262913
 30
0.0
 10
347.1273078472
 20
144.0960821009
 30
0.0
 10
346.4323418107
 20
144.9267355573
 30
0.0
 10
345.8893756185
 20
145.4412492425
 30
0.0
 10
345.5958926961
 20
145.6939226346
 30
0.0
  0
SPLINE
  5
40A
330
224
100
AcDbEntity
  8
7_ALL_FEATURES
  6
Continuous
 62
     7
100
AcDbSpline
 70
     0
 71
     3
 72
    11
 73
     7
 74
     0
 42
0.000000001
 43
0.0000001
 40
0.0
 40
0.0
 40
0.0
 40
0.0
 40
0.2232273484
 40
0.4583919914
 40
0.7151714055
 40
1.0
 40
1.0
 40
1.0
 40
1.0
 10
302.1471726382
 20
141.3030645665
 30
0.0
 10
302.1390461208
 20
140.8851336588
 30
0.0
 10
302.2400266186
 20
140.0208077997
 30
0.0
 10
302.7321569305
 20
138.7623067747
 30
0.0
 10
303.547480585
 20
137.5465180384
 30
0.0
 10
304.2558468643
 20
136.8138251769
 30
0.0
 10
304.6516669903
 20
136.4563306203
 30
0.0
  0
SPLINE
  5
40B
330
224
100
AcDbEntity
  8
7_ALL_FEATURES
  6
Continuous
 62
     7
100
AcDbSpline
 70
     0
 71
     3
 72
    28
 73
    24
 74
     0
 42
0.000000001
 43
0.0000001
 40
0.0
 40
0.0
 40
0.0
 40
0.0
 40
0.0246775729
 40
0.0475304342
 40
0.0687609438
 40
0.0886754882
 40
0.107685719
 40
0.1262928025
 40
0.1450420729
 40
0.1644628495
 40
0.1850136365
 40
0.2070528364
 40
0.2564272251
 40
0.313616566
 40
0.3784495723
 40
0.4500379838
 40
0.5270168809
 40
0.60770505
 40
0.6902264468
 40
0.7726144159
 40
0.8529096279
 40
0.9292512521
 40
1.0
 40
1.0
 40
1.0
 40
1.0
 10
305.3974079094
 20
146.4796428789
 30
0.0
 10
305.0890415603
 20
146.2346092759
 30
0.0
 10
304.5173804074
 20
145.7332702466
 30
0.0
 10
303.7810651866
 20
144.91562894
 30
0.0
 10
303.205844376
 20
144.0670465342
 30
0.0
 10
302.7974004806
 20
143.1931200762
 30
0.0
 10
302.561138676
 20
142.3003002532
 30
0.0
 10
302.5007855697
 20
141.3969748372
 30
0.0
 10
302.6174329422
 20
140.492706513
 30
0.0
 10
302.9088297655
 20
139.5967511112
 30
0.0
 10
303.3703104859
 20
138.7165176189
 30
0.0
 10
304.238593049
 20
137.5275706329
 30
0.0
 10
305.7617952774
 20
136.1240253178
 30
0.0
 10
308.0862165901
 20
134.6627485702
 30
0.0
 10
310.9127014173
 20
133.393565765
 30
0.0
 10
314.1616473943
 20
132.3521954464
 30
0.0
 10
317.7406489216
 20
131.5682183288
 30
0.0
 10
321.5452426674
 20
131.0651503146
 30
0.0
 10
325.4635791588
 20
130.8580946582
 30
0.0
 10
329.3799237924
 20
130.9532598197
 30
0.0
 10
333.178835718
 20
131.3477470144
 30
0.0
 10
336.7479624849
 20
132.0293914292
 30
0.0
 10
339.0059272391
 20
132.6912187474
 30
0.0
 10
340.0683533087
 20
133.0737299836
 30
0.0
  0
SPLINE
  5
40C
330
224
100
AcDbEntity
  8
7_ALL_FEATURES
  6
Continuous
 62
     7
100
AcDbSpline
 70
     0
 71
     3
 72
     9
 73
     5
 74
     0
 42
0.000000001
 43
0.0000001
 40
0.0
 40
0.0
 40
0.0
 40
0.0
 40
0.4687004858
 40
1.0
 40
1.0
 40
1.0
 40
1.0
 10
345.9583500582
 20
135.5862650684
 30
0.0
 10
345.2196915808
 20
135.0385160302
 30
0.0
 10
343.5270740686
 20
134.0258673693
 30
0.0
 10
341.7143544529
 20
133.2621410469
 30
0.0
 10
340.7335760885
 20
132.9090259011
 30
0.0
  0
SPLINE
  5
40D
330
224
100
AcDbEntity
  8
02___PRT_ALL_AXES
  6
Continuous
 62
     7
100
AcDbSpline
 70
     0
 71
     3
 72
    15
 73
    11
 74
     0
 42
0.000000001
 43
0.0000001
 40
0.0
 40
0.0
 40
0.0
 40
0.0
 40
0.1643782696
 40
0.316992004
 40
0.4572489651
 40
0.5851809299
 40
0.7014213916
 40
0.8074678136
 40
0.9058242493
 40
1.0
 40
1.0
 40
1.0
 40
1.0
 10
354.2212558721
 20
123.4190047479
 30
0.0
 10
355.4249192119
 20
123.8523664311
 30
0.0
 10
357.7180011945
 20
124.770126061
 30
0.0
 10
360.9046297057
 20
126.3644843903
 30
0.0
 10
363.6819800659
 20
128.1115004883
 30
0.0
 10
366.0187921859
 20
129.9927708307
 30
0.0
 10
367.8882815059
 20
131.9910549602
 30
0.0
 10
369.2658234287
 20
134.0896263154
 30
0.0
 10
370.1264083507
 20
136.2673366556
 30
0.0
 10
370.3412549389
 20
137.76750096
 30
0.0
 10
370.3555392681
 20
138.5002993369
 30
0.0
  0
SPLINE
  5
40E
330
224
100
AcDbEntity
  8
02___PRT_ALL_AXES
  6
Continuous
 62
     7
100
AcDbSpline
 70
     0
 71
     3
 72
     9
 73
     5
 74
     0
 42
0.000000001
 43
0.0000001
 40
0.0
 40
0.0
 40
0.0
 40
0.0
 40
0.2679574294
 40
1.0
 40
1.0
 40
1.0
 40
1.0
 10
292.3104886695
 20
142.0542331511
 30
0.0
 10
292.2651883622
 20
142.0379234266
 30
0.0
 10
292.0976367845
 20
141.9731580695
 30
0.0
 10
291.935697231
 20
141.8923784627
 30
0.0
 10
291.8250837057
 20
141.8212032203
 30
0.0
  0
SPLINE
  5
40F
330
224
100
AcDbEntity
  8
7_ALL_FEATURES
  6
Continuous
 62
     7
100
AcDbSpline
 70
     0
 71
     3
 72
     9
 73
     5
 74
     0
 42
0.000000001
 43
0.0000001
 40
0.0
 40
0.0
 40
0.0
 40
0.0
 40
0.276862503
 40
1.0
 40
1.0
 40
1.0
 40
1.0
 10
304.6271072112
 20
136.4082010679
 30
0.0
 10
304.3494498197
 20
136.6469307904
 30
0.0
 10
303.386428558
 20
137.5500417347
 30
0.0
 10
302.5885919971
 20
138.6605463559
 30
0.0
 10
302.2367041705
 20
139.5498775714
 30
0.0
  0
SPLINE
  5
410
330
224
100
AcDbEntity
  8
7_ALL_FEATURES
  6
Continuous
 62
     7
100
AcDbSpline
 70
     0
 71
     3
 72
     9
 73
     5
 74
     0
 42
0.000000001
 43
0.0000001
 40
0.0
 40
0.0
 40
0.0
 40
0.0
 40
0.5081342579
 40
1.0
 40
1.0
 40
1.0
 40
1.0
 10
302.2367041705
 20
139.5498775714
 30
0.0
 10
302.1118421818
 20
139.865443089
 30
0.0
 10
301.9207873463
 20
140.51021081
 30
0.0
 10
301.8635238189
 20
141.181065212
 30
0.0
 10
301.8699222714
 20
141.5095077279
 30
0.0
  0
SPLINE
  5
411
330
224
100
AcDbEntity
  8
02___PRT_ALL_AXES
  6
Continuous
 62
     7
100
AcDbSpline
 70
     0
 71
     3
 72
     9
 73
     5
 74
     0
 42
0.000000001
 43
0.0000001
 40
0.0
 40
0.0
 40
0.0
 40
0.0
 40
0.2360337492
 40
1.0
 40
1.0
 40
1.0
 40
1.0
 10
353.0399164847
 20
139.5427407142
 30
0.0
 10
353.0469539526
 20
139.5084125857
 30
0.0
 10
353.0863320614
 20
139.3649119114
 30
0.0
 10
353.1621737214
 20
139.2330335958
 30
0.0
 10
353.230954735
 20
139.1428489191
 30
0.0
  0
SPLINE
  5
412
330
224
100
AcDbEntity
  8
02___PRT_ALL_AXES
  6
Continuous
 62
     7
100
AcDbSpline
 70
     0
 71
     3
 72
    14
 73
    10
 74
     0
 42
0.000000001
 43
0.0000001
 40
0.0
 40
0.0
 40
0.0
 40
0.0
 40
0.0866166787
 40
0.1922269222
 40
0.3151439287
 40
0.4510173687
 40
0.7371124956
 40
0.8745912883
 40
1.0
 40
1.0
 40
1.0
 40
1.0
 10
353.230954735
 20
139.1428489191
 30
0.0
 10
353.3407824475
 20
138.9988444005
 30
0.0
 10
353.6482281658
 20
138.7286402892
 30
0.0
 10
354.2331720449
 20
138.4188385578
 30
0.0
 10
354.9584167177
 20
138.1756075086
 30
0.0
 10
356.0784040041
 20
137.9564504527
 30
0.0
 10
357.2591493848
 20
137.9238398869
 30
0.0
 10
358.3981639914
 20
138.078572923
 30
0.0
 10
358.9315013876
 20
138.2210789229
 30
0.0
 10
359.1782143911
 20
138.3099043934
 30
0.0
  0
SPLINE
  5
413
330
224
100
AcDbEntity
  8
02___PRT_ALL_AXES
  6
Continuous
 62
     7
100
AcDbSpline
 70
     0
 71
     3
 72
     9
 73
     5
 74
     0
 42
0.000000001
 43
0.0000001
 40
0.0
 40
0.0
 40
0.0
 40
0.0
 40
0.2679574294
 40
1.0
 40
1.0
 40
1.0
 40
1.0
 10
355.0509899317
 20
138.5606568507
 30
0.0
 10
355.0056896244
 20
138.5443471262
 30
0.0
 10
354.8381380467
 20
138.4795817691
 30
0.0
 10
354.6761984932
 20
138.3988021622
 30
0.0
 10
354.5655849679
 20
138.3276269199
 30
0.0
  0
SPLINE
  5
414
330
224
100
AcDbEntity
  8
02___PRT_ALL_AXES
  6
Continuous
 62
     7
100
AcDbSpline
 70
     0
 71
     3
 72
    10
 73
     6
 74
     0
 42
0.000000001
 43
0.0000001
 40
0.0
 40
0.0
 40
0.0
 40
0.0
 40
0.3079623586
 40
0.5770206506
 40
1.0
 40
1.0
 40
1.0
 40
1.0
 10
296.4377131289
 20
141.8034806938
 30
0.0
 10
296.6015438015
 20
141.8624655725
 30
0.0
 10
296.9035646848
 20
141.9915306003
 30
0.0
 10
297.3830429367
 20
142.2862562646
 30
0.0
 10
297.6641311122
 20
142.5980912787
 30
0.0
 10
297.7405397601
 20
142.8247143818
 30
0.0
  0
SPLINE
  5
415
330
224
100
AcDbEntity
  8
02___PRT_ALL_AXES
  6
Continuous
 62
     7
100
AcDbSpline
 70
     0
 71
     3
 72
     9
 73
     5
 74
     0
 42
0.000000001
 43
0.0000001
 40
0.0
 40
0.0
 40
0.0
 40
0.0
 40
0.2545185676
 40
1.0
 40
1.0
 40
1.0
 40
1.0
 10
297.7405397601
 20
142.8247143818
 30
0.0
 10
297.747043015
 20
142.8440026149
 30
0.0
 10
297.769859931
 20
142.9206744611
 30
0.0
 10
297.7810604582
 20
143.0008493327
 30
0.0
 10
297.7822134126
 20
143.0604578631
 30
0.0
  0
SPLINE
  5
416
330
224
100
AcDbEntity
  8
02___PRT_ALL_AXES
  6
Continuous
 62
     7
100
AcDbSpline
 70
     0
 71
     3
 72
    10
 73
     6
 74
     0
 42
0.000000001
 43
0.0000001
 40
0.0
 40
0.0
 40
0.0
 40
0.0
 40
0.3079623586
 40
0.5770206506
 40
1.0
 40
1.0
 40
1.0
 40
1.0
 10
359.1782143911
 20
138.3099043934
 30
0.0
 10
359.3420450636
 20
138.368889272
 30
0.0
 10
359.644065947
 20
138.4979542999
 30
0.0
 10
360.1235441988
 20
138.7926799642
 30
0.0
 10
360.4046323744
 20
139.1045149783
 30
0.0
 10
360.4810410222
 20
139.3311380814
 30
0.0
  0
SPLINE
  5
417
330
224
100
AcDbEntity
  8
02___PRT_ALL_AXES
  6
Continuous
 62
     7
100
AcDbSpline
 70
     0
 71
     3
 72
     9
 73
     5
 74
     0
 42
0.000000001
 43
0.0000001
 40
0.0
 40
0.0
 40
0.0
 40
0.0
 40
0.2545185676
 40
1.0
 40
1.0
 40
1.0
 40
1.0
 10
360.4810410222
 20
139.3311380814
 30
0.0
 10
360.4875442771
 20
139.3504263145
 30
0.0
 10
360.5103611932
 20
139.4270981607
 30
0.0
 10
360.5215617203
 20
139.5072730322
 30
0.0
 10
360.5227146748
 20
139.5668815627
 30
0.0
  0
SPLINE
  5
418
330
224
100
AcDbEntity
  8
7_ALL_FEATURES
  6
Continuous
 62
     7
100
AcDbSpline
 70
     0
 71
     3
 72
    16
 73
    12
 74
     0
 42
0.000000001
 43
0.0000001
 40
0.0
 40
0.0
 40
0.0
 40
0.0
 40
0.1205411536
 40
0.2520932499
 40
0.3900146998
 40
0.5291246312
 40
0.6641589952
 40
0.7901749472
 40
0.9030112865
 40
0.9535934809
 40
1.0
 40
1.0
 40
1.0
 40
1.0
 10
340.7335760885
 20
132.9090259011
 30
0.0
 10
339.3180525966
 20
132.3993870052
 30
0.0
 10
336.2744365786
 20
131.5600276063
 30
0.0
 10
331.4552179715
 20
130.8170180706
 30
0.0
 10
326.3536841958
 20
130.5574551737
 30
0.0
 10
321.2082479696
 20
130.794442814
 30
0.0
 10
316.2570708291
 20
131.5164583399
 30
0.0
 10
311.7305499473
 20
132.6891570733
 30
0.0
 10
308.364333462
 20
134.0421124106
 30
0.0
 10
306.0800706373
 20
135.3294538548
 30
0.0
 10
305.0881861794
 20
136.0286201473
 30
0.0
 10
304.6367575401
 20
136.3915030179
 30
0.0
  0
SPLINE
  5
419
330
224
100
AcDbEntity
  8
7_ALL_FEATURES
  6
Continuous
 62
     7
100
AcDbSpline
 70
     0
 71
     3
 72
    15
 73
    11
 74
     0
 42
0.000000001
 43
0.0000001
 40
0.0
 40
0.0
 40
0.0
 40
0.0
 40
0.164382414
 40
0.3169893373
 40
0.4572481942
 40
0.5851804189
 40
0.7014211785
 40
0.8074679183
 40
0.9058239469
 40
1.0
 40
1.0
 40
1.0
 40
1.0
 10
296.5199351193
 20
156.0041357305
 30
0.0
 10
295.3162164994
 20
155.5707541446
 30
0.0
 10
293.0231007686
 20
154.6529942452
 30
0.0
 10
289.8364296692
 20
153.0585710676
 30
0.0
 10
287.0590510376
 20
151.3115383636
 30
0.0
 10
284.7222091898
 20
149.4301750544
 30
0.0
 10
282.8526851505
 20
147.4318380188
 30
0.0
 10
281.475150911
 20
145.3331908406
 30
0.0
 10
280.6146701751
 20
143.155380729
 30
0.0
 10
280.3999151205
 20
141.6551731209
 30
0.0
 10
280.3856733291
 20
140.9223563782
 30
0.0
  0
SPLINE
  5
41A
330
224
100
AcDbEntity
  8
02___PRT_ALL_AXES
  6
Continuous
 62
     7
100
AcDbSpline
 70
     0
 71
     3
 72
     9
 73
     5
 74
     0
 42
0.000000001
 43
0.0000001
 40
0.0
 40
0.0
 40
0.0
 40
0.0
 40
0.2475545831
 40
1.0
 40
1.0
 40
1.0
 40
1.0
 10
301.9025249306
 20
140.5328329789
 30
0.0
 10
301.9134347446
 20
140.5979056058
 30
0.0
 10
301.9628280765
 20
140.8598545614
 30
0.0
 10
302.0334244596
 20
141.1177454689
 30
0.0
 10
302.0972816065
 20
141.3078570567
 30
0.0
  0
SPLINE
  5
41B
330
224
100
AcDbEntity
  8
02___PRT_ALL_AXES
  6
Continuous
 62
     7
100
AcDbSpline
 70
     0
 71
     3
 72
    12
 73
     8
 74
     0
 42
0.000000001
 43
0.0000001
 40
0.0
 40
0.0
 40
0.0
 40
0.0
 40
0.0999527571
 40
0.2143484853
 40
0.4741592913
 40
0.7480604206
 40
1.0
 40
1.0
 40
1.0
 40
1.0
 10
358.9302070466
 20
138.2415279629
 30
0.0
 10
358.8235265292
 20
138.3164058214
 30
0.0
 10
358.5771991469
 20
138.4521806525
 30
0.0
 10
357.9963288422
 20
138.6679781651
 30
0.0
 10
357.1575069751
 20
138.8179815756
 30
0.0
 10
356.1291834971
 20
138.8181867756
 30
0.0
 10
355.4482087183
 20
138.692691693
 30
0.0
 10
355.1361550333
 20
138.5899800636
 30
0.0
  0
SPLINE
  5
41C
330
224
100
AcDbEntity
  8
7_ALL_FEATURES
  6
Continuous
 62
     7
100
AcDbSpline
 70
     0
 71
     3
 72
     9
 73
     5
 74
     0
 42
0.000000001
 43
0.0000001
 40
0.0
 40
0.0
 40
0.0
 40
0.0
 40
0.491894675
 40
1.0
 40
1.0
 40
1.0
 40
1.0
 10
348.9234339582
 20
140.5935136703
 30
0.0
 10
348.9170484483
 20
140.2657355242
 30
0.0
 10
348.8340468432
 20
139.5990119777
 30
0.0
 10
348.6188638675
 20
138.9633832857
 30
0.0
 10
348.4823294686
 20
138.653482577
 30
0.0
  0
SPLINE
  5
41D
330
224
100
AcDbEntity
  8
7_ALL_FEATURES
  6
Continuous
 62
     7
100
AcDbSpline
 70
     0
 71
     3
 72
     9
 73
     5
 74
     0
 42
0.000000001
 43
0.0000001
 40
0.0
 40
0.0
 40
0.0
 40
0.0
 40
0.2270389425
 40
1.0
 40
1.0
 40
1.0
 40
1.0
 10
348.4823294686
 20
138.653482577
 30
0.0
 10
348.3609637406
 20
138.3780111542
 30
0.0
 10
347.7300457621
 20
137.2065248001
 30
0.0
 10
346.7702034018
 20
136.2388686122
 30
0.0
 10
345.9675521207
 20
135.6016527741
 30
0.0
  0
SPLINE
  5
41E
330
224
100
AcDbEntity
  8
7_ALL_FEATURES
  6
Continuous
 62
     7
100
AcDbSpline
 70
     0
 71
     3
 72
    24
 73
    20
 74
     0
 42
0.000000001
 43
0.0000001
 40
0.0
 40
0.0
 40
0.0
 40
0.0
 40
0.0174091989
 40
0.0351603447
 40
0.0728234661
 40
0.1150444818
 40
0.162918053
 40
0.2168195213
 40
0.276600525
 40
0.3417415343
 40
0.4114573415
 40
0.4847717629
 40
0.5605748464
 40
0.6376706995
 40
0.7148207119
 40
0.7907842107
 40
0.8643603593
 40
0.9344281573
 40
1.0
 40
1.0
 40
1.0
 40
1.0
 10
370.3685589331
 20
139.1707523441
 30
0.0
 10
370.3778902342
 20
139.6508979552
 30
0.0
 10
370.3191078026
 20
140.6238731062
 30
0.0
 10
369.8858187652
 20
142.5925832206
 30
0.0
 10
368.715400444
 20
145.0591900453
 30
0.0
 10
366.4690379456
 20
147.8068138503
 30
0.0
 10
363.4171212423
 20
150.3769455809
 30
0.0
 10
359.6188913809
 20
152.7312996085
 30
0.0
 10
355.1454108023
 20
154.8314435917
 30
0.0
 10
350.081875846
 20
156.6379807885
 30
0.0
 10
344.5268508543
 20
158.1157057321
 30
0.0
 10
338.5899052711
 20
159.2350535327
 30
0.0
 10
332.3890477763
 20
159.9734347387
 30
0.0
 10
326.048037966
 20
160.3158843267
 30
0.0
 10
319.6936455024
 20
160.2554710255
 30
0.0
 10
313.4529851576
 20
159.7934830689
 30
0.0
 10
307.4504706281
 20
158.9393091127
 30
0.0
 10
301.8062247062
 20
157.7104650609
 30
0.0
 10
298.2218047639
 20
156.6168694325
 30
0.0
 10
296.5199351193
 20
156.0041357305
 30
0.0
  0
SPLINE
  5
41F
330
224
100
AcDbEntity
  8
02___PRT_ALL_AXES
  6
Continuous
 62
     7
100
AcDbSpline
 70
     0
 71
     3
 72
    15
 73
    11
 74
     0
 42
0.000000001
 43
0.0000001
 40
0.0
 40
0.0
 40
0.0
 40
0.0
 40
0.0910166717
 40
0.1868832672
 40
0.2915353504
 40
0.4075934045
 40
0.5364363846
 40
0.6784519987
 40
0.8332802113
 40
1.0
 40
1.0
 40
1.0
 40
1.0
 10
280.3726104512
 20
140.2528728418
 30
0.0
 10
280.3568711547
 20
139.4454333952
 30
0.0
 10
280.5514744845
 20
137.7757203313
 30
0.0
 10
281.5002228018
 20
135.3442846211
 30
0.0
 10
283.0728723663
 20
132.9946102089
 30
0.0
 10
285.2352217149
 20
130.7531098566
 30
0.0
 10
287.954201192
 20
128.641624071
 30
0.0
 10
291.1929675065
 20
126.6844299847
 30
0.0
 10
294.9077832429
 20
124.906207697
 30
0.0
 10
297.5774968431
 20
123.890456531
 30
0.0
 10
298.9777049514
 20
123.4132040446
 30
0.0
  0
SPLINE
  5
420
330
224
100
AcDbEntity
  8
02___PRT_ALL_AXES
  6
Continuous
 62
     7
100
AcDbSpline
 70
     0
 71
     3
 72
    11
 73
     7
 74
     0
 42
0.000000001
 43
0.0000001
 40
0.0
 40
0.0
 40
0.0
 40
0.0
 40
0.2409834485
 40
0.4953764226
 40
0.7521342622
 40
1.0
 40
1.0
 40
1.0
 40
1.0
 10
302.663879224
 20
122.2762152972
 30
0.0
 10
305.8445059007
 20
121.3917868541
 30
0.0
 10
312.5095459658
 20
120.0145211795
 30
0.0
 10
322.7864530602
 20
119.0529358361
 30
0.0
 10
333.2017909177
 20
119.164456881
 30
0.0
 10
340.0848003259
 20
119.9757899731
 30
0.0
 10
343.425875507
 20
120.581773191
 30
0.0
  0
SPLINE
  5
421
330
224
100
AcDbEntity
  8
02___PRT_ALL_AXES
  6
Continuous
 62
     7
100
AcDbSpline
 70
     0
 71
     3
 72
     9
 73
     5
 74
     0
 42
0.000000001
 43
0.0000001
 40
0.0
 40
0.0
 40
0.0
 40
0.0
 40
0.2580461088
 40
1.0
 40
1.0
 40
1.0
 40
1.0
 10
348.0933105345
 20
121.5779513272
 30
0.0
 10
348.6276983496
 20
121.7101844871
 30
0.0
 10
350.6924173163
 20
122.2469889561
 30
0.0
 10
352.7319848688
 20
122.8828141309
 30
0.0
 10
354.2212558721
 20
123.4190047479
 30
0.0
  0
SPLINE
  5
422
330
224
100
AcDbEntity
  8
02___PRT_ALL_AXES
  6
Continuous
 62
     7
100
AcDbSpline
 70
     0
 71
     3
 72
    12
 73
     8
 74
     0
 42
0.000000001
 43
0.0000001
 40
0.0
 40
0.0
 40
0.0
 40
0.0
 40
0.0999527571
 40
0.2143484853
 40
0.4741592913
 40
0.7480604206
 40
1.0
 40
1.0
 40
1.0
 40
1.0
 10
296.1897057845
 20
141.7351042634
 30
0.0
 10
296.0830252671
 20
141.8099821219
 30
0.0
 10
295.8366978848
 20
141.9457569529
 30
0.0
 10
295.25582758
 20
142.1615544655
 30
0.0
 10
294.4170057129
 20
142.3115578761
 30
0.0
 10
293.3886822349
 20
142.3117630761
 30
0.0
 10
292.7077074562
 20
142.1862679934
 30
0.0
 10
292.3956537711
 20
142.083556364
 30
0.0
  0
SPLINE
  5
423
330
224
100
AcDbEntity
  8
02___PRT_ALL_AXES
  6
Continuous
 62
     7
100
AcDbSpline
 70
     0
 71
     3
 72
     9
 73
     5
 74
     0
 42
0.000000001
 43
0.0000001
 40
0.0
 40
0.0
 40
0.0
 40
0.0
 40
0.2360337492
 40
1.0
 40
1.0
 40
1.0
 40
1.0
 10
290.2994152226
 20
143.0363170147
 30
0.0
 10
290.3064526904
 20
143.0019888861
 30
0.0
 10
290.3458307992
 20
142.8584882118
 30
0.0
 10
290.4216724593
 20
142.7266098963
 30
0.0
 10
290.4904534729
 20
142.6364252195
 30
0.0
  0
SPLINE
  5
424
330
224
100
AcDbEntity
  8
02___PRT_ALL_AXES
  6
Continuous
 62
     7
100
AcDbSpline
 70
     0
 71
     3
 72
    14
 73
    10
 74
     0
 42
0.000000001
 43
0.0000001
 40
0.0
 40
0.0
 40
0.0
 40
0.0
 40
0.0866166787
 40
0.1922269222
 40
0.3151439287
 40
0.4510173687
 40
0.7371124956
 40
0.8745912883
 40
1.0
 40
1.0
 40
1.0
 40
1.0
 10
290.4904534729
 20
142.6364252195
 30
0.0
 10
290.6002811853
 20
142.492420701
 30
0.0
 10
290.9077269036
 20
142.2222165897
 30
0.0
 10
291.4926707827
 20
141.9124148582
 30
0.0
 10
292.2179154556
 20
141.6691838091
 30
0.0
 10
293.3379027419
 20
141.4500267531
 30
0.0
 10
294.5186481226
 20
141.4174161873
 30
0.0
 10
295.6576627292
 20
141.5721492235
 30
0.0
 10
296.1910001254
 20
141.7146552233
 30
0.0
 10
296.4377131289
 20
141.8034806938
 30
0.0
  0
SPLINE
  5
425
330
224
100
AcDbEntity
  8
02___PRT_ALL_AXES
  6
Continuous
 62
     7
100
AcDbSpline
 70
     0
 71
     3
 72
     9
 73
     5
 74
     0
 42
0.000000001
 43
0.0000001
 40
0.0
 40
0.0
 40
0.0
 40
0.0
 40
0.5456033595
 40
1.0
 40
1.0
 40
1.0
 40
1.0
 10
292.1619538522
 20
142.3366873127
 30
0.0
 10
292.0357317609
 20
142.2829384295
 30
0.0
 10
291.8108608661
 20
142.1676405198
 30
0.0
 10
291.6147639358
 20
142.0042195294
 30
0.0
 10
291.5412383271
 20
141.9167643163
 30
0.0
  0
SPLINE
  5
426
330
224
100
AcDbEntity
  8
02___PRT_ALL_AXES
  6
Continuous
 62
     7
100
AcDbSpline
 70
     0
 71
     3
 72
     9
 73
     5
 74
     0
 42
0.000000001
 43
0.0000001
 40
0.0
 40
0.0
 40
0.0
 40
0.0
 40
0.5526088572
 40
1.0
 40
1.0
 40
1.0
 40
1.0
 10
291.6190540698
 20
143.9940997742
 30
0.0
 10
291.3891760236
 20
143.9113354881
 30
0.0
 10
290.9836632679
 20
143.729458082
 30
0.0
 10
290.6287628036
 20
143.4506669083
 30
0.0
 10
290.502885835
 20
143.2980848831
 30
0.0
  0
SPLINE
  5
427
330
224
100
AcDbEntity
  8
02___PRT_ALL_AXES
  6
Continuous
 62
     7
100
AcDbSpline
 70
     0
 71
     3
 72
     9
 73
     5
 74
     0
 42
0.000000001
 43
0.0000001
 40
0.0
 40
0.0
 40
0.0
 40
0.0
 40
0.2578402795
 40
1.0
 40
1.0
 40
1.0
 40
1.0
 10
290.502885835
 20
143.2980848831
 30
0.0
 10
290.4923735625
 20
143.2853424105
 30
0.0
 10
290.4525445078
 20
143.2351594629
 30
0.0
 10
290.416617554
 20
143.181831423
 30
0.0
 10
290.3928268402
 20
143.1406634268
 30
0.0
  0
SPLINE
  5
428
330
224
100
AcDbEntity
  8
02___PRT_ALL_AXES
  6
Continuous
 62
     7
100
AcDbSpline
 70
     0
 71
     3
 72
     9
 73
     5
 74
     0
 42
0.000000001
 43
0.0000001
 40
0.0
 40
0.0
 40
0.0
 40
0.0
 40
0.2568496603
 40
1.0
 40
1.0
 40
1.0
 40
1.0
 10
290.3928268402
 20
143.1406634268
 30
0.0
 10
290.3845354727
 20
143.1263158545
 30
0.0
 10
290.353599963
 20
143.0696968017
 30
0.0
 10
290.3282900016
 20
143.0099455869
 30
0.0
 10
290.3134400578
 20
142.9643577826
 30
0.0
  0
SPLINE
  5
429
330
224
100
AcDbEntity
  8
02___PRT_ALL_AXES
  6
Continuous
 62
     7
100
AcDbSpline
 70
     0
 71
     3
 72
    12
 73
     8
 74
     0
 42
0.000000001
 43
0.0000001
 40
0.0
 40
0.0
 40
0.0
 40
0.0
 40
0.2501592546
 40
0.5254915907
 40
0.7867934597
 40
0.90104795
 40
1.0
 40
1.0
 40
1.0
 40
1.0
 10
292.317170621
 20
142.3975045483
 30
0.0
 10
292.6346460046
 20
142.5118069966
 30
0.0
 10
293.3376398604
 20
142.6519906289
 30
0.0
 10
294.4029858303
 20
142.6590092147
 30
0.0
 10
295.2751568544
 20
142.5036021789
 30
0.0
 10
295.8748304954
 20
142.2755188234
 30
0.0
 10
296.126103917
 20
142.1313663774
 30
0.0
 10
296.2332573414
 20
142.0517891213
 30
0.0
  0
SPLINE
  5
42A
330
224
100
AcDbEntity
  8
02___PRT_ALL_AXES
  6
Continuous
 62
     7
100
AcDbSpline
 70
     0
 71
     3
 72
     9
 73
     5
 74
     0
 42
0.000000001
 43
0.0000001
 40
0.0
 40
0.0
 40
0.0
 40
0.0
 40
0.2684926226
 40
1.0
 40
1.0
 40
1.0
 40
1.0
 10
296.2332573414
 20
142.0517891213
 30
0.0
 10
296.2577220556
 20
142.0336204549
 30
0.0
 10
296.3468737215
 20
141.9634449443
 30
0.0
 10
296.4280609532
 20
141.8823997024
 30
0.0
 10
296.4786183465
 20
141.8165437309
 30
0.0
  0
SPLINE
  5
42B
330
224
100
AcDbEntity
  8
02___PRT_ALL_AXES
  6
Continuous
 62
     7
100
AcDbSpline
 70
     0
 71
     3
 72
    15
 73
    11
 74
     0
 42
0.000000001
 43
0.0000001
 40
0.0
 40
0.0
 40
0.0
 40
0.0
 40
0.1286155201
 40
0.2699346663
 40
0.4169904147
 40
0.5622033375
 40
0.6981814591
 40
0.8185983003
 40
0.9192804881
 40
1.0
 40
1.0
 40
1.0
 40
1.0
 10
291.6190540698
 20
143.9940997742
 30
0.0
 10
291.8807747018
 20
144.0883285256
 30
0.0
 10
292.4481186513
 20
144.2368785716
 30
0.0
 10
293.3448631082
 20
144.3496335988
 30
0.0
 10
294.2846452641
 20
144.3585702732
 30
0.0
 10
295.2079698788
 20
144.262907201
 30
0.0
 10
296.057131942
 20
144.0692259296
 30
0.0
 10
296.7807204102
 20
143.7886909154
 30
0.0
 10
297.3375128814
 20
143.4397624435
 30
0.0
 10
297.6028109954
 20
143.1352402204
 30
0.0
 10
297.6808656282
 20
142.9790830103
 30
0.0
  0
SPLINE
  5
42C
330
224
100
AcDbEntity
  8
7_ALL_FEATURES
  6
Continuous
 62
     7
100
AcDbSpline
 70
     0
 71
     3
 72
     9
 73
     5
 74
     0
 42
0.000000001
 43
0.0000001
 40
0.0
 40
0.0
 40
0.0
 40
0.0
 40
0.2764103239
 40
1.0
 40
1.0
 40
1.0
 40
1.0
 10
304.6367575401
 20
136.3915030179
 30
0.0
 10
304.3460728367
 20
136.6251711781
 30
0.0
 10
303.3310595236
 20
137.5109950912
 30
0.0
 10
302.463830122
 20
138.5952019619
 30
0.0
 10
302.0423908047
 20
139.4758950638
 30
0.0
  0
SPLINE
  5
42D
330
224
100
AcDbEntity
  8
7_ALL_FEATURES
  6
Continuous
 62
     7
100
AcDbSpline
 70
     0
 71
     3
 72
    11
 73
     7
 74
     0
 42
0.000000001
 43
0.0000001
 40
0.0
 40
0.0
 40
0.0
 40
0.0
 40
0.2444855356
 40
0.4823971502
 40
0.729666185
 40
1.0
 40
1.0
 40
1.0
 40
1.0
 10
301.8738190586
 20
139.8617473771
 30
0.0
 10
301.6958469251
 20
140.3117380774
 30
0.0
 10
301.4548707063
 20
141.2508034614
 30
0.0
 10
301.5233800533
 20
142.7145949165
 30
0.0
 10
302.028413981
 20
144.1419039422
 30
0.0
 10
302.6064600125
 20
144.9999366891
 30
0.0
 10
302.9461538857
 20
145.4133440819
 30
0.0
  0
SPLINE
  5
42E
330
224
100
AcDbEntity
  8
7_ALL_FEATURES
  6
Continuous
 62
     7
100
AcDbSpline
 70
     0
 71
     3
 72
    11
 73
     7
 74
     0
 42
0.000000001
 43
0.0000001
 40
0.0
 40
0.0
 40
0.0
 40
0.0
 40
0.2109715229
 40
0.4476884478
 40
0.7110492052
 40
1.0
 40
1.0
 40
1.0
 40
1.0
 10
302.9461538857
 20
145.4133440819
 30
0.0
 10
303.3252733283
 20
145.8747323868
 30
0.0
 10
304.2348955142
 20
146.7689027936
 30
0.0
 10
305.8801156826
 20
147.9385245738
 30
0.0
 10
307.8534752761
 20
148.9948331205
 30
0.0
 10
309.3032834223
 20
149.5868950434
 30
0.0
 10
310.0728212628
 20
149.8639560764
 30
0.0
  0
SPLINE
  5
42F
330
224
100
AcDbEntity
  8
02___PRT_ALL_AXES
  6
Continuous
 62
     7
100
AcDbSpline
 70
     0
 71
     3
 72
     9
 73
     5
 74
     0
 42
0.000000001
 43
0.0000001
 40
0.0
 40
0.0
 40
0.0
 40
0.0
 40
0.4543966405
 40
1.0
 40
1.0
 40
1.0
 40
1.0
 10
354.2817395892
 20
138.4231880159
 30
0.0
 10
354.355265198
 20
138.510643229
 30
0.0
 10
354.5513621283
 20
138.6740642194
 30
0.0
 10
354.7762330231
 20
138.7893621291
 30
0.0
 10
354.9024551144
 20
138.8431110122
 30
0.0
  0
SPLINE
  5
430
330
224
100
AcDbEntity
  8
02___PRT_ALL_AXES
  6
Continuous
 62
     7
100
AcDbSpline
 70
     0
 71
     3
 72
    17
 73
    13
 74
     0
 42
0.000000001
 43
0.0000001
 40
0.0
 40
0.0
 40
0.0
 40
0.0
 40
0.035081831
 40
0.0727769355
 40
0.115033639
 40
0.16294548
 40
0.2765229695
 40
0.4113699228
 40
0.5605157661
 40
0.7148049992
 40
0.8643612917
 40
1.0
 40
1.0
 40
1.0
 40
1.0
 10
360.5227146748
 20
139.5668815627
 30
0.0
 10
360.524272952
 20
139.647445553
 30
0.0
 10
360.4998015245
 20
139.8160906605
 30
0.0
 10
360.3848443087
 20
140.0573961983
 30
0.0
 10
360.1976660833
 20
140.2865798594
 30
0.0
 10
359.8378981175
 20
140.5890190797
 30
0.0
 10
359.2263048278
 20
140.9041030164
 30
0.0
 10
358.3488791163
 20
141.1678664299
 30
0.0
 10
357.3501397516
 20
141.3174003947
 30
0.0
 10
356.3071850504
 20
141.3404418564
 30
0.0
 10
355.3006465402
 20
141.2354371885
 30
0.0
 10
354.6618115527
 20
141.0750375653
 30
0.0
 10
354.3686842224
 20
140.9695012836
 30
0.0
  0
SPLINE
  5
431
330
224
100
AcDbEntity
  8
02___PRT_ALL_AXES
  6
Continuous
 62
     7
100
AcDbSpline
 70
     0
 71
     3
 72
    15
 73
    11
 74
     0
 42
0.000000001
 43
0.0000001
 40
0.0
 40
0.0
 40
0.0
 40
0.0
 40
0.0807195119
 40
0.1814016997
 40
0.3018185409
 40
0.4377966625
 40
0.5830095853
 40
0.7300653337
 40
0.8713844799
 40
1.0
 40
1.0
 40
1.0
 40
1.0
 10
360.4213668903
 20
139.4855067099
 30
0.0
 10
360.3433122576
 20
139.64166392
 30
0.0
 10
360.0780141435
 20
139.946186143
 30
0.0
 10
359.5212216724
 20
140.295114615
 30
0.0
 10
358.7976332042
 20
140.5756496292
 30
0.0
 10
357.9484711409
 20
140.7693309006
 30
0.0
 10
357.0251465262
 20
140.8649939728
 30
0.0
 10
356.0853643704
 20
140.8560572983
 30
0.0
 10
355.1886199135
 20
140.7433022712
 30
0.0
 10
354.621275964
 20
140.5947522252
 30
0.0
 10
354.359555332
 20
140.5005234738
 30
0.0
  0
SPLINE
  5
432
330
224
100
AcDbEntity
  8
7_ALL_FEATURES
  6
Continuous
 62
     7
100
AcDbSpline
 70
     0
 71
     3
 72
    23
 73
    19
 74
     0
 42
0.000000001
 43
0.0000001
 40
0.0
 40
0.0
 40
0.0
 40
0.0
 40
0.0828034356
 40
0.1598015784
 40
0.2307068782
 40
0.2955175308
 40
0.3545167837
 40
0.4083904569
 40
0.4582976594
 40
0.5058831484
 40
0.5531430539
 40
0.6021277186
 40
0.6546148165
 40
0.7119185127
 40
0.7748648814
 40
0.8438582547
 40
0.9189670529
 40
1.0
 40
1.0
 40
1.0
 40
1.0
 10
299.4317357645
 20
155.748314196
 30
0.0
 10
298.3684190734
 20
155.3654823063
 30
0.0
 10
296.3407520295
 20
154.5554467013
 30
0.0
 10
293.5178672152
 20
153.1516465182
 30
0.0
 10
291.0484938036
 20
151.6151348448
 30
0.0
 10
288.9594439956
 20
149.9615665637
 30
0.0
 10
287.2736415239
 20
148.205733822
 30
0.0
 10
286.0120495649
 20
146.3624005757
 30
0.0
 10
285.1954993221
 20
144.4478238022
 30
0.0
 10
284.8443035495
 20
142.4850528203
 30
0.0
 10
284.9701094517
 20
140.5072487014
 30
0.0
 10
285.5676257141
 20
138.5499153144
 30
0.0
 10
286.6190105806
 20
136.6400536732
 30
0.0
 10
288.103872154
 20
134.7961363594
 30
0.0
 10
290.0021295474
 20
133.0337697913
 30
0.0
 10
292.2923175121
 20
131.3687126657
 30
0.0
 10
294.9494643308
 20
129.8172537495
 30
0.0
 10
296.8770407011
 20
128.9023302359
 30
0.0
 10
297.892508168
 20
128.4641584244
 30
0.0
  0
SPLINE
  5
433
330
224
100
AcDbEntity
  8
7_ALL_FEATURES
  6
Continuous
 62
     7
100
AcDbSpline
 70
     0
 71
     3
 72
     9
 73
     5
 74
     0
 42
0.000000001
 43
0.0000001
 40
0.0
 40
0.0
 40
0.0
 40
0.0
 40
0.2445150227
 40
1.0
 40
1.0
 40
1.0
 40
1.0
 10
299.1989453452
 20
127.923463508
 30
0.0
 10
299.4802983031
 20
127.8117945416
 30
0.0
 10
300.6351116202
 20
127.3656093085
 30
0.0
 10
301.8057250173
 20
126.9605778685
 30
0.0
 10
302.696550297
 20
126.6756856829
 30
0.0
  0
SPLINE
  5
434
330
224
100
AcDbEntity
  8
7_ALL_FEATURES
  6
Continuous
 62
     7
100
AcDbSpline
 70
     0
 71
     3
 72
     9
 73
     5
 74
     0
 42
0.000000001
 43
0.0000001
 40
0.0
 40
0.0
 40
0.0
 40
0.0
 40
0.4866236192
 40
1.0
 40
1.0
 40
1.0
 40
1.0
 10
305.1228768118
 20
125.9546593209
 30
0.0
 10
308.0829993982
 20
125.1391666961
 30
0.0
 10
314.2854693878
 20
123.8845458357
 30
0.0
 10
320.5851075293
 20
123.3390594092
 30
0.0
 10
323.8225340722
 20
123.2319221279
 30
0.0
  0
LINE
  5
435
330
224
100
AcDbEntity
  8
7_ALL_FEATURES
  6
Continuous
 62
     7
100
AcDbLine
 10
323.8225340722
 20
123.2319221279
 30
0.0
 11
323.838637495
 21
123.2313906526
 31
0.0
  0
SPLINE
  5
436
330
224
100
AcDbEntity
  8
7_ALL_FEATURES
  6
Continuous
 62
     7
100
AcDbSpline
 70
     0
 71
     3
 72
     9
 73
     5
 74
     0
 42
0.000000001
 43
0.0000001
 40
0.0
 40
0.0
 40
0.0
 40
0.0
 40
0.5101062366
 40
1.0
 40
1.0
 40
1.0
 40
1.0
 10
323.838637495
 20
123.2313906526
 30
0.0
 10
327.0540398623
 20
123.1255576292
 30
0.0
 10
333.3727390127
 20
123.2524694657
 30
0.0
 10
339.6433322173
 20
124.067790807
 30
0.0
 10
342.6751167729
 20
124.6630443875
 30
0.0
  0
SPLINE
  5
437
330
224
100
AcDbEntity
  8
7_ALL_FEATURES
  6
Continuous
 62
     7
100
AcDbSpline
 70
     0
 71
     3
 72
     9
 73
     5
 74
     0
 42
0.000000001
 43
0.0000001
 40
0.0
 40
0.0
 40
0.0
 40
0.0
 40
0.2569642623
 40
1.0
 40
1.0
 40
1.0
 40
1.0
 10
342.6751167729
 20
124.6630443875
 30
0.0
 10
343.1952908905
 20
124.7651741729
 30
0.0
 10
345.214991919
 20
125.1854397314
 30
0.0
 10
347.2158379371
 20
125.6984643091
 30
0.0
 10
348.6839764619
 20
126.1391369661
 30
0.0
  0
SPLINE
  5
438
330
224
100
AcDbEntity
  8
02___PRT_ALL_AXES
  6
Continuous
 62
     7
100
AcDbSpline
 70
     0
 71
     3
 72
    11
 73
     7
 74
     0
 42
0.000000001
 43
0.0000001
 40
0.0
 40
0.0
 40
0.0
 40
0.0
 40
0.3175846002
 40
0.5861194053
 40
0.8081889264
 40
1.0
 40
1.0
 40
1.0
 40
1.0
 10
354.3686842224
 20
140.9695012836
 30
0.0
 10
354.175421449
 20
140.8999198002
 30
0.0
 10
353.8261773407
 20
140.7475167218
 30
0.0
 10
353.3918344531
 20
140.4494098185
 30
0.0
 10
353.1030563336
 20
140.1048785066
 30
0.0
 10
353.0265830602
 20
139.8365603273
 30
0.0
 10
353.0241839387
 20
139.7125241143
 30
0.0
  0
SPLINE
  5
439
330
224
100
AcDbEntity
  8
7_ALL_FEATURES
  6
Continuous
 62
     7
100
AcDbSpline
 70
     0
 71
     3
 72
    11
 73
     7
 74
     0
 42
0.000000001
 43
0.0000001
 40
0.0
 40
0.0
 40
0.0
 40
0.0
 40
0.219015374
 40
0.4521017179
 40
0.710204011
 40
1.0
 40
1.0
 40
1.0
 40
1.0
 10
301.8699222714
 20
141.5095077279
 30
0.0
 10
301.8790149107
 20
141.9762470358
 30
0.0
 10
302.0446129699
 20
142.9418641869
 30
0.0
 10
302.7098637216
 20
144.319218172
 30
0.0
 10
303.7647949496
 20
145.6218637991
 30
0.0
 10
304.6572429397
 20
146.384170621
 30
0.0
 10
305.1530298013
 20
146.7526041998
 30
0.0
  0
SPLINE
  5
43A
330
224
100
AcDbEntity
  8
7_ALL_FEATURES
  6
Continuous
 62
     7
100
AcDbSpline
 70
     0
 71
     3
 72
     9
 73
     5
 74
     0
 42
0.000000001
 43
0.0000001
 40
0.0
 40
0.0
 40
0.0
 40
0.0
 40
0.4685993056
 40
1.0
 40
1.0
 40
1.0
 40
1.0
 10
305.1530298013
 20
146.7526041998
 30
0.0
 10
305.8810985109
 20
147.2936531486
 30
0.0
 10
307.5504401022
 20
148.293980069
 30
0.0
 10
309.3389337248
 20
149.0475339655
 30
0.0
 10
310.3067771353
 20
149.3959920819
 30
0.0
  0
SPLINE
  5
43B
330
224
100
AcDbEntity
  8
02___PRT_ALL_AXES
  6
Continuous
 62
     7
100
AcDbSpline
 70
     0
 71
     3
 72
     9
 73
     5
 74
     0
 42
0.000000001
 43
0.0000001
 40
0.0
 40
0.0
 40
0.0
 40
0.0
 40
0.2325727688
 40
1.0
 40
1.0
 40
1.0
 40
1.0
 10
359.2191196087
 20
138.3229674305
 30
0.0
 10
359.2030428984
 20
138.3439089249
 30
0.0
 10
359.1300622331
 20
138.4309916964
 30
0.0
 10
359.0436972711
 20
138.5062730226
 30
0.0
 10
358.9737586035
 20
138.5582128209
 30
0.0
  0
SPLINE
  5
43C
330
224
100
AcDbEntity
  8
02___PRT_ALL_AXES
  6
Continuous
 62
     7
100
AcDbSpline
 70
     0
 71
     3
 72
    12
 73
     8
 74
     0
 42
0.000000001
 43
0.0000001
 40
0.0
 40
0.0
 40
0.0
 40
0.0
 40
0.09895205
 40
0.2132065403
 40
0.4745084093
 40
0.7498407454
 40
1.0
 40
1.0
 40
1.0
 40
1.0
 10
358.9737586035
 20
138.5582128209
 30
0.0
 10
358.8666051791
 20
138.6377900769
 30
0.0
 10
358.6153317576
 20
138.781942523
 30
0.0
 10
358.0156581166
 20
139.0100258785
 30
0.0
 10
357.1434870924
 20
139.1654329143
 30
0.0
 10
356.0781411226
 20
139.1584143284
 30
0.0
 10
355.3751472668
 20
139.0182306962
 30
0.0
 10
355.0576718832
 20
138.9039282479
 30
0.0
  0
SPLINE
  5
43D
330
224
100
AcDbEntity
  8
7_ALL_FEATURES
  6
Continuous
 62
     7
100
AcDbSpline
 70
     0
 71
     3
 72
    32
 73
    28
 74
     0
 42
0.000000001
 43
0.0000001
 40
0.0
 40
0.0
 40
0.0
 40
0.0
 40
0.032920324
 40
0.0637237809
 40
0.0922995389
 40
0.1186319604
 40
0.1427866545
 40
0.1649470072
 40
0.1854372691
 40
0.204736693
 40
0.2234656665
 40
0.2423229546
 40
0.2619889815
 40
0.2830376538
 40
0.305891526
 40
0.3308209762
 40
0.3579648242
 40
0.3873547637
 40
0.4189385824
 40
0.4525984466
 40
0.5253919853
 40
0.603954305
 40
0.6860386019
 40
0.7691658412
 40
0.8507912374
 40
0.9284626903
 40
1.0
 40
1.0
 40
1.0
 40
1.0
 10
351.3746615868
 20
127.0246677814
 30
0.0
 10
352.3606351485
 20
127.3796533892
 30
0.0
 10
354.2480045621
 20
128.1282507821
 30
0.0
 10
356.8935534641
 20
129.4132561648
 30
0.0
 10
359.2397144932
 20
130.8136481381
 30
0.0
 10
361.2644455112
 20
132.3168334195
 30
0.0
 10
362.9489461533
 20
133.9106626817
 30
0.0
 10
364.2764081116
 20
135.5828526074
 30
0.0
 10
365.2310642299
 20
137.3208425696
 30
0.0
 10
365.7972163788
 20
139.1094936194
 30
0.0
 10
365.9620243414
 20
140.9276037502
 30
0.0
 10
365.7213210944
 20
142.7486581428
 30
0.0
 10
365.0820907188
 20
144.5472645297
 30
0.0
 10
364.0580319616
 20
146.3041160656
 30
0.0
 10
362.6644024364
 20
148.0048140395
 30
0.0
 10
360.9166930587
 20
149.6364743561
 30
0.0
 10
358.8318169652
 20
151.1861179616
 30
0.0
 10
356.4292435667
 20
152.6406332538
 30
0.0
 10
353.7312780782
 20
153.9872219456
 30
0.0
 10
349.6670916082
 20
155.6655119407
 30
0.0
 10
344.0182790776
 20
157.3827734745
 30
0.0
 10
336.7125433857
 20
158.7994253276
 30
0.0
 10
328.980181686
 20
159.5681245261
 30
0.0
 10
321.1135133933
 20
159.6593114787
 30
0.0
 10
313.4082683389
 20
159.0695078078
 30
0.0
 10
306.1559260542
 20
157.8222006874
 30
0.0
 10
301.5742996122
 20
156.5197135111
 30
0.0
 10
299.4317357645
 20
155.748314196
 30
0.0
  0
SPLINE
  5
43E
330
224
100
AcDbEntity
  8
7_ALL_FEATURES
  6
Continuous
 62
     7
100
AcDbSpline
 70
     0
 71
     3
 72
    17
 73
    13
 74
     0
 42
0.000000001
 43
0.0000001
 40
0.0
 40
0.0
 40
0.0
 40
0.0
 40
0.121229236
 40
0.2536332214
 40
0.3923726203
 40
0.5320566244
 40
0.6672271111
 40
0.7927956207
 40
0.850649715
 40
0.9046300878
 40
0.9544548121
 40
1.0
 40
1.0
 40
1.0
 40
1.0
 10
310.0728212628
 20
149.8639560764
 30
0.0
 10
311.5130717589
 20
150.3824975748
 30
0.0
 10
314.6124965657
 20
151.2329735858
 30
0.0
 10
319.519861142
 20
151.9755557508
 30
0.0
 10
324.7106078769
 20
152.2182093656
 30
0.0
 10
329.9346661563
 20
151.9482937566
 30
0.0
 10
334.9407099436
 20
151.1792103443
 30
0.0
 10
338.8355435334
 20
150.1270462419
 30
0.0
 10
341.6346361576
 20
149.0474445165
 30
0.0
 10
343.4785188195
 20
148.165982922
 30
0.0
 10
345.1022283204
 20
147.2015651407
 30
0.0
 10
346.0689016696
 20
146.4777758775
 30
0.0
 10
346.5049285194
 20
146.102787701
 30
0.0
  0
SPLINE
  5
43F
330
224
100
AcDbEntity
  8
7_ALL_FEATURES
  6
Continuous
 62
     7
100
AcDbSpline
 70
     0
 71
     3
 72
    13
 73
     9
 74
     0
 42
0.000000001
 43
0.0000001
 40
0.0
 40
0.0
 40
0.0
 40
0.0
 40
0.2890515615
 40
0.5393590037
 40
0.6553082063
 40
0.7685988724
 40
0.8824449612
 40
1.0
 40
1.0
 40
1.0
 40
1.0
 10
346.5049285194
 20
146.102787701
 30
0.0
 10
347.0968449417
 20
145.593732674
 30
0.0
 10
348.1220518695
 20
144.5398249737
 30
0.0
 10
348.9881530762
 20
142.9600333957
 30
0.0
 10
349.2878727544
 20
141.692759919
 30
0.0
 10
349.3287409731
 20
140.7612556173
 30
0.0
 10
349.1904478913
 20
139.8351568298
 30
0.0
 10
348.9848111353
 20
139.2409253051
 30
0.0
 10
348.8568057
 20
138.9503648043
 30
0.0
  0
SPLINE
  5
440
330
224
100
AcDbEntity
  8
7_ALL_FEATURES
  6
Continuous
 62
     7
100
AcDbSpline
 70
     0
 71
     3
 72
     9
 73
     5
 74
     0
 42
0.000000001
 43
0.0000001
 40
0.0
 40
0.0
 40
0.0
 40
0.0
 40
0.2267719332
 40
1.0
 40
1.0
 40
1.0
 40
1.0
 10
348.6728711763
 20
138.5699475474
 30
0.0
 10
348.5300329878
 20
138.2988500512
 30
0.0
 10
347.8117268509
 20
137.1495279453
 30
0.0
 10
346.7976028502
 20
136.208609391
 30
0.0
 10
345.9583500582
 20
135.5862650684
 30
0.0
  0
SPLINE
  5
441
330
224
100
AcDbEntity
  8
02___PRT_ALL_AXES
  6
Continuous
 62
     7
100
AcDbSpline
 70
     0
 71
     3
 72
     9
 73
     5
 74
     0
 42
0.000000001
 43
0.0000001
 40
0.0
 40
0.0
 40
0.0
 40
0.0
 40
0.2439903627
 40
1.0
 40
1.0
 40
1.0
 40
1.0
 10
353.05394132
 20
139.4707814822
 30
0.0
 10
353.0588170154
 20
139.4857493671
 30
0.0
 10
353.0805193535
 20
139.546529763
 30
0.0
 10
353.1089224584
 20
139.6048550409
 30
0.0
 10
353.1333281023
 20
139.6470871263
 30
0.0
  0
SPLINE
  5
442
330
224
100
AcDbEntity
  8
02___PRT_ALL_AXES
  6
Continuous
 62
     7
100
AcDbSpline
 70
     0
 71
     3
 72
     9
 73
     5
 74
     0
 42
0.000000001
 43
0.0000001
 40
0.0
 40
0.0
 40
0.0
 40
0.0
 40
0.2426584275
 40
1.0
 40
1.0
 40
1.0
 40
1.0
 10
353.1333281023
 20
139.6470871263
 30
0.0
 10
353.1411069651
 20
139.6605478487
 30
0.0
 10
353.1744121182
 20
139.7152944671
 30
0.0
 10
353.2125091598
 20
139.7670798278
 30
0.0
 10
353.2433870971
 20
139.8045085827
 30
0.0
  0
SPLINE
  5
443
330
224
100
AcDbEntity
  8
02___PRT_ALL_AXES
  6
Continuous
 62
     7
100
AcDbSpline
 70
     0
 71
     3
 72
     9
 73
     5
 74
     0
 42
0.000000001
 43
0.0000001
 40
0.0
 40
0.0
 40
0.0
 40
0.0
 40
0.4473911428
 40
1.0
 40
1.0
 40
1.0
 40
1.0
 10
353.2433870971
 20
139.8045085827
 30
0.0
 10
353.3692640658
 20
139.9570906079
 30
0.0
 10
353.72416453
 20
140.2358817815
 30
0.0
 10
354.1296772857
 20
140.4177591876
 30
0.0
 10
354.359555332
 20
140.5005234738
 30
0.0
  0
SPLINE
  5
444
330
224
100
AcDbEntity
  8
02___PRT_ALL_AXES
  6
Continuous
 62
     7
100
AcDbSpline
 70
     0
 71
     3
 72
    17
 73
    13
 74
     0
 42
0.000000001
 43
0.0000001
 40
0.0
 40
0.0
 40
0.0
 40
0.0
 40
0.035081831
 40
0.0727769355
 40
0.115033639
 40
0.16294548
 40
0.2765229695
 40
0.4113699228
 40
0.5605157661
 40
0.7148049992
 40
0.8643612917
 40
1.0
 40
1.0
 40
1.0
 40
1.0
 10
297.7822134126
 20
143.0604578631
 30
0.0
 10
297.7837716899
 20
143.1410218535
 30
0.0
 10
297.7593002623
 20
143.309666961
 30
0.0
 10
297.6443430465
 20
143.5509724988
 30
0.0
 10
297.4571648211
 20
143.7801561598
 30
0.0
 10
297.0973968553
 20
144.0825953801
 30
0.0
 10
296.4858035656
 20
144.3976793168
 30
0.0
 10
295.6083778541
 20
144.6614427304
 30
0.0
 10
294.6096384895
 20
144.8109766951
 30
0.0
 10
293.5666837883
 20
144.8340181568
 30
0.0
 10
292.560145278
 20
144.7290134889
 30
0.0
 10
291.9213102906
 20
144.5686138657
 30
0.0
 10
291.6281829602
 20
144.4630775841
 30
0.0
  0
SPLINE
  5
445
330
224
100
AcDbEntity
  8
7_ALL_FEATURES
  6
Continuous
 62
     7
100
AcDbSpline
 70
     0
 71
     3
 72
    15
 73
    11
 74
     0
 42
0.000000001
 43
0.0000001
 40
0.0
 40
0.0
 40
0.0
 40
0.0
 40
0.1207666154
 40
0.2519284312
 40
0.3891024565
 40
0.5274200339
 40
0.6619368662
 40
0.7879907874
 40
0.9016057042
 40
1.0
 40
1.0
 40
1.0
 40
1.0
 10
310.6480012138
 20
149.5164178247
 30
0.0
 10
312.0185683455
 20
149.9905289565
 30
0.0
 10
314.9510799854
 20
150.7721561586
 30
0.0
 10
319.5798179475
 20
151.4645018813
 30
0.0
 10
324.4649580338
 20
151.7061313901
 30
0.0
 10
329.3909959575
 20
151.4854806781
 30
0.0
 10
334.1414656867
 20
150.8126546186
 30
0.0
 10
338.5098765896
 20
149.717404764
 30
0.0
 10
342.3063268158
 20
148.2497767698
 30
0.0
 10
344.5244174214
 20
146.9628503108
 30
0.0
 10
345.4695516433
 20
146.253711806
 30
0.0
  0
SPLINE
  5
446
330
224
100
AcDbEntity
  8
7_ALL_FEATURES
  6
Continuous
 62
     7
100
AcDbSpline
 70
     0
 71
     3
 72
    11
 73
     7
 74
     0
 42
0.000000001
 43
0.0000001
 40
0.0
 40
0.0
 40
0.0
 40
0.0
 40
0.281304705
 40
0.5372126135
 40
0.7738592026
 40
1.0
 40
1.0
 40
1.0
 40
1.0
 10
346.7374966164
 20
145.170278002
 30
0.0
 10
347.0857031018
 20
144.8278469775
 30
0.0
 10
347.7081330124
 20
144.127426582
 30
0.0
 10
348.4186610786
 20
142.9778101946
 30
0.0
 10
348.8448529148
 20
141.7944715799
 30
0.0
 10
348.931080859
 20
140.986040979
 30
0.0
 10
348.9234339582
 20
140.5935136703
 30
0.0
  0
SPLINE
  5
447
330
224
100
AcDbEntity
  8
7_ALL_FEATURES
  6
Continuous
 62
     7
100
AcDbSpline
 70
     0
 71
     3
 72
    15
 73
    11
 74
     0
 42
0.000000001
 43
0.0000001
 40
0.0
 40
0.0
 40
0.0
 40
0.0
 40
0.0903359113
 40
0.1864654507
 40
0.2918342103
 40
0.4086412809
 40
0.5379699288
 40
0.6800260573
 40
0.8343540087
 40
1.0
 40
1.0
 40
1.0
 40
1.0
 10
280.3970205978
 20
140.2583827182
 30
0.0
 10
280.4399285054
 20
139.4575640234
 30
0.0
 10
280.7517160036
 20
137.8102232231
 30
0.0
 10
281.8414722159
 20
135.4371899013
 30
0.0
 10
283.5268776481
 20
133.1488023856
 30
0.0
 10
285.7762771214
 20
130.9694995384
 30
0.0
 10
288.5578040838
 20
128.9206168757
 30
0.0
 10
291.8351326732
 20
127.0256609672
 30
0.0
 10
295.5652748974
 20
125.3081592492
 30
0.0
 10
298.2347437872
 20
124.3281406144
 30
0.0
 10
299.6316246861
 20
123.8685590444
 30
0.0
  0
SPLINE
  5
448
330
224
100
AcDbEntity
  8
7_ALL_FEATURES
  6
Continuous
 62
     7
100
AcDbSpline
 70
     0
 71
     3
 72
    13
 73
     9
 74
     0
 42
0.000000001
 43
0.0000001
 40
0.0
 40
0.0
 40
0.0
 40
0.0
 40
0.1155170106
 40
0.236951603
 40
0.3628153017
 40
0.4914907339
 40
0.7503560358
 40
1.0
 40
1.0
 40
1.0
 40
1.0
 10
299.6316246861
 20
123.8685590444
 30
0.0
 10
301.268752927
 20
123.3299347653
 30
0.0
 10
304.67184384
 20
122.3586322849
 30
0.0
 10
309.9704622537
 20
121.2341850338
 30
0.0
 10
315.5239539162
 20
120.418604244
 30
0.0
 10
323.1592327058
 20
119.7609555709
 30
0.0
 10
332.6869091086
 20
119.7660595387
 30
0.0
 10
340.2448255271
 20
120.6514825998
 30
0.0
 10
343.9056091055
 20
121.337816329
 30
0.0
  0
LINE
  5
449
330
224
100
AcDbEntity
  8
7_ALL_FEATURES
  6
Continuous
 62
     7
100
AcDbLine
 10
343.9056091055
 20
121.337816329
 30
0.0
 11
343.9247125922
 21
121.341400314
 31
0.0
  0
SPLINE
  5
44A
330
224
100
AcDbEntity
  8
7_ALL_FEATURES
  6
Continuous
 62
     7
100
AcDbSpline
 70
     0
 71
     3
 72
     9
 73
     5
 74
     0
 42
0.000000001
 43
0.0000001
 40
0.0
 40
0.0
 40
0.0
 40
0.0
 40
0.2585874593
 40
1.0
 40
1.0
 40
1.0
 40
1.0
 10
347.5512210175
 20
122.1129220644
 30
0.0
 10
348.1356473804
 20
122.252554716
 30
0.0
 10
350.3887276241
 20
122.8209736601
 30
0.0
 10
352.6133466799
 20
123.5053731338
 30
0.0
 10
354.2342971441
 20
124.0889730477
 30
0.0
  0
SPLINE
  5
44B
330
224
100
AcDbEntity
  8
7_ALL_FEATURES
  6
Continuous
 62
     7
100
AcDbSpline
 70
     0
 71
     3
 72
    15
 73
    11
 74
     0
 42
0.000000001
 43
0.0000001
 40
0.0
 40
0.0
 40
0.0
 40
0.0
 40
0.162332534
 40
0.3137362831
 40
0.4536552167
 40
0.5820478013
 40
0.6993478328
 40
0.8066752178
 40
0.9059606576
 40
1.0
 40
1.0
 40
1.0
 40
1.0
 10
354.2342971441
 20
124.0889730477
 30
0.0
 10
355.3746379858
 20
124.4995363758
 30
0.0
 10
357.5531783481
 20
125.3668342335
 30
0.0
 10
360.5960882157
 20
126.8631073019
 30
0.0
 10
363.2756706119
 20
128.4974941474
 30
0.0
 10
365.5648140667
 20
130.2542275097
 30
0.0
 10
367.4402266947
 20
132.1182682606
 30
0.0
 10
368.8810474292
 20
134.0749434615
 30
0.0
 10
369.866979811
 20
136.1068951493
 30
0.0
 10
370.2131035846
 20
137.5225243782
 30
0.0
 10
370.3000421291
 20
138.2192323354
 30
0.0
  0
SPLINE
  5
44C
330
224
100
AcDbEntity
  8
02___PRT_ALL_AXES
  6
Continuous
 62
     7
100
AcDbSpline
 70
     0
 71
     3
 72
    11
 73
     7
 74
     0
 42
0.000000001
 43
0.0000001
 40
0.0
 40
0.0
 40
0.0
 40
0.0
 40
0.3175846002
 40
0.5861194053
 40
0.8081889264
 40
1.0
 40
1.0
 40
1.0
 40
1.0
 10
291.6281829602
 20
144.4630775841
 30
0.0
 10
291.4349201868
 20
144.3934961006
 30
0.0
 10
291.0856760786
 20
144.2410930223
 30
0.0
 10
290.651333191
 20
143.942986119
 30
0.0
 10
290.3625550714
 20
143.5984548071
 30
0.0
 10
290.286081798
 20
143.3301366278
 30
0.0
 10
290.2836826765
 20
143.2061004147
 30
0.0
  0
SPLINE
  5
44D
330
224
100
AcDbEntity
  8
7_ALL_FEATURES
  6
Continuous
 62
     7
100
AcDbSpline
 70
     0
 71
     3
 72
    17
 73
    13
 74
     0
 42
0.000000001
 43
0.0000001
 40
0.0
 40
0.0
 40
0.0
 40
0.0
 40
0.1205335674
 40
0.2520790799
 40
0.3899916605
 40
0.52909313
 40
0.6641172804
 40
0.7901221128
 40
0.8484320761
 40
0.9030247938
 40
0.9536009164
 40
1.0
 40
1.0
 40
1.0
 40
1.0
 10
340.8565405052
 20
98.6434422662
 30
0.0
 10
339.3687656288
 20
98.1077903044
 30
0.0
 10
336.1697855096
 20
97.2255579647
 30
0.0
 10
331.1045279889
 20
96.4446918297
 30
0.0
 10
325.7426498498
 20
96.1720172004
 30
0.0
 10
320.3343137423
 20
96.42110876
 30
0.0
 10
315.1315203845
 20
97.1802445652
 30
0.0
 10
311.0649276989
 20
98.2329888969
 30
0.0
 10
308.1224899938
 20
99.3191398242
 30
0.0
 10
306.1691417078
 20
100.2102777319
 30
0.0
 10
304.4349139187
 20
101.1882045442
 30
0.0
 10
303.3925984083
 20
101.923116018
 30
0.0
 10
302.9181972298
 20
102.3045129541
 30
0.0
  0
SPLINE
  5
44E
330
224
100
AcDbEntity
  8
7_ALL_FEATURES
  6
Continuous
 62
     7
100
AcDbSpline
 70
     0
 71
     3
 72
    20
 73
    16
 74
     0
 42
0.000000001
 43
0.0000001
 40
0.0
 40
0.0
 40
0.0
 40
0.0
 40
0.0539230606
 40
0.1120589548
 40
0.1739378626
 40
0.2389857625
 40
0.3757968149
 40
0.5165831951
 40
0.6549912138
 40
0.7213921013
 40
0.784954105
 40
0.8450509686
 40
0.9011570176
 40
0.9528792944
 40
1.0
 40
1.0
 40
1.0
 40
1.0
 10
298.1622688596
 20
118.4396444858
 30
0.0
 10
299.0979167255
 20
117.9222454727
 30
0.0
 10
301.0985187285
 20
116.9470365357
 30
0.0
 10
304.3173944203
 20
115.7000247547
 30
0.0
 10
307.8298387695
 20
114.6277303714
 30
0.0
 10
312.9236485193
 20
113.4317635734
 30
0.0
 10
319.6675487184
 20
112.4837203298
 30
0.0
 10
327.9255406896
 20
112.2132441924
 30
0.0
 10
334.7752633587
 20
112.7144480161
 30
0.0
 10
340.0306781215
 20
113.5661999968
 30
0.0
 10
343.7082533758
 20
114.4015736943
 30
0.0
 10
347.1242707099
 20
115.4299732532
 30
0.0
 10
350.2315896015
 20
116.6373085976
 30
0.0
 10
352.9868438469
 20
118.0066228505
 30
0.0
 10
354.6424976394
 20
119.0659121451
 30
0.0
 10
355.3928986468
 20
119.6225235575
 30
0.0
  0
SPLINE
  5
44F
330
224
100
AcDbEntity
  8
7_ALL_FEATURES
  6
Continuous
 62
     7
100
AcDbSpline
 70
     0
 71
     3
 72
    24
 73
    20
 74
     0
 42
0.000000001
 43
0.0000001
 40
0.0
 40
0.0
 40
0.0
 40
0.0
 40
0.0655706278
 40
0.1356401073
 40
0.2092143057
 40
0.2851771079
 40
0.3623259876
 40
0.4394210394
 40
0.5152234498
 40
0.5885374733
 40
0.6582532084
 40
0.7233945127
 40
0.783176179
 40
0.8370786367
 40
0.8849534121
 40
0.9271756337
 40
0.9648396186
 40
0.9825909001
 40
1.0
 40
1.0
 40
1.0
 40
1.0
 10
341.435303062
 20
103.4022448258
 30
0.0
 10
340.456759315
 20
103.0499342159
 30
0.0
 10
338.3957398101
 20
102.4211201484
 30
0.0
 10
335.1503675212
 20
101.714535753
 30
0.0
 10
331.6989827164
 20
101.2234004346
 30
0.0
 10
328.1107132823
 20
100.9577402237
 30
0.0
 10
324.4570285967
 20
100.9229880666
 30
0.0
 10
320.8110370337
 20
101.1198626205
 30
0.0
 10
317.2456177813
 20
101.5443909286
 30
0.0
 10
313.8319305624
 20
102.1879637793
 30
0.0
 10
310.6378244323
 20
103.0375957394
 30
0.0
 10
307.7262982543
 20
104.0762888828
 30
0.0
 10
305.1540226519
 20
105.2838019584
 30
0.0
 10
302.9699864514
 20
106.6374845163
 30
0.0
 10
301.2150417489
 20
108.1152381035
 30
0.0
 10
299.9232754299
 20
109.6950516556
 30
0.0
 10
299.2501077486
 20
111.1132911555
 30
0.0
 10
299.0009085646
 20
112.2452779352
 30
0.0
 10
298.9669701324
 20
112.8047252076
 30
0.0
 10
298.972327475
 20
113.0808038054
 30
0.0
  0
SPLINE
  5
450
330
224
100
AcDbEntity
  8
7_ALL_FEATURES
  6
Continuous
 62
     7
100
AcDbSpline
 70
     0
 71
     3
 72
    16
 73
    12
 74
     0
 42
0.000000001
 43
0.0000001
 40
0.0
 40
0.0
 40
0.0
 40
0.0
 40
0.1186967111
 40
0.2479400451
 40
0.3836143354
 40
0.5211077584
 40
0.6556838214
 40
0.782813814
 40
0.8985387944
 40
0.9511885244
 40
1.0
 40
1.0
 40
1.0
 40
1.0
 10
341.513550694
 20
107.4220546246
 30
0.0
 10
340.0567342744
 20
106.897548814
 30
0.0
 10
336.9321167283
 20
106.023592568
 30
0.0
 10
331.9846741836
 20
105.2206597902
 30
0.0
 10
326.7374668335
 20
104.8921139442
 30
0.0
 10
321.4135751532
 20
105.0529287417
 30
0.0
 10
316.237622885
 20
105.6960037814
 30
0.0
 10
311.4292357939
 20
106.7935373178
 30
0.0
 10
307.7838609305
 20
108.0855903366
 30
0.0
 10
305.235456359
 20
109.3292438742
 30
0.0
 10
304.0979630086
 20
110.0104237439
 30
0.0
 10
303.5695169892
 20
110.3656278701
 30
0.0
  0
SPLINE
  5
451
330
224
100
AcDbEntity
  8
7_ALL_FEATURES
  6
Continuous
 62
     7
100
AcDbSpline
 70
     0
 71
     3
 72
    12
 73
     8
 74
     0
 42
0.000000001
 43
0.0000001
 40
0.0
 40
0.0
 40
0.0
 40
0.0
 40
0.2976129056
 40
0.5579204263
 40
0.787528845
 40
0.8949430748
 40
1.0
 40
1.0
 40
1.0
 40
1.0
 10
303.5695169892
 20
110.3656278701
 30
0.0
 10
302.8746279449
 20
110.8327095525
 30
0.0
 10
301.6277677903
 20
111.7997765772
 30
0.0
 10
300.150631288
 20
113.4720368496
 30
0.0
 10
299.3729747307
 20
114.9903699624
 30
0.0
 10
299.0846595684
 20
116.2052731037
 30
0.0
 10
299.0448408383
 20
116.8051109691
 30
0.0
 10
299.050575107
 20
117.1006136042
 30
0.0
  0
SPLINE
  5
452
330
224
100
AcDbEntity
  8
7_ALL_FEATURES
  6
Continuous
 62
     7
100
AcDbSpline
 70
     0
 71
     3
 72
     9
 73
     5
 74
     0
 42
0.000000001
 43
0.0000001
 40
0.0
 40
0.0
 40
0.0
 40
0.0
 40
0.2396218735
 40
1.0
 40
1.0
 40
1.0
 40
1.0
 10
341.591798326
 20
111.4418644234
 30
0.0
 10
341.2264921744
 20
111.3103411947
 30
0.0
 10
339.691745801
 20
110.7900341022
 30
0.0
 10
338.1211676096
 20
110.377876499
 30
0.0
 10
336.9173054256
 20
110.1158524118
 30
0.0
  0
LINE
  5
453
330
224
100
AcDbEntity
  8
7_ALL_FEATURES
  6
Continuous
 62
     7
100
AcDbLine
 10
335.0844910614
 20
109.7570596188
 30
0.0
 11
335.0039776429
 21
109.7430701435
 31
0.0
  0
SPLINE
  5
454
330
224
100
AcDbEntity
  8
7_ALL_FEATURES
  6
Continuous
 62
     7
100
AcDbSpline
 70
     0
 71
     3
 72
    15
 73
    11
 74
     0
 42
0.000000001
 43
0.0000001
 40
0.0
 40
0.0
 40
0.0
 40
0.0
 40
0.131156942
 40
0.2666205783
 40
0.4032723517
 40
0.5379361786
 40
0.6675314456
 40
0.7892298241
 40
0.9006335622
 40
1.0
 40
1.0
 40
1.0
 40
1.0
 10
335.0039776429
 20
109.7430701435
 30
0.0
 10
333.6112600605
 20
109.5023258565
 30
0.0
 10
330.7571855852
 20
109.1389461196
 30
0.0
 10
326.4122391782
 20
108.9336070848
 30
0.0
 10
322.0262509019
 20
109.0610847712
 30
0.0
 10
317.7257180882
 20
109.5177782431
 30
0.0
 10
313.6339839472
 20
110.2902158173
 30
0.0
 10
309.8672108275
 20
111.3561492949
 30
0.0
 10
306.5326008174
 20
112.684371048
 30
0.0
 10
304.5364543579
 20
113.7880895013
 30
0.0
 10
303.6477646212
 20
114.3854376689
 30
0.0
  0
SPLINE
  5
455
330
224
100
AcDbEntity
  8
7_ALL_FEATURES
  6
Continuous
 62
     7
100
AcDbSpline
 70
     0
 71
     3
 72
     9
 73
     5
 74
     0
 42
0.000000001
 43
0.0000001
 40
0.0
 40
0.0
 40
0.0
 40
0.0
 40
0.5305551771
 40
1.0
 40
1.0
 40
1.0
 40
1.0
 10
303.6477646212
 20
114.3854376689
 30
0.0
 10
303.0078957564
 20
114.8155365866
 30
0.0
 10
301.850378518
 20
115.7030973392
 30
0.0
 10
300.8555176174
 20
116.7770828878
 30
0.0
 10
300.4523761711
 20
117.3273992126
 30
0.0
  0
SPLINE
  5
456
330
224
100
AcDbEntity
  8
7_ALL_FEATURES
  6
Continuous
 62
     7
100
AcDbSpline
 70
     0
 71
     3
 72
    11
 73
     7
 74
     0
 42
0.000000001
 43
0.0000001
 40
0.0
 40
0.0
 40
0.0
 40
0.0
 40
0.2201661479
 40
0.4567858379
 40
0.7155695913
 40
1.0
 40
1.0
 40
1.0
 40
1.0
 10
289.7545317295
 20
127.5888800876
 30
0.0
 10
289.8723021543
 20
127.0069735084
 30
0.0
 10
290.2608384993
 20
125.8257471029
 30
0.0
 10
291.2305012567
 20
124.1450755515
 30
0.0
 10
292.5832108443
 20
122.5238829011
 30
0.0
 10
293.6753327736
 20
121.5406342592
 30
0.0
 10
294.273210731
 20
121.060184088
 30
0.0
  0
SPLINE
  5
457
330
224
100
AcDbEntity
  8
7_ALL_FEATURES
  6
Continuous
 62
     7
100
AcDbSpline
 70
     0
 71
     3
 72
    11
 73
     7
 74
     0
 42
0.000000001
 43
0.0000001
 40
0.0
 40
0.0
 40
0.0
 40
0.0
 40
0.2846570516
 40
0.5434345216
 40
0.7799297627
 40
1.0
 40
1.0
 40
1.0
 40
1.0
 10
355.72170338
 20
119.8664126574
 30
0.0
 10
356.3423238758
 20
120.326748406
 30
0.0
 10
357.4792954469
 20
121.2741661629
 30
0.0
 10
358.9005925112
 20
122.8550734502
 30
0.0
 10
359.9351151253
 20
124.5113937391
 30
0.0
 10
360.3646524835
 20
125.6867781815
 30
0.0
 10
360.5014011449
 20
126.2683021141
 30
0.0
  0
SPLINE
  5
458
330
224
100
AcDbEntity
  8
7_ALL_FEATURES
  6
Continuous
 62
     7
100
AcDbSpline
 70
     0
 71
     3
 72
     9
 73
     5
 74
     0
 42
0.000000001
 43
0.0000001
 40
0.0
 40
0.0
 40
0.0
 40
0.0
 40
0.2377179689
 40
1.0
 40
1.0
 40
1.0
 40
1.0
 10
294.5929894038
 20
120.8031094522
 30
0.0
 10
294.8343040286
 20
120.6092047292
 30
0.0
 10
295.8682978577
 20
119.8170425785
 30
0.0
 10
296.9703113871
 20
119.1156218765
 30
0.0
 10
297.8329490462
 20
118.6244333007
 30
0.0
  0
SPLINE
  5
459
330
224
100
AcDbEntity
  8
7_ALL_FEATURES
  6
Continuous
 62
     7
100
AcDbSpline
 70
     0
 71
     3
 72
    11
 73
     7
 74
     0
 42
0.000000001
 43
0.0000001
 40
0.0
 40
0.0
 40
0.0
 40
0.0
 40
0.2898679038
 40
0.5479885854
 40
0.7810460536
 40
1.0
 40
1.0
 40
1.0
 40
1.0
 10
302.280287724
 20
102.8173377066
 30
0.0
 10
301.7498368772
 20
103.2437517037
 30
0.0
 10
300.799381206
 20
104.1205485819
 30
0.0
 10
299.6927494358
 20
105.5988408023
 30
0.0
 10
299.0186945841
 20
107.1429171386
 30
0.0
 10
298.8775304198
 20
108.2126932181
 30
0.0
 10
298.8875710751
 20
108.7266863968
 30
0.0
  0
SPLINE
  5
45A
330
224
100
AcDbEntity
  8
7_ALL_FEATURES
  6
Continuous
 62
     7
100
AcDbSpline
 70
     0
 71
     3
 72
     9
 73
     5
 74
     0
 42
0.000000001
 43
0.0000001
 40
0.0
 40
0.0
 40
0.0
 40
0.0
 40
0.4704107181
 40
1.0
 40
1.0
 40
1.0
 40
1.0
 10
349.3181903086
 20
116.2746270167
 30
0.0
 10
348.8965322517
 20
115.7591451192
 30
0.0
 10
347.878802115
 20
114.7612100688
 30
0.0
 10
346.7164999973
 20
113.944215931
 30
0.0
 10
346.0780984445
 20
113.5510616267
 30
0.0
  0
SPLINE
  5
45B
330
224
100
AcDbEntity
  8
7_ALL_FEATURES
  6
Continuous
 62
     7
100
AcDbSpline
 70
     0
 71
     3
 72
     9
 73
     5
 74
     0
 42
0.000000001
 43
0.0000001
 40
0.0
 40
0.0
 40
0.0
 40
0.0
 40
0.4774691985
 40
1.0
 40
1.0
 40
1.0
 40
1.0
 10
346.0780984445
 20
113.5510616267
 30
0.0
 10
345.4053985543
 20
113.1367849756
 30
0.0
 10
343.9400030366
 20
112.3596755595
 30
0.0
 10
342.4052726491
 20
111.7347441601
 30
0.0
 10
341.591798326
 20
111.4418644234
 30
0.0
  0
SPLINE
  5
45C
330
224
100
AcDbEntity
  8
7_ALL_FEATURES
  6
Continuous
 62
     7
100
AcDbSpline
 70
     0
 71
     3
 72
    12
 73
     8
 74
     0
 42
0.000000001
 43
0.0000001
 40
0.0
 40
0.0
 40
0.0
 40
0.0
 40
0.105019707
 40
0.2123998407
 40
0.4419711957
 40
0.7023079935
 40
1.0
 40
1.0
 40
1.0
 40
1.0
 10
350.7907681167
 20
116.0947141876
 30
0.0
 10
350.7850244827
 20
115.7987289268
 30
0.0
 10
350.7219029211
 20
115.1998880704
 30
0.0
 10
350.3856783988
 20
113.9950786814
 30
0.0
 10
349.5471014226
 20
112.5057003473
 30
0.0
 10
348.001486828
 20
110.8900686421
 30
0.0
 10
346.7143882355
 20
109.9712937767
 30
0.0
 10
345.9998508125
 20
109.5312518279
 30
0.0
  0
SPLINE
  5
45D
330
224
100
AcDbEntity
  8
7_ALL_FEATURES
  6
Continuous
 62
     7
100
AcDbSpline
 70
     0
 71
     3
 72
     9
 73
     5
 74
     0
 42
0.000000001
 43
0.0000001
 40
0.0
 40
0.0
 40
0.0
 40
0.0
 40
0.4774691985
 40
1.0
 40
1.0
 40
1.0
 40
1.0
 10
345.9998508125
 20
109.5312518279
 30
0.0
 10
345.3271509223
 20
109.1169751768
 30
0.0
 10
343.8617554046
 20
108.3398657607
 30
0.0
 10
342.3270250172
 20
107.7149343612
 30
0.0
 10
341.513550694
 20
107.4220546246
 30
0.0
  0
SPLINE
  5
45E
330
224
100
AcDbEntity
  8
7_ALL_FEATURES
  6
Continuous
 62
     7
100
AcDbSpline
 70
     0
 71
     3
 72
    15
 73
    11
 74
     0
 42
0.000000001
 43
0.0000001
 40
0.0
 40
0.0
 40
0.0
 40
0.0
 40
0.0941763075
 40
0.1925318939
 40
0.298576392
 40
0.4148151926
 40
0.5427450516
 40
0.6830013841
 40
0.8356237458
 40
1.0
 40
1.0
 40
1.0
 40
1.0
 10
350.7125204848
 20
112.0749043888
 30
0.0
 10
350.7043433386
 20
111.6535135588
 30
0.0
 10
350.5810459875
 20
110.7908300534
 30
0.0
 10
350.0862738536
 20
109.5385148308
 30
0.0
 10
349.2942552336
 20
108.3317043758
 30
0.0
 10
348.2193163809
 20
107.1825586421
 30
0.0
 10
346.8756272798
 20
106.1006992514
 30
0.0
 10
345.2785380201
 20
105.0960504283
 30
0.0
 10
343.4460797622
 20
104.1792179123
 30
0.0
 10
342.1274478966
 20
103.6514416241
 30
0.0
 10
341.435303062
 20
103.4022448258
 30
0.0
  0
SPLINE
  5
45F
330
224
100
AcDbEntity
  8
7_ALL_FEATURES
  6
Continuous
 62
     7
100
AcDbSpline
 70
     0
 71
     3
 72
    11
 73
     7
 74
     0
 42
0.000000001
 43
0.0000001
 40
0.0
 40
0.0
 40
0.0
 40
0.0
 40
0.2189432984
 40
0.4519961495
 40
0.7101167806
 40
1.0
 40
1.0
 40
1.0
 40
1.0
 10
350.627740445
 20
107.7194388445
 30
0.0
 10
350.6176981567
 20
107.2053620845
 30
0.0
 10
350.4350491632
 20
106.1416982385
 30
0.0
 10
349.7011138526
 20
104.6247892703
 30
0.0
 10
348.5373962916
 20
103.1904688459
 30
0.0
 10
347.5531670357
 20
102.3512871353
 30
0.0
 10
347.0063609946
 20
101.9457568031
 30
0.0
  0
SPLINE
  5
460
330
224
100
AcDbEntity
  8
7_ALL_FEATURES
  6
Continuous
 62
     7
100
AcDbSpline
 70
     0
 71
     3
 72
     9
 73
     5
 74
     0
 42
0.000000001
 43
0.0000001
 40
0.0
 40
0.0
 40
0.0
 40
0.0
 40
0.4710379772
 40
1.0
 40
1.0
 40
1.0
 40
1.0
 10
346.347841838
 20
101.4573035552
 30
0.0
 10
345.6474486389
 20
100.9379241447
 30
0.0
 10
344.0608160557
 20
99.9683735433
 30
0.0
 10
342.3647578024
 20
99.2160963897
 30
0.0
 10
341.4508362164
 20
98.8646118433
 30
0.0
  0
SPLINE
  5
461
330
224
100
AcDbEntity
  8
7_ALL_FEATURES
  6
Continuous
 62
     7
100
AcDbSpline
 70
     0
 71
     3
 72
     9
 73
     5
 74
     0
 42
0.000000001
 43
0.0000001
 40
0.0
 40
0.0
 40
0.0
 40
0.0
 40
0.2483018586
 40
1.0
 40
1.0
 40
1.0
 40
1.0
 10
299.004930655
 20
114.7557245549
 30
0.0
 10
299.0070543571
 20
114.8651647645
 30
0.0
 10
299.0294122297
 20
115.3055745368
 30
0.0
 10
299.107844795
 20
115.7428863769
 30
0.0
 10
299.1952072656
 20
116.0625399717
 30
0.0
  0
SPLINE
  5
462
330
224
100
AcDbEntity
  8
7_ALL_FEATURES
  6
Continuous
 62
     7
100
AcDbSpline
 70
     0
 71
     3
 72
     9
 73
     5
 74
     0
 42
0.000000001
 43
0.0000001
 40
0.0
 40
0.0
 40
0.0
 40
0.0
 40
0.2483018586
 40
1.0
 40
1.0
 40
1.0
 40
1.0
 10
298.926683023
 20
110.7359147561
 30
0.0
 10
298.9288067251
 20
110.8453549656
 30
0.0
 10
298.9511645977
 20
111.285764738
 30
0.0
 10
299.029597163
 20
111.7230765781
 30
0.0
 10
299.1169596336
 20
112.0427301728
 30
0.0
  0
SPLINE
  5
463
330
224
100
AcDbEntity
  8
0
  6
Continuous
 62
     7
100
AcDbSpline
 70
     0
 71
     3
 72
    11
 73
     7
 74
     0
 42
0.000000001
 43
0.0000001
 40
0.0
 40
0.0
 40
0.0
 40
0.0
 40
0.244204253
 40
0.5120379995
 40
0.7734639515
 40
1.0
 40
1.0
 40
1.0
 40
1.0
 10
355.0983799951
 20
138.3776491706
 30
0.0
 10
355.3819095415
 20
138.4743949158
 30
0.0
 10
356.0027364289
 20
138.6006422418
 30
0.0
 10
356.9551672515
 20
138.6267732433
 30
0.0
 10
357.8774158712
 20
138.5007489297
 30
0.0
 10
358.4515608112
 20
138.3078226469
 30
0.0
 10
358.6976890808
 20
138.178777119
 30
0.0
  0
SPLINE
  5
464
330
224
100
AcDbEntity
  8
0
  6
Continuous
 62
     7
100
AcDbSpline
 70
     0
 71
     3
 72
    11
 73
     7
 74
     0
 42
0.000000001
 43
0.0000001
 40
0.0
 40
0.0
 40
0.0
 40
0.0
 40
0.244204253
 40
0.5120379995
 40
0.7734639515
 40
1.0
 40
1.0
 40
1.0
 40
1.0
 10
292.357878733
 20
141.8712254711
 30
0.0
 10
292.6414082793
 20
141.9679712162
 30
0.0
 10
293.2622351668
 20
142.0942185422
 30
0.0
 10
294.2146659894
 20
142.1203495438
 30
0.0
 10
295.1369146091
 20
141.9943252302
 30
0.0
 10
295.7110595491
 20
141.8013989473
 30
0.0
 10
295.9571878186
 20
141.6723534194
 30
0.0
  0
SPLINE
  5
465
330
224
100
AcDbEntity
  8
7_ALL_FEATURES
  6
Continuous
 62
     7
100
AcDbSpline
 70
     0
 71
     3
 72
    20
 73
    16
 74
     0
 42
0.000000001
 43
0.0000001
 40
0.0
 40
0.0
 40
0.0
 40
0.0
 40
0.0541679234
 40
0.1124259044
 40
0.1743158717
 40
0.2392752814
 40
0.3756958185
 40
0.5159720079
 40
0.6539693067
 40
0.7202660889
 40
0.7838212234
 40
0.8440241626
 40
0.9003577086
 40
0.9524273911
 40
1.0
 40
1.0
 40
1.0
 40
1.0
 10
298.1784624904
 20
118.5087232131
 30
0.0
 10
299.1224297957
 20
117.9998983652
 30
0.0
 10
301.1348862002
 20
117.0410025158
 30
0.0
 10
304.363675529
 20
115.8142752947
 30
0.0
 10
307.8763885618
 20
114.7599155129
 30
0.0
 10
312.9570701745
 20
113.5846626253
 30
0.0
 10
319.6720024751
 20
112.651369705
 30
0.0
 10
327.8908037868
 20
112.3814124919
 30
0.0
 10
334.7099600283
 20
112.8685956698
 30
0.0
 10
339.9497517805
 20
113.6997703653
 30
0.0
 10
343.6252803076
 20
114.5166325253
 30
0.0
 10
347.0485115019
 20
115.5235801088
 30
0.0
 10
350.1735920476
 20
116.7072137431
 30
0.0
 10
352.9582028006
 20
118.0513710412
 30
0.0
 10
354.6407187198
 20
119.0911625433
 30
0.0
 10
355.4075371167
 20
119.6379527555
 30
0.0
  0
SPLINE
  5
466
330
224
100
AcDbEntity
  8
7_ALL_FEATURES
  6
Continuous
 62
     7
100
AcDbSpline
 70
     0
 71
     3
 72
    24
 73
    20
 74
     0
 42
0.000000001
 43
0.0000001
 40
0.0
 40
0.0
 40
0.0
 40
0.0
 40
0.0655706278
 40
0.1356401073
 40
0.2092143057
 40
0.2851771079
 40
0.3623259876
 40
0.4394210394
 40
0.5152234498
 40
0.5885374733
 40
0.6582532084
 40
0.7233945127
 40
0.783176179
 40
0.8370786367
 40
0.8849534121
 40
0.9271756337
 40
0.9648396186
 40
0.9825909001
 40
1.0
 40
1.0
 40
1.0
 40
1.0
 10
341.467906242
 20
105.0771655753
 30
0.0
 10
340.4893624949
 20
104.7248549654
 30
0.0
 10
338.4283429901
 20
104.0960408979
 30
0.0
 10
335.1829707012
 20
103.3894565025
 30
0.0
 10
331.7315858964
 20
102.8983211841
 30
0.0
 10
328.1433164623
 20
102.6326609732
 30
0.0
 10
324.4896317767
 20
102.5979088162
 30
0.0
 10
320.8436402137
 20
102.79478337
 30
0.0
 10
317.2782209613
 20
103.2193116782
 30
0.0
 10
313.8645337424
 20
103.8628845288
 30
0.0
 10
310.6704276123
 20
104.7125164889
 30
0.0
 10
307.7589014343
 20
105.7512096323
 30
0.0
 10
305.1866258319
 20
106.958722708
 30
0.0
 10
303.0025896314
 20
108.3124052658
 30
0.0
 10
301.2476449289
 20
109.7901588531
 30
0.0
 10
299.9558786099
 20
111.3699724051
 30
0.0
 10
299.2827109286
 20
112.7882119051
 30
0.0
 10
299.0335117446
 20
113.9201986848
 30
0.0
 10
298.9995733124
 20
114.4796459571
 30
0.0
 10
299.004930655
 20
114.7557245549
 30
0.0
  0
SPLINE
  5
467
330
224
100
AcDbEntity
  8
7_ALL_FEATURES
  6
Continuous
 62
     7
100
AcDbSpline
 70
     0
 71
     3
 72
    24
 73
    20
 74
     0
 42
0.000000001
 43
0.0000001
 40
0.0
 40
0.0
 40
0.0
 40
0.0
 40
0.0655706278
 40
0.1356401073
 40
0.2092143057
 40
0.2851771079
 40
0.3623259876
 40
0.4394210394
 40
0.5152234498
 40
0.5885374733
 40
0.6582532084
 40
0.7233945127
 40
0.783176179
 40
0.8370786367
 40
0.8849534121
 40
0.9271756337
 40
0.9648396186
 40
0.9825909001
 40
1.0
 40
1.0
 40
1.0
 40
1.0
 10
341.38965861
 20
101.0573557764
 30
0.0
 10
340.411114863
 20
100.7050451665
 30
0.0
 10
338.3500953582
 20
100.0762310991
 30
0.0
 10
335.1047230692
 20
99.3696467037
 30
0.0
 10
331.6533382644
 20
98.8785113852
 30
0.0
 10
328.0650688303
 20
98.6128511744
 30
0.0
 10
324.4113841447
 20
98.5780990173
 30
0.0
 10
320.7653925817
 20
98.7749735711
 30
0.0
 10
317.1999733293
 20
99.1995018793
 30
0.0
 10
313.7862861104
 20
99.84307473
 30
0.0
 10
310.5921799804
 20
100.6927066901
 30
0.0
 10
307.6806538023
 20
101.7313998335
 30
0.0
 10
305.1083781999
 20
102.9389129091
 30
0.0
 10
302.9243419995
 20
104.292595467
 30
0.0
 10
301.1693972969
 20
105.7703490542
 30
0.0
 10
299.8776309779
 20
107.3501626063
 30
0.0
 10
299.2044632966
 20
108.7684021062
 30
0.0
 10
298.9552641126
 20
109.9003888859
 30
0.0
 10
298.9213256805
 20
110.4598361583
 30
0.0
 10
298.926683023
 20
110.7359147561
 30
0.0
  0
SPLINE
  5
468
330
224
100
AcDbEntity
  8
7_ALL_FEATURES
  6
Continuous
 62
     7
100
AcDbSpline
 70
     0
 71
     3
 72
    17
 73
    13
 74
     0
 42
0.000000001
 43
0.0000001
 40
0.0
 40
0.0
 40
0.0
 40
0.0
 40
0.1207503466
 40
0.2516179008
 40
0.3883485359
 40
0.5262322269
 40
0.6604805323
 40
0.7865684432
 40
0.8453322631
 40
0.9006785827
 40
0.9522996309
 40
1.0
 40
1.0
 40
1.0
 40
1.0
 10
340.8115636591
 20
98.8588809756
 30
0.0
 10
339.3190973593
 20
98.35153866
 30
0.0
 10
336.1325417505
 20
97.5143787198
 30
0.0
 10
331.109510789
 20
96.7710705847
 30
0.0
 10
325.8144714007
 20
96.5097347551
 30
0.0
 10
320.4742399057
 20
96.7423425614
 30
0.0
 10
315.3173867189
 20
97.4587819014
 30
0.0
 10
311.2623544875
 20
98.4548339796
 30
0.0
 10
308.2982494583
 20
99.4838609104
 30
0.0
 10
306.3058886338
 20
100.3324429044
 30
0.0
 10
304.5134501638
 20
101.2665603009
 30
0.0
 10
303.4201370293
 20
101.9682760768
 30
0.0
 10
302.9155878723
 20
102.3332334768
 30
0.0
  0
SPLINE
  5
469
330
224
100
AcDbEntity
  8
7_ALL_FEATURES
  6
Continuous
 62
     7
100
AcDbSpline
 70
     0
 71
     3
 72
    22
 73
    18
 74
     0
 42
0.000000001
 43
0.0000001
 40
0.0
 40
0.0
 40
0.0
 40
0.0
 40
0.0645689352
 40
0.133462684
 40
0.2057652265
 40
0.2804545196
 40
0.432456683
 40
0.5075503834
 40
0.5805148817
 40
0.6503011198
 40
0.715968349
 40
0.7767309114
 40
0.8320173855
 40
0.881551479
 40
0.925468021
 40
0.9644718331
 40
1.0
 40
1.0
 40
1.0
 40
1.0
 10
341.546153874
 20
109.0969753741
 30
0.0
 10
340.5995949095
 20
108.7561804254
 30
0.0
 10
338.6086534367
 20
108.14529463
 30
0.0
 10
335.4759995618
 20
107.4508231675
 30
0.0
 10
332.1457877408
 20
106.9577845768
 30
0.0
 10
327.5001700643
 20
106.5800455969
 30
0.0
 10
322.7839238487
 20
106.6383655466
 30
0.0
 10
318.132194304
 20
107.1287224622
 30
0.0
 10
314.7842353253
 20
107.7032645627
 30
0.0
 10
311.6269055903
 20
108.4745675395
 30
0.0
 10
308.7186114361
 20
109.4282627836
 30
0.0
 10
306.1128610346
 20
110.5466344258
 30
0.0
 10
303.8567326717
 20
111.8097515
 30
0.0
 10
301.9901257984
 20
113.1963962612
 30
0.0
 10
300.5462400529
 20
114.6873026624
 30
0.0
 10
299.5552188591
 20
116.2630353388
 30
0.0
 10
299.210848115
 20
117.3918344088
 30
0.0
 10
299.1338084331
 20
117.9400065933
 30
0.0
  0
SPLINE
  5
46A
330
224
100
AcDbEntity
  8
7_ALL_FEATURES
  6
Continuous
 62
     7
100
AcDbSpline
 70
     0
 71
     3
 72
    15
 73
    11
 74
     0
 42
0.000000001
 43
0.0000001
 40
0.0
 40
0.0
 40
0.0
 40
0.0
 40
0.1174147676
 40
0.2450248302
 40
0.3790880401
 40
0.5153965663
 40
0.649600072
 40
0.77748638
 40
0.8952807188
 40
1.0
 40
1.0
 40
1.0
 40
1.0
 10
341.6276618239
 20
113.2842772479
 30
0.0
 10
340.2284500991
 20
112.7805111795
 30
0.0
 10
337.2332721651
 20
111.9337584917
 30
0.0
 10
332.4914960047
 20
111.1342522078
 30
0.0
 10
327.4564011238
 20
110.7731372428
 30
0.0
 10
322.3262876846
 20
110.8656607519
 30
0.0
 10
317.3025212538
 20
111.4079284775
 30
0.0
 10
312.5812424729
 20
112.3784154415
 30
0.0
 10
308.3471808657
 20
113.7376131838
 30
0.0
 10
305.7872472717
 20
114.9476588443
 30
0.0
 10
304.6452953621
 20
115.6222859821
 30
0.0
  0
SPLINE
  5
46B
330
224
100
AcDbEntity
  8
7_ALL_FEATURES
  6
Continuous
 62
     7
100
AcDbSpline
 70
     0
 71
     3
 72
    10
 73
     6
 74
     0
 42
0.000000001
 43
0.0000001
 40
0.0
 40
0.0
 40
0.0
 40
0.0
 40
0.2417657794
 40
0.4919756519
 40
1.0
 40
1.0
 40
1.0
 40
1.0
 10
315.061898931
 20
113.1806475737
 30
0.0
 10
316.1275736074
 20
112.9366820292
 30
0.0
 10
318.3166655907
 20
112.5259303762
 30
0.0
 10
322.8110099446
 20
112.0083392555
 30
0.0
 10
326.2530563955
 20
111.9592117221
 30
0.0
 10
328.5470626428
 20
112.0810893831
 30
0.0
  0
SPLINE
  5
46C
330
224
100
AcDbEntity
  8
7_ALL_FEATURES
  6
Continuous
 62
     7
100
AcDbSpline
 70
     0
 71
     3
 72
     9
 73
     5
 74
     0
 42
0.000000001
 43
0.0000001
 40
0.0
 40
0.0
 40
0.0
 40
0.0
 40
0.2558597861
 40
1.0
 40
1.0
 40
1.0
 40
1.0
 10
328.5470626428
 20
112.0810893831
 30
0.0
 10
329.0734395991
 20
112.1090551274
 30
0.0
 10
331.1287777602
 20
112.2507923792
 30
0.0
 10
333.1759170206
 20
112.5224264215
 30
0.0
 10
334.682206867
 20
112.8077179017
 30
0.0
  0
SPLINE
  5
46D
330
224
100
AcDbEntity
  8
7_ALL_FEATURES
  6
Continuous
 62
     7
100
AcDbSpline
 70
     0
 71
     3
 72
    17
 73
    13
 74
     0
 42
0.000000001
 43
0.0000001
 40
0.0
 40
0.0
 40
0.0
 40
0.0
 40
0.0440669303
 40
0.0925686156
 40
0.1454538763
 40
0.2024807816
 40
0.32723616
 40
0.4626371938
 40
0.6033461253
 40
0.7435581739
 40
0.8775074003
 40
1.0
 40
1.0
 40
1.0
 40
1.0
 10
303.9074006402
 20
114.1640315391
 30
0.0
 10
304.302653941
 20
113.7793595086
 30
0.0
 10
305.1949825339
 20
113.0340274228
 30
0.0
 10
306.7232414664
 20
112.0389662815
 30
0.0
 10
308.485797682
 20
111.1247214414
 30
0.0
 10
311.2001296101
 20
109.9955202221
 30
0.0
 10
315.0250683335
 20
108.8854474056
 30
0.0
 10
319.9826768311
 20
108.0563273647
 30
0.0
 10
325.1926911455
 20
107.7364637048
 30
0.0
 10
330.3904821759
 20
107.9424237133
 30
0.0
 10
335.3116981671
 20
108.6628488585
 30
0.0
 10
338.4203450467
 20
109.5084925205
 30
0.0
 10
339.8628183149
 20
110.0278342857
 30
0.0
  0
SPLINE
  5
46E
330
224
100
AcDbEntity
  8
7_ALL_FEATURES
  6
Continuous
 62
     7
100
AcDbSpline
 70
     0
 71
     3
 72
    11
 73
     7
 74
     0
 42
0.000000001
 43
0.0000001
 40
0.0
 40
0.0
 40
0.0
 40
0.0
 40
0.2465854243
 40
0.5009786705
 40
0.7548755391
 40
1.0
 40
1.0
 40
1.0
 40
1.0
 10
316.641445777
 20
105.7028512772
 30
0.0
 10
317.9843964834
 20
105.4248058389
 30
0.0
 10
320.7438825853
 20
105.0030288645
 30
0.0
 10
324.9403984405
 20
104.754738376
 30
0.0
 10
329.134137274
 20
104.8843049882
 30
0.0
 10
331.893494586
 20
105.2286603006
 30
0.0
 10
333.235359262
 20
105.4695007783
 30
0.0
  0
SPLINE
  5
46F
330
224
100
AcDbEntity
  8
7_ALL_FEATURES
  6
Continuous
 62
     7
100
AcDbSpline
 70
     0
 71
     3
 72
    11
 73
     7
 74
     0
 42
0.000000001
 43
0.0000001
 40
0.0
 40
0.0
 40
0.0
 40
0.0
 40
0.2465854243
 40
0.5009786705
 40
0.7548755391
 40
1.0
 40
1.0
 40
1.0
 40
1.0
 10
316.563198145
 20
101.6830414784
 30
0.0
 10
317.9061488514
 20
101.40499604
 30
0.0
 10
320.6656349533
 20
100.9832190656
 30
0.0
 10
324.8621508085
 20
100.7349285772
 30
0.0
 10
329.055889642
 20
100.8644951894
 30
0.0
 10
331.8152469541
 20
101.2088505017
 30
0.0
 10
333.15711163
 20
101.4496909795
 30
0.0
  0
SPLINE
  5
470
330
224
100
AcDbEntity
  8
7_ALL_FEATURES
  6
Continuous
 62
     7
100
AcDbSpline
 70
     0
 71
     3
 72
    11
 73
     7
 74
     0
 42
0.000000001
 43
0.0000001
 40
0.0
 40
0.0
 40
0.0
 40
0.0
 40
0.2182636683
 40
0.4578151201
 40
0.7187567595
 40
1.0
 40
1.0
 40
1.0
 40
1.0
 10
346.0107673383
 20
113.5209857727
 30
0.0
 10
345.6344921218
 20
113.1653896575
 30
0.0
 10
344.7886823416
 20
112.4783711046
 30
0.0
 10
343.3452414576
 20
111.5655210255
 30
0.0
 10
341.685697789
 20
110.7326438455
 30
0.0
 10
340.4904811279
 20
110.2538152591
 30
0.0
 10
339.8628183149
 20
110.0278342857
 30
0.0
  0
SPLINE
  5
471
330
224
100
AcDbEntity
  8
7_ALL_FEATURES
  6
Continuous
 62
     7
100
AcDbSpline
 70
     0
 71
     3
 72
     9
 73
     5
 74
     0
 42
0.000000001
 43
0.0000001
 40
0.0
 40
0.0
 40
0.0
 40
0.0
 40
0.2381409428
 40
1.0
 40
1.0
 40
1.0
 40
1.0
 10
294.5921842917
 20
120.8089906783
 30
0.0
 10
294.838816616
 20
120.6186147197
 30
0.0
 10
295.8920802573
 20
119.84205634
 30
0.0
 10
297.008857878
 20
119.1534053587
 30
0.0
 10
297.8811203624
 20
118.6710574994
 30
0.0
  0
SPLINE
  5
472
330
224
100
AcDbEntity
  8
7_ALL_FEATURES
  6
Continuous
 62
     7
100
AcDbSpline
 70
     0
 71
     3
 72
     9
 73
     5
 74
     0
 42
0.000000001
 43
0.0000001
 40
0.0
 40
0.0
 40
0.0
 40
0.0
 40
0.473878338
 40
1.0
 40
1.0
 40
1.0
 40
1.0
 10
346.3412685974
 20
101.4792067333
 30
0.0
 10
345.6095165921
 20
100.9931154523
 30
0.0
 10
343.9848171179
 20
100.0871368565
 30
0.0
 10
342.2682103685
 20
99.3778467719
 30
0.0
 10
341.3505347941
 20
99.047450877
 30
0.0
  0
SPLINE
  5
473
330
224
100
AcDbEntity
  8
7_ALL_FEATURES
  6
Continuous
 62
     7
100
AcDbSpline
 70
     0
 71
     3
 72
     9
 73
     5
 74
     0
 42
0.000000001
 43
0.0000001
 40
0.0
 40
0.0
 40
0.0
 40
0.0
 40
0.2375736705
 40
1.0
 40
1.0
 40
1.0
 40
1.0
 10
345.1624028184
 20
114.8445881121
 30
0.0
 10
344.8931169666
 20
114.6989521248
 30
0.0
 10
343.7462120023
 20
114.1108244823
 30
0.0
 10
342.5520605957
 20
113.6170937377
 30
0.0
 10
341.6276618239
 20
113.2842772479
 30
0.0
  0
SPLINE
  5
474
330
224
100
AcDbEntity
  8
7_ALL_FEATURES
  6
Continuous
 62
     7
100
AcDbSpline
 70
     0
 71
     3
 72
    14
 73
    10
 74
     0
 42
0.000000001
 43
0.0000001
 40
0.0
 40
0.0
 40
0.0
 40
0.0
 40
0.0951651486
 40
0.1967710632
 40
0.3065172565
 40
0.4255194596
 40
0.554359649
 40
0.6932312392
 40
1.0
 40
1.0
 40
1.0
 40
1.0
 10
350.5582540562
 20
116.2119359121
 30
0.0
 10
350.4426429808
 20
115.8544453218
 30
0.0
 10
350.1306427656
 20
115.1374547176
 30
0.0
 10
349.4639678352
 20
114.1218719003
 30
0.0
 10
348.5942406091
 20
113.1444992775
 30
0.0
 10
347.5296166936
 20
112.2126755947
 30
0.0
 10
346.2791198879
 20
111.3323709531
 30
0.0
 10
344.3118351028
 20
110.1990911348
 30
0.0
 10
342.6856953224
 20
109.5072508921
 30
0.0
 10
341.546153874
 20
109.0969753741
 30
0.0
  0
SPLINE
  5
475
330
224
100
AcDbEntity
  8
7_ALL_FEATURES
  6
Continuous
 62
     7
100
AcDbSpline
 70
     0
 71
     3
 72
     9
 73
     5
 74
     0
 42
0.000000001
 43
0.0000001
 40
0.0
 40
0.0
 40
0.0
 40
0.0
 40
0.2475944727
 40
1.0
 40
1.0
 40
1.0
 40
1.0
 10
350.7451236648
 20
113.7498251383
 30
0.0
 10
350.7425883639
 20
113.6191741125
 30
0.0
 10
350.7126475921
 20
113.091985357
 30
0.0
 10
350.602197884
 20
112.5699644552
 30
0.0
 10
350.4800064243
 20
112.1921261133
 30
0.0
  0
SPLINE
  5
476
330
224
100
AcDbEntity
  8
7_ALL_FEATURES
  6
Continuous
 62
     7
100
AcDbSpline
 70
     0
 71
     3
 72
    14
 73
    10
 74
     0
 42
0.000000001
 43
0.0000001
 40
0.0
 40
0.0
 40
0.0
 40
0.0
 40
0.0951651486
 40
0.1967710632
 40
0.3065172565
 40
0.4255194596
 40
0.554359649
 40
0.6932312392
 40
1.0
 40
1.0
 40
1.0
 40
1.0
 10
350.4800064243
 20
112.1921261133
 30
0.0
 10
350.3643953488
 20
111.834635523
 30
0.0
 10
350.0523951336
 20
111.1176449188
 30
0.0
 10
349.3857202033
 20
110.1020621015
 30
0.0
 10
348.5159929771
 20
109.1246894787
 30
0.0
 10
347.4513690617
 20
108.1928657959
 30
0.0
 10
346.200872256
 20
107.3125611542
 30
0.0
 10
344.2335874708
 20
106.179281336
 30
0.0
 10
342.6074476904
 20
105.4874410933
 30
0.0
 10
341.467906242
 20
105.0771655753
 30
0.0
  0
SPLINE
  5
477
330
224
100
AcDbEntity
  8
7_ALL_FEATURES
  6
Continuous
 62
     7
100
AcDbSpline
 70
     0
 71
     3
 72
    15
 73
    11
 74
     0
 42
0.000000001
 43
0.0000001
 40
0.0
 40
0.0
 40
0.0
 40
0.0
 40
0.0941763075
 40
0.1925318939
 40
0.298576392
 40
0.4148151926
 40
0.5427450516
 40
0.6830013841
 40
0.8356237458
 40
1.0
 40
1.0
 40
1.0
 40
1.0
 10
350.6668760328
 20
109.7300153395
 30
0.0
 10
350.6586988867
 20
109.3086245095
 30
0.0
 10
350.5354015356
 20
108.4459410041
 30
0.0
 10
350.0406294016
 20
107.1936257815
 30
0.0
 10
349.2486107817
 20
105.9868153264
 30
0.0
 10
348.1736719289
 20
104.8376695928
 30
0.0
 10
346.8299828278
 20
103.7558102021
 30
0.0
 10
345.2328935681
 20
102.751161379
 30
0.0
 10
343.4004353102
 20
101.834328863
 30
0.0
 10
342.0818034446
 20
101.3065525748
 30
0.0
 10
341.38965861
 20
101.0573557764
 30
0.0
  0
SPLINE
  5
478
330
224
100
AcDbEntity
  8
0
  6
Continuous
 62
     7
100
AcDbSpline
 70
     0
 71
     3
 72
     9
 73
     5
 74
     0
 42
0.000000001
 43
0.0000001
 40
0.0
 40
0.0
 40
0.0
 40
0.0
 40
0.2418188122
 40
1.0
 40
1.0
 40
1.0
 40
1.0
 10
292.0473907564
 20
141.7456000685
 30
0.0
 10
292.0678033829
 20
141.7553638297
 30
0.0
 10
292.1527789839
 20
141.7945595254
 30
0.0
 10
292.239825972
 20
141.8292101704
 30
0.0
 10
292.3065762879
 20
141.8532426612
 30
0.0
  0
SPLINE
  5
479
330
224
100
AcDbEntity
  8
0
  6
Continuous
 62
     7
100
AcDbSpline
 70
     0
 71
     3
 72
     9
 73
     5
 74
     0
 42
0.000000001
 43
0.0000001
 40
0.0
 40
0.0
 40
0.0
 40
0.0
 40
0.2418188122
 40
1.0
 40
1.0
 40
1.0
 40
1.0
 10
354.7878920185
 20
138.2520237681
 30
0.0
 10
354.8083046451
 20
138.2617875293
 30
0.0
 10
354.8932802461
 20
138.3009832249
 30
0.0
 10
354.9803272341
 20
138.3356338699
 30
0.0
 10
355.0470775501
 20
138.3596663607
 30
0.0
  0
ENDSEC
  0
SECTION
  2
OBJECTS
  0
DICTIONARY
  5
C
330
0
100
AcDbDictionary
281
     1
  3
ACAD_GROUP
350
D
  3
ACAD_IMAGE_VARS
350
4C3
  3
ACAD_LAYOUT
350
1A
  3
ACAD_MLINESTYLE
350
17
  3
ACAD_PLOTSETTINGS
350
19
  3
ACAD_PLOTSTYLENAME
350
E
  3
ACAD_SCALELIST
350
47F
  3
APPDATA
350
4C1
  3
DWGPROPS
350
508
  0
DICTIONARY
  5
D
102
{ACAD_REACTORS
330
C
102
}
330
C
100
AcDbDictionary
281
     1
  0
RASTERVARIABLES
  5
4C3
102
{ACAD_REACTORS
330
C
102
}
330
C
100
AcDbRasterVariables
 90
        0
 70
     1
 71
     1
 72
     1
  0
DICTIONARY
  5
1A
102
{ACAD_REACTORS
330
C
102
}
330
C
100
AcDbDictionary
281
     1
  3
Layout1
350
47C
  3
Model
350
47B
  0
DICTIONARY
  5
17
102
{ACAD_REACTORS
330
C
102
}
330
C
100
AcDbDictionary
281
     1
  3
Standard
350
18
  0
DICTIONARY
  5
19
102
{ACAD_REACTORS
330
C
102
}
330
C
100
AcDbDictionary
281
     1
  0
ACDBDICTIONARYWDFLT
  5
E
102
{ACAD_REACTORS
330
C
102
}
330
C
100
AcDbDictionary
281
     1
  3
Normal
350
F
100
AcDbDictionaryWithDefault
340
F
  0
DICTIONARY
  5
47F
102
{ACAD_REACTORS
330
C
102
}
330
C
100
AcDbDictionary
281
     1
  3
A0
350
480
  3
A1
350
481
  3
A2
350
482
  3
A3
350
483
  3
A4
350
484
  3
A5
350
485
  3
A6
350
486
  3
A7
350
487
  3
A8
350
488
  3
A9
350
489
  3
B0
350
48A
  3
B1
350
48B
  3
B2
350
48C
  3
B3
350
48D
  3
B4
350
48E
  3
B5
350
48F
  3
B6
350
490
  3
B7
350
491
  3
B8
350
492
  3
B9
350
493
  3
C0
350
494
  3
C1
350
495
  3
C2
350
496
  3
C3
350
497
  3
C4
350
498
  3
C5
350
499
  3
C6
350
49A
  3
C7
350
49B
  3
C8
350
49C
  3
C9
350
49D
  3
D0
350
49E
  3
D1
350
49F
  3
D2
350
4A0
  0
DICTIONARY
  5
4C1
102
{ACAD_REACTORS
330
C
102
}
330
C
100
AcDbDictionary
281
     1
  0
XRECORD
  5
508
102
{ACAD_REACTORS
330
C
102
}
330
C
100
AcDbXrecord
280
     1
  1
DWGPROPS COOKIE
  2

  3

  4

  6

  7

  8
umberto.novello
  9

300
=
301
=
302
=
303
=
304
=
305
=
306
=
307
=
308
=
309
=
 40
0.0
 41
0.0
 42
2458444.380656111
  1

 90
        0
  0
LAYOUT
  5
47C
102
{ACAD_REACTORS
330
1A
102
}
330
1A
100
AcDbPlotSettings
  1

  2
none_device
  4
ISO_A3_(420.00_x_297.00_MM)
  6

 40
0.0
 41
0.0
 42
0.0
 43
0.0
 44
420.0
 45
297.0
 46
0.0
 47
0.0
 48
0.0
 49
0.0
140
0.0
141
0.0
142
1.0
143
1.0
 70
     0
 72
     1
 73
     0
 74
     0
  7

 75
     0
147
1.0
148
0.0
149
0.0
100
AcDbLayout
  1
Layout1
 70
     0
 71
     1
 10
0.0
 20
0.0
 11
420.0
 21
297.0
 12
0.0
 22
0.0
 32
0.0
 14
0.0
 24
0.0
 34
0.0
 15
0.0
 25
0.0
 35
0.0
146
0.0
 13
0.0
 23
0.0
 33
0.0
 16
1.0
 26
0.0
 36
0.0
 17
0.0
 27
1.0
 37
0.0
 76
     0
330
225
  0
LAYOUT
  5
47B
102
{ACAD_REACTORS
330
1A
102
}
330
1A
100
AcDbPlotSettings
  1

  2
none_device
  4
ISO_A3_(420.00_x_297.00_MM)
  6

 40
0.0
 41
0.0
 42
0.0
 43
0.0
 44
420.0
 45
297.0
 46
0.0
 47
0.0
 48
0.0
 49
0.0
140
0.0
141
0.0
142
1.0
143
1.0
 70
  1024
 72
     1
 73
     0
 74
     0
  7

 75
     0
147
1.0
148
0.0
149
0.0
100
AcDbLayout
  1
Model
 70
     0
 71
     0
 10
0.0
 20
0.0
 11
420.0
 21
297.0
 12
0.0
 22
0.0
 32
0.0
 14
0.0
 24
0.0
 34
0.0
 15
420.0
 25
297.0
 35
0.0
146
0.0
 13
0.0
 23
0.0
 33
0.0
 16
1.0
 26
0.0
 36
0.0
 17
0.0
 27
1.0
 37
0.0
 76
     0
330
224
331
1F4
  0
MLINESTYLE
  5
18
102
{ACAD_REACTORS
330
17
102
}
330
17
100
AcDbMlineStyle
  2
STANDARD
 70
     0
  3

 62
   256
 51
90.0
 52
90.0
 71
     2
 49
0.5
 62
   256
  6
BYLAYER
 49
-0.5
 62
   256
  6
BYLAYER
  0
ACDBPLACEHOLDER
  5
F
102
{ACAD_REACTORS
330
E
102
}
330
E
  0
SCALE
  5
480
102
{ACAD_REACTORS
330
47F
102
}
330
47F
100
AcDbScale
 70
     0
300
1:1
140
1.0
141
1.0
290
     1
  0
SCALE
  5
481
102
{ACAD_REACTORS
330
47F
102
}
330
47F
100
AcDbScale
 70
     0
300
1:2
140
1.0
141
2.0
290
     0
  0
SCALE
  5
482
102
{ACAD_REACTORS
330
47F
102
}
330
47F
100
AcDbScale
 70
     0
300
1:4
140
1.0
141
4.0
290
     0
  0
SCALE
  5
483
102
{ACAD_REACTORS
330
47F
102
}
330
47F
100
AcDbScale
 70
     0
300
1:5
140
1.0
141
5.0
290
     0
  0
SCALE
  5
484
102
{ACAD_REACTORS
330
47F
102
}
330
47F
100
AcDbScale
 70
     0
300
1:8
140
1.0
141
8.0
290
     0
  0
SCALE
  5
485
102
{ACAD_REACTORS
330
47F
102
}
330
47F
100
AcDbScale
 70
     0
300
1:10
140
1.0
141
10.0
290
     0
  0
SCALE
  5
486
102
{ACAD_REACTORS
330
47F
102
}
330
47F
100
AcDbScale
 70
     0
300
1:16
140
1.0
141
16.0
290
     0
  0
SCALE
  5
487
102
{ACAD_REACTORS
330
47F
102
}
330
47F
100
AcDbScale
 70
     0
300
1:20
140
1.0
141
20.0
290
     0
  0
SCALE
  5
488
102
{ACAD_REACTORS
330
47F
102
}
330
47F
100
AcDbScale
 70
     0
300
1:30
140
1.0
141
30.0
290
     0
  0
SCALE
  5
489
102
{ACAD_REACTORS
330
47F
102
}
330
47F
100
AcDbScale
 70
     0
300
1:40
140
1.0
141
40.0
290
     0
  0
SCALE
  5
48A
102
{ACAD_REACTORS
330
47F
102
}
330
47F
100
AcDbScale
 70
     0
300
1:50
140
1.0
141
50.0
290
     0
  0
SCALE
  5
48B
102
{ACAD_REACTORS
330
47F
102
}
330
47F
100
AcDbScale
 70
     0
300
1:100
140
1.0
141
100.0
290
     0
  0
SCALE
  5
48C
102
{ACAD_REACTORS
330
47F
102
}
330
47F
100
AcDbScale
 70
     0
300
2:1
140
2.0
141
1.0
290
     0
  0
SCALE
  5
48D
102
{ACAD_REACTORS
330
47F
102
}
330
47F
100
AcDbScale
 70
     0
300
4:1
140
4.0
141
1.0
290
     0
  0
SCALE
  5
48E
102
{ACAD_REACTORS
330
47F
102
}
330
47F
100
AcDbScale
 70
     0
300
8:1
140
8.0
141
1.0
290
     0
  0
SCALE
  5
48F
102
{ACAD_REACTORS
330
47F
102
}
330
47F
100
AcDbScale
 70
     0
300
10:1
140
10.0
141
1.0
290
     0
  0
SCALE
  5
490
102
{ACAD_REACTORS
330
47F
102
}
330
47F
100
AcDbScale
 70
     0
300
100:1
140
100.0
141
1.0
290
     0
  0
SCALE
  5
491
102
{ACAD_REACTORS
330
47F
102
}
330
47F
100
AcDbScale
 70
     0
300
1/128" = 1'-0"
140
0.0078125
141
12.0
290
     0
  0
SCALE
  5
492
102
{ACAD_REACTORS
330
47F
102
}
330
47F
100
AcDbScale
 70
     0
300
1/64" = 1'-0"
140
0.015625
141
12.0
290
     0
  0
SCALE
  5
493
102
{ACAD_REACTORS
330
47F
102
}
330
47F
100
AcDbScale
 70
     0
300
1/32" = 1'-0"
140
0.03125
141
12.0
290
     0
  0
SCALE
  5
494
102
{ACAD_REACTORS
330
47F
102
}
330
47F
100
AcDbScale
 70
     0
300
1/16" = 1'-0"
140
0.0625
141
12.0
290
     0
  0
SCALE
  5
495
102
{ACAD_REACTORS
330
47F
102
}
330
47F
100
AcDbScale
 70
     0
300
3/32" = 1'-0"
140
0.09375
141
12.0
290
     0
  0
SCALE
  5
496
102
{ACAD_REACTORS
330
47F
102
}
330
47F
100
AcDbScale
 70
     0
300
1/8" = 1'-0"
140
0.125
141
12.0
290
     0
  0
SCALE
  5
497
102
{ACAD_REACTORS
330
47F
102
}
330
47F
100
AcDbScale
 70
     0
300
3/16" = 1'-0"
140
0.1875
141
12.0
290
     0
  0
SCALE
  5
498
102
{ACAD_REACTORS
330
47F
102
}
330
47F
100
AcDbScale
 70
     0
300
1/4" = 1'-0"
140
0.25
141
12.0
290
     0
  0
SCALE
  5
499
102
{ACAD_REACTORS
330
47F
102
}
330
47F
100
AcDbScale
 70
     0
300
3/8" = 1'-0"
140
0.375
141
12.0
290
     0
  0
SCALE
  5
49A
102
{ACAD_REACTORS
330
47F
102
}
330
47F
100
AcDbScale
 70
     0
300
1/2" = 1'-0"
140
0.5
141
12.0
290
     0
  0
SCALE
  5
49B
102
{ACAD_REACTORS
330
47F
102
}
330
47F
100
AcDbScale
 70
     0
300
3/4" = 1'-0"
140
0.75
141
12.0
290
     0
  0
SCALE
  5
49C
102
{ACAD_REACTORS
330
47F
102
}
330
47F
100
AcDbScale
 70
     0
300
1" = 1'-0"
140
1.0
141
12.0
290
     0
  0
SCALE
  5
49D
102
{ACAD_REACTORS
330
47F
102
}
330
47F
100
AcDbScale
 70
     0
300
1-1/2" = 1'-0"
140
1.5
141
12.0
290
     0
  0
SCALE
  5
49E
102
{ACAD_REACTORS
330
47F
102
}
330
47F
100
AcDbScale
 70
     0
300
3" = 1'-0"
140
3.0
141
12.0
290
     0
  0
SCALE
  5
49F
102
{ACAD_REACTORS
330
47F
102
}
330
47F
100
AcDbScale
 70
     0
300
6" = 1'-0"
140
6.0
141
12.0
290
     0
  0
SCALE
  5
4A0
102
{ACAD_REACTORS
330
47F
102
}
330
47F
100
AcDbScale
 70
     0
300
1'-0" = 1'-0"
140
12.0
141
12.0
290
     0
  0
ENDSEC
  0
EOF
