  0
SECTION
  2
HEADER
  9
$ACADVER
  1
AC1015
  9
$ACADMAINTVER
 70
     6
  9
$DWGCODEPAGE
  3
ANSI_1252
  9
$INSBASE
 10
0.0
 20
0.0
 30
0.0
  9
$EXTMIN
 10
0.0
 20
0.0
 30
0.0
  9
$EXTMAX
 10
420.0
 20
297.0
 30
0.0
  9
$LIMMIN
 10
0.0
 20
0.0
  9
$LIMMAX
 10
420.0
 20
297.0
  9
$ORTHOMODE
 70
     0
  9
$REGENMODE
 70
     1
  9
$FILLMODE
 70
     1
  9
$QTEXTMODE
 70
     0
  9
$MIRRTEXT
 70
     1
  9
$LTSCALE
 40
23.1
  9
$ATTMODE
 70
     1
  9
$TEXTSIZE
 40
0.2
  9
$TRACEWID
 40
0.05
  9
$TEXTSTYLE
  7
STANDARD
  9
$CLAYER
  8
0
  9
$CELTYPE
  6
BYLAYER
  9
$CECOLOR
 62
   256
  9
$CELTSCALE
 40
1.0
  9
$DISPSILH
 70
     0
  9
$DIMSCALE
 40
1.0
  9
$DIMASZ
 40
2.5
  9
$DIMEXO
 40
2.625
  9
$DIMDLI
 40
15.96
  9
$DIMRND
 40
0.0
  9
$DIMDLE
 40
0.0
  9
$DIMEXE
 40
7.56
  9
$DIMTP
 40
0.01
  9
$DIMTM
 40
0.01
  9
$DIMTXT
 40
3.0
  9
$DIMCEN
 40
3.78
  9
$DIMTSZ
 40
0.0
  9
$DIMTOL
 70
     1
  9
$DIMLIM
 70
     0
  9
$DIMTIH
 70
     1
  9
$DIMTOH
 70
     1
  9
$DIMSE1
 70
     0
  9
$DIMSE2
 70
     0
  9
$DIMTAD
 70
     0
  9
$DIMZIN
 70
     0
  9
$DIMBLK
  1
CLOSED
  9
$DIMASO
 70
     1
  9
$DIMSHO
 70
     1
  9
$DIMPOST
  1

  9
$DIMAPOST
  1

  9
$DIMALT
 70
     0
  9
$DIMALTD
 70
     2
  9
$DIMALTF
 40
25.4
  9
$DIMLFAC
 40
1.0
  9
$DIMTOFL
 70
     0
  9
$DIMTVP
 40
0.0
  9
$DIMTIX
 70
     0
  9
$DIMSOXD
 70
     0
  9
$DIMSAH
 70
     0
  9
$DIMBLK1
  1

  9
$DIMBLK2
  1

  9
$DIMSTYLE
  2
STANDARD
  9
$DIMCLRD
 70
     0
  9
$DIMCLRE
 70
     0
  9
$DIMCLRT
 70
     0
  9
$DIMTFAC
 40
1.0
  9
$DIMGAP
 40
0.09
  9
$DIMJUST
 70
     0
  9
$DIMSD1
 70
     0
  9
$DIMSD2
 70
     0
  9
$DIMTOLJ
 70
     1
  9
$DIMTZIN
 70
     0
  9
$DIMALTZ
 70
     0
  9
$DIMALTTZ
 70
     0
  9
$DIMUPT
 70
     0
  9
$DIMDEC
 70
     4
  9
$DIMTDEC
 70
     4
  9
$DIMALTU
 70
     2
  9
$DIMALTTD
 70
     2
  9
$DIMTXSTY
  7
STANDARD
  9
$DIMAUNIT
 70
     0
  9
$DIMADEC
 70
     0
  9
$DIMALTRND
 40
0.0
  9
$DIMAZIN
 70
     0
  9
$DIMDSEP
 70
    46
  9
$DIMATFIT
 70
     3
  9
$DIMFRAC
 70
     0
  9
$DIMLDRBLK
  1

  9
$DIMLUNIT
 70
     2
  9
$DIMLWD
 70
    -2
  9
$DIMLWE
 70
    -2
  9
$DIMTMOVE
 70
     0
  9
$LUNITS
 70
     2
  9
$LUPREC
 70
     4
  9
$SKETCHINC
 40
0.1
  9
$FILLETRAD
 40
0.5
  9
$AUNITS
 70
     0
  9
$AUPREC
 70
     0
  9
$MENU
  1
.
  9
$ELEVATION
 40
0.0
  9
$PELEVATION
 40
0.0
  9
$THICKNESS
 40
0.0
  9
$LIMCHECK
 70
     0
  9
$CHAMFERA
 40
0.0
  9
$CHAMFERB
 40
0.0
  9
$CHAMFERC
 40
0.0
  9
$CHAMFERD
 40
0.0
  9
$SKPOLY
 70
     0
  9
$TDCREATE
 40
2447893.041666667
  9
$TDUCREATE
 40
0.0
  9
$TDUPDATE
 40
2458444.423132107
  9
$TDUUPDATE
 40
2458444.38146544
  9
$TDINDWG
 40
0.0012201273
  9
$TDUSRTIMER
 40
0.0007766898
  9
$USRTIMER
 70
     1
  9
$ANGBASE
 50
0.0
  9
$ANGDIR
 70
     0
  9
$PDMODE
 70
     3
  9
$PDSIZE
 40
0.3125
  9
$PLINEWID
 40
0.0
  9
$SPLFRAME
 70
     0
  9
$SPLINETYPE
 70
     6
  9
$SPLINESEGS
 70
     8
  9
$HANDSEED
  5
569
  9
$SURFTAB1
 70
     6
  9
$SURFTAB2
 70
     6
  9
$SURFTYPE
 70
     6
  9
$SURFU
 70
     6
  9
$SURFV
 70
     6
  9
$UCSBASE
  2

  9
$UCSNAME
  2

  9
$UCSORG
 10
0.0
 20
0.0
 30
0.0
  9
$UCSXDIR
 10
1.0
 20
0.0
 30
0.0
  9
$UCSYDIR
 10
0.0
 20
1.0
 30
0.0
  9
$UCSORTHOREF
  2

  9
$UCSORTHOVIEW
 70
     0
  9
$UCSORGTOP
 10
0.0
 20
0.0
 30
0.0
  9
$UCSORGBOTTOM
 10
0.0
 20
0.0
 30
0.0
  9
$UCSORGLEFT
 10
0.0
 20
0.0
 30
0.0
  9
$UCSORGRIGHT
 10
0.0
 20
0.0
 30
0.0
  9
$UCSORGFRONT
 10
0.0
 20
0.0
 30
0.0
  9
$UCSORGBACK
 10
0.0
 20
0.0
 30
0.0
  9
$PUCSBASE
  2

  9
$PUCSNAME
  2

  9
$PUCSORG
 10
0.0
 20
0.0
 30
0.0
  9
$PUCSXDIR
 10
1.0
 20
0.0
 30
0.0
  9
$PUCSYDIR
 10
0.0
 20
1.0
 30
0.0
  9
$PUCSORTHOREF
  2

  9
$PUCSORTHOVIEW
 70
     0
  9
$PUCSORGTOP
 10
0.0
 20
0.0
 30
0.0
  9
$PUCSORGBOTTOM
 10
0.0
 20
0.0
 30
0.0
  9
$PUCSORGLEFT
 10
0.0
 20
0.0
 30
0.0
  9
$PUCSORGRIGHT
 10
0.0
 20
0.0
 30
0.0
  9
$PUCSORGFRONT
 10
0.0
 20
0.0
 30
0.0
  9
$PUCSORGBACK
 10
0.0
 20
0.0
 30
0.0
  9
$USERI1
 70
     0
  9
$USERI2
 70
     0
  9
$USERI3
 70
     0
  9
$USERI4
 70
     0
  9
$USERI5
 70
     0
  9
$USERR1
 40
0.0
  9
$USERR2
 40
0.0
  9
$USERR3
 40
0.0
  9
$USERR4
 40
0.0
  9
$USERR5
 40
0.0
  9
$WORLDVIEW
 70
     1
  9
$SHADEDGE
 70
     3
  9
$SHADEDIF
 70
    70
  9
$TILEMODE
 70
     1
  9
$MAXACTVP
 70
    64
  9
$PINSBASE
 10
0.0
 20
0.0
 30
0.0
  9
$PLIMCHECK
 70
     0
  9
$PEXTMIN
 10
1.000000000000000E+20
 20
1.000000000000000E+20
 30
1.000000000000000E+20
  9
$PEXTMAX
 10
-1.000000000000000E+20
 20
-1.000000000000000E+20
 30
-1.000000000000000E+20
  9
$PLIMMIN
 10
0.0
 20
0.0
  9
$PLIMMAX
 10
420.0
 20
297.0
  9
$UNITMODE
 70
     0
  9
$VISRETAIN
 70
     1
  9
$PLINEGEN
 70
     0
  9
$PSLTSCALE
 70
     1
  9
$TREEDEPTH
 70
  3020
  9
$CMLSTYLE
  2
Standard
  9
$CMLJUST
 70
     0
  9
$CMLSCALE
 40
1.0
  9
$PROXYGRAPHICS
 70
     1
  9
$MEASUREMENT
 70
     1
  9
$CELWEIGHT
370
    -1
  9
$ENDCAPS
280
     0
  9
$JOINSTYLE
280
     0
  9
$LWDISPLAY
290
     0
  9
$INSUNITS
 70
     4
  9
$HYPERLINKBASE
  1

  9
$STYLESHEET
  1

  9
$XEDIT
290
     1
  9
$CEPSNTYPE
380
     0
  9
$PSTYLEMODE
290
     1
  9
$FINGERPRINTGUID
  2
{EA69A983-E0E9-4C6B-8230-24DCCEF8A2A3}
  9
$VERSIONGUID
  2
{FAEB1C32-E019-11D5-929B-00C0DF256EC4}
  9
$EXTNAMES
290
     1
  9
$PSVPSCALE
 40
0.0
  9
$OLESTARTUP
290
     0
  0
ENDSEC
  0
SECTION
  2
CLASSES
  0
CLASS
  1
ACDBDICTIONARYWDFLT
  2
AcDbDictionaryWithDefault
  3
ObjectDBX Classes
 90
        0
280
     0
281
     0
  0
CLASS
  1
ACDBPLACEHOLDER
  2
AcDbPlaceHolder
  3
ObjectDBX Classes
 90
        0
280
     0
281
     0
  0
CLASS
  1
LAYOUT
  2
AcDbLayout
  3
ObjectDBX Classes
 90
        0
280
     0
281
     0
  0
CLASS
  1
TABLESTYLE
  2
AcDbTableStyle
  3
ObjectDBX Classes
 90
     4095
280
     0
281
     0
  0
CLASS
  1
ACAD_TABLE
  2
AcDbTable
  3
ObjectDBX Classes
 90
     1025
280
     0
281
     1
  0
CLASS
  1
SCALE
  2
AcDbScale
  3
ObjectDBX Classes
 90
     1153
280
     0
281
     0
  0
CLASS
  1
TABLEGEOMETRY
  2
AcDbTableGeometry
  3
ObjectDBX Classes
 90
     1152
280
     0
281
     0
  0
CLASS
  1
VISUALSTYLE
  2
AcDbVisualStyle
  3
ObjectDBX Classes
 90
     4095
280
     0
281
     0
  0
CLASS
  1
MATERIAL
  2
AcDbMaterial
  3
ObjectDBX Classes
 90
     1153
280
     0
281
     0
  0
CLASS
  1
SUN
  2
AcDbSun
  3
SCENEOE
 90
     1153
280
     0
281
     0
  0
CLASS
  1
RASTERVARIABLES
  2
AcDbRasterVariables
  3
ISM
 90
        0
280
     0
281
     0
  0
CLASS
  1
MLEADERSTYLE
  2
AcDbMLeaderStyle
  3
ACDB_MLEADERSTYLE_CLASS
 90
     4095
280
     0
281
     0
  0
ENDSEC
  0
SECTION
  2
TABLES
  0
TABLE
  2
VPORT
  5
8
330
0
100
AcDbSymbolTable
 70
     1
  0
VPORT
  5
1F4
330
8
100
AcDbSymbolTableRecord
100
AcDbViewportTableRecord
  2
*ACTIVE
 70
     0
 10
0.0
 20
0.0
 11
1.0
 21
1.0
 12
239.0732911267207
 22
128.4219534042482
 13
0.0
 23
0.0
 14
1.0
 24
1.0
 15
0.0
 25
0.0
 16
0.0
 26
0.0
 36
1.0
 17
0.0
 27
0.0
 37
0.0
 40
371.2500000000001
 41
1.929961089494163
 42
50.0
 43
0.0
 44
0.0
 50
0.0
 51
0.0
 71
    16
 72
   100
 73
     1
 74
     1
 75
     0
 76
     0
 77
     0
 78
     0
281
     0
 65
     1
110
0.0
120
0.0
130
0.0
111
1.0
121
0.0
131
0.0
112
0.0
122
1.0
132
0.0
 79
     0
146
0.0
  0
ENDTAB
  0
TABLE
  2
LTYPE
  5
5
330
0
100
AcDbSymbolTable
 70
     6
  0
LTYPE
  5
14
330
5
100
AcDbSymbolTableRecord
100
AcDbLinetypeTableRecord
  2
BYBLOCK
 70
     0
  3

 72
    65
 73
     0
 40
0.0
  0
LTYPE
  5
15
330
5
100
AcDbSymbolTableRecord
100
AcDbLinetypeTableRecord
  2
BYLAYER
 70
     0
  3

 72
    65
 73
     0
 40
0.0
  0
LTYPE
  5
16
330
5
100
AcDbSymbolTableRecord
100
AcDbLinetypeTableRecord
  2
CONTINUOUS
 70
     0
  3
Solid line
 72
    65
 73
     0
 40
0.0
  0
LTYPE
  5
1F5
330
5
100
AcDbSymbolTableRecord
100
AcDbLinetypeTableRecord
  2
CENTER
 70
     0
  3
____ _ ____ _ ____ _ ____ _ ____ _ ____ _ ____
 72
    65
 73
     4
 40
0.6
 49
0.375
 74
     0
 49
-0.075
 74
     0
 49
0.075
 74
     0
 49
-0.075
 74
     0
  0
LTYPE
  5
1F6
330
5
100
AcDbSymbolTableRecord
100
AcDbLinetypeTableRecord
  2
HIDDEN
 70
     0
  3
- - - - - - - - - - - - - - - - - - - -
 72
    65
 73
     2
 40
0.2
 49
0.1
 74
     0
 49
-0.1
 74
     0
  0
LTYPE
  5
1F7
330
5
100
AcDbSymbolTableRecord
100
AcDbLinetypeTableRecord
  2
PHANTOM
 70
     0
  3
_____ _ _ _____ _ _ _____ _ _ _____
 72
    65
 73
     6
 40
0.8
 49
0.45
 74
     0
 49
-0.05
 74
     0
 49
0.1
 74
     0
 49
-0.05
 74
     0
 49
0.1
 74
     0
 49
-0.05
 74
     0
  0
LTYPE
  5
1F8
330
5
100
AcDbSymbolTableRecord
100
AcDbLinetypeTableRecord
  2
DOT
 70
     0
  3
. . . . . . . . . . . . . . . . . . . .
 72
    65
 73
     2
 40
0.2
 49
0.1
 74
     0
 49
-0.1
 74
     0
  0
LTYPE
  5
1F9
330
5
100
AcDbSymbolTableRecord
100
AcDbLinetypeTableRecord
  2
DASHED
 70
     0
  3
- - - - - - - - - - - - - - - - - - - -
 72
    65
 73
     2
 40
0.2
 49
0.1
 74
     0
 49
-0.1
 74
     0
  0
ENDTAB
  0
TABLE
  2
LAYER
  5
2
330
0
100
AcDbSymbolTable
 70
    36
  0
LAYER
  5
10
330
2
100
AcDbSymbolTableRecord
100
AcDbLayerTableRecord
  2
0
 70
     0
 62
     7
  6
CONTINUOUS
370
    -3
390
F
  0
LAYER
  5
1FA
330
2
100
AcDbSymbolTableRecord
100
AcDbLayerTableRecord
  2
DEFAULT_1
 70
     0
 62
     7
  6
CENTER
370
    -3
390
F
  0
LAYER
  5
1FB
330
2
100
AcDbSymbolTableRecord
100
AcDbLayerTableRecord
  2
DEFAULT_2
 70
     0
 62
     8
  6
HIDDEN
370
    -3
390
F
  0
LAYER
  5
1FC
330
2
100
AcDbSymbolTableRecord
100
AcDbLayerTableRecord
  2
DEFAULT_3
 70
     0
 62
     7
  6
PHANTOM
370
    -3
390
F
  0
LAYER
  5
1FD
330
2
100
AcDbSymbolTableRecord
100
AcDbLayerTableRecord
  2
01_ALL_DTM_PLN
 70
     0
 62
     7
  6
CONTINUOUS
370
    -3
390
F
  0
LAYER
  5
1FE
330
2
100
AcDbSymbolTableRecord
100
AcDbLayerTableRecord
  2
01__ASM_ALL_DTM_PLN
 70
     0
 62
     7
  6
CONTINUOUS
370
    -3
390
F
  0
LAYER
  5
1FF
330
2
100
AcDbSymbolTableRecord
100
AcDbLayerTableRecord
  2
01__ASM_DEF_DTM_PLN
 70
     0
 62
     7
  6
CONTINUOUS
370
    -3
390
F
  0
LAYER
  5
200
330
2
100
AcDbSymbolTableRecord
100
AcDbLayerTableRecord
  2
01___PRT_ALL_DTM_PLN
 70
     0
 62
     7
  6
CONTINUOUS
370
    -3
390
F
  0
LAYER
  5
201
330
2
100
AcDbSymbolTableRecord
100
AcDbLayerTableRecord
  2
01___PRT_DEF_DTM_PLN
 70
     0
 62
     7
  6
CONTINUOUS
370
    -3
390
F
  0
LAYER
  5
202
330
2
100
AcDbSymbolTableRecord
100
AcDbLayerTableRecord
  2
02_ALL_AXES
 70
     0
 62
     7
  6
CONTINUOUS
370
    -3
390
F
  0
LAYER
  5
203
330
2
100
AcDbSymbolTableRecord
100
AcDbLayerTableRecord
  2
02__ASM_ALL_AXES
 70
     0
 62
     7
  6
CONTINUOUS
370
    -3
390
F
  0
LAYER
  5
204
330
2
100
AcDbSymbolTableRecord
100
AcDbLayerTableRecord
  2
02___PRT_ALL_AXES
 70
     0
 62
     7
  6
CONTINUOUS
370
    -3
390
F
  0
LAYER
  5
205
330
2
100
AcDbSymbolTableRecord
100
AcDbLayerTableRecord
  2
03_ALL_CURVES
 70
     0
 62
     7
  6
CONTINUOUS
370
    -3
390
F
  0
LAYER
  5
206
330
2
100
AcDbSymbolTableRecord
100
AcDbLayerTableRecord
  2
03__ASM_ALL_CURVES
 70
     0
 62
     7
  6
CONTINUOUS
370
    -3
390
F
  0
LAYER
  5
207
330
2
100
AcDbSymbolTableRecord
100
AcDbLayerTableRecord
  2
03___PRT_ALL_CURVES
 70
     0
 62
     7
  6
CONTINUOUS
370
    -3
390
F
  0
LAYER
  5
208
330
2
100
AcDbSymbolTableRecord
100
AcDbLayerTableRecord
  2
04_ALL_DTM_PNT
 70
     0
 62
     7
  6
CONTINUOUS
370
    -3
390
F
  0
LAYER
  5
209
330
2
100
AcDbSymbolTableRecord
100
AcDbLayerTableRecord
  2
04__ASM_ALL_DTM_PNT
 70
     0
 62
     7
  6
CONTINUOUS
370
    -3
390
F
  0
LAYER
  5
20A
330
2
100
AcDbSymbolTableRecord
100
AcDbLayerTableRecord
  2
04___PRT_ALL_DTM_PNT
 70
     0
 62
     7
  6
CONTINUOUS
370
    -3
390
F
  0
LAYER
  5
20B
330
2
100
AcDbSymbolTableRecord
100
AcDbLayerTableRecord
  2
05_ALL_DTM_CSYS
 70
     0
 62
     7
  6
CONTINUOUS
370
    -3
390
F
  0
LAYER
  5
20C
330
2
100
AcDbSymbolTableRecord
100
AcDbLayerTableRecord
  2
05__ASM_ALL_DTM_CSYS
 70
     0
 62
     7
  6
CONTINUOUS
370
    -3
390
F
  0
LAYER
  5
20D
330
2
100
AcDbSymbolTableRecord
100
AcDbLayerTableRecord
  2
05__ASM_DEF_DTM_CSYS
 70
     0
 62
     7
  6
CONTINUOUS
370
    -3
390
F
  0
LAYER
  5
20E
330
2
100
AcDbSymbolTableRecord
100
AcDbLayerTableRecord
  2
05___PRT_ALL_DTM_CSYS
 70
     0
 62
     7
  6
CONTINUOUS
370
    -3
390
F
  0
LAYER
  5
20F
330
2
100
AcDbSymbolTableRecord
100
AcDbLayerTableRecord
  2
05___PRT_DEF_DTM_CSYS
 70
     0
 62
     7
  6
CONTINUOUS
370
    -3
390
F
  0
LAYER
  5
210
330
2
100
AcDbSymbolTableRecord
100
AcDbLayerTableRecord
  2
06_ALL_SURFS
 70
     0
 62
     7
  6
CONTINUOUS
370
    -3
390
F
  0
LAYER
  5
211
330
2
100
AcDbSymbolTableRecord
100
AcDbLayerTableRecord
  2
06__ASM_ALL_SURFS
 70
     0
 62
     7
  6
CONTINUOUS
370
    -3
390
F
  0
LAYER
  5
212
330
2
100
AcDbSymbolTableRecord
100
AcDbLayerTableRecord
  2
06___PRT_ALL_SURFS
 70
     0
 62
     7
  6
CONTINUOUS
370
    -3
390
F
  0
LAYER
  5
213
330
2
100
AcDbSymbolTableRecord
100
AcDbLayerTableRecord
  2
07__ASM_ALL_SKELETONS
 70
     0
 62
     7
  6
CONTINUOUS
370
    -3
390
F
  0
LAYER
  5
214
330
2
100
AcDbSymbolTableRecord
100
AcDbLayerTableRecord
  2
1_ALL_PLANES
 70
     0
 62
     7
  6
CONTINUOUS
370
    -3
390
F
  0
LAYER
  5
215
330
2
100
AcDbSymbolTableRecord
100
AcDbLayerTableRecord
  2
2_ALL_CSYS
 70
     0
 62
     7
  6
CONTINUOUS
370
    -3
390
F
  0
LAYER
  5
216
330
2
100
AcDbSymbolTableRecord
100
AcDbLayerTableRecord
  2
3_ALL_AXES
 70
     0
 62
     7
  6
CONTINUOUS
370
    -3
390
F
  0
LAYER
  5
217
330
2
100
AcDbSymbolTableRecord
100
AcDbLayerTableRecord
  2
4_ALL_POINTS
 70
     0
 62
     7
  6
CONTINUOUS
370
    -3
390
F
  0
LAYER
  5
218
330
2
100
AcDbSymbolTableRecord
100
AcDbLayerTableRecord
  2
6_ALL_SURFS
 70
     0
 62
     7
  6
CONTINUOUS
370
    -3
390
F
  0
LAYER
  5
219
330
2
100
AcDbSymbolTableRecord
100
AcDbLayerTableRecord
  2
7_ALL_FEATURES
 70
     0
 62
     7
  6
CONTINUOUS
370
    -3
390
F
  0
LAYER
  5
21A
330
2
100
AcDbSymbolTableRecord
100
AcDbLayerTableRecord
  2
8_ALL_NOTES_BALLOONS_SYMBOLS_GT
 70
     0
 62
     7
  6
CONTINUOUS
370
    -3
390
F
  0
LAYER
  5
21B
330
2
100
AcDbSymbolTableRecord
100
AcDbLayerTableRecord
  2
RGB
 70
     0
 62
     7
  6
CONTINUOUS
370
    -3
390
F
  0
LAYER
  5
524
330
2
100
AcDbSymbolTableRecord
100
AcDbLayerTableRecord
  2
Defpoints
 70
     0
 62
     7
  6
CONTINUOUS
290
     0
370
    -3
390
F
  0
ENDTAB
  0
TABLE
  2
STYLE
  5
3
330
0
100
AcDbSymbolTable
 70
     5
  0
STYLE
  5
11
330
3
100
AcDbSymbolTableRecord
100
AcDbTextStyleTableRecord
  2
STANDARD
 70
     0
 40
0.0
 41
0.85
 50
0.0
 71
     0
 42
0.2
  3
txt
  4

  0
STYLE
  5
21C
330
3
100
AcDbSymbolTableRecord
100
AcDbTextStyleTableRecord
  2
TEXTSTYLE_1
 70
     0
 40
0.0
 41
0.8
 50
0.0
 71
     0
 42
0.2
  3
gdt
  4

  0
STYLE
  5
21D
330
3
100
AcDbSymbolTableRecord
100
AcDbTextStyleTableRecord
  2
TEXTSTYLE_2
 70
     0
 40
0.0
 41
0.9
 50
0.0
 71
     0
 42
0.2
  3
txt
  4

  0
STYLE
  5
21E
330
3
100
AcDbSymbolTableRecord
100
AcDbTextStyleTableRecord
  2
TEXTSTYLE_3
 70
     0
 40
0.0
 41
0.9
 50
0.0
 71
     0
 42
0.2
  3
txt
  4

  0
STYLE
  5
21F
330
3
100
AcDbSymbolTableRecord
100
AcDbTextStyleTableRecord
  2
TEXTSTYLE_4
 70
     0
 40
0.0
 41
0.85
 50
0.0
 71
     0
 42
0.2
  3
txt
  4

  0
ENDTAB
  0
TABLE
  2
VIEW
  5
6
330
0
100
AcDbSymbolTable
 70
     0
  0
ENDTAB
  0
TABLE
  2
UCS
  5
7
330
0
100
AcDbSymbolTable
 70
     0
  0
ENDTAB
  0
TABLE
  2
APPID
  5
9
330
0
100
AcDbSymbolTable
 70
     1
  0
APPID
  5
220
330
9
100
AcDbSymbolTableRecord
100
AcDbRegAppTableRecord
  2
ACAD
 70
     0
  0
ENDTAB
  0
TABLE
  2
DIMSTYLE
  5
A
330
0
100
AcDbSymbolTable
 70
     3
100
AcDbDimStyleTable
  0
DIMSTYLE
105
229
330
A
100
AcDbSymbolTableRecord
100
AcDbDimStyleTableRecord
  2
STANDARD
 70
     0
 41
2.5
 47
0.01
 48
0.01
 71
     1
 73
     0
 74
     0
 77
     1
 78
     8
140
3.0
178
     0
271
     2
272
     2
284
     8
340
11
341
223
342
223
343
223
344
223
  0
DIMSTYLE
105
22A
330
A
100
AcDbSymbolTableRecord
100
AcDbDimStyleTableRecord
  2
DIMSTYLE_1
 70
     0
 41
2.5
 47
0.3
 48
0.3
 73
     0
 74
     0
 77
     1
 78
     8
140
3.0
144
1.3333333333
178
     0
271
     2
272
     2
284
     8
340
11
341
223
342
223
343
223
344
223
  0
DIMSTYLE
105
22B
330
A
100
AcDbSymbolTableRecord
100
AcDbDimStyleTableRecord
  2
DIMSTYLE_2
 70
     0
 41
2.5
 47
0.3
 48
0.3
 73
     0
 74
     0
 77
     1
 78
     8
140
3.0
144
1.3333333333
178
     0
271
     0
272
     0
284
     8
340
11
341
223
342
223
343
223
344
223
  0
ENDTAB
  0
TABLE
  2
BLOCK_RECORD
  5
1
330
0
100
AcDbSymbolTable
 70
     6
  0
BLOCK_RECORD
  5
221
330
1
100
AcDbSymbolTableRecord
100
AcDbBlockTableRecord
  2
*Model_Space
340
4DB
  0
BLOCK_RECORD
  5
222
330
1
100
AcDbSymbolTableRecord
100
AcDbBlockTableRecord
  2
*Paper_Space
340
4DC
  0
BLOCK_RECORD
  5
223
330
1
100
AcDbSymbolTableRecord
100
AcDbBlockTableRecord
  2
_CLOSED
340
0
102
{BLKREFS
331
272
331
273
331
27B
331
27C
331
284
331
285
102
}
  0
BLOCK_RECORD
  5
224
330
1
100
AcDbSymbolTableRecord
100
AcDbBlockTableRecord
  2
*D1
340
0
  0
BLOCK_RECORD
  5
225
330
1
100
AcDbSymbolTableRecord
100
AcDbBlockTableRecord
  2
*D2
340
0
  0
BLOCK_RECORD
  5
226
330
1
100
AcDbSymbolTableRecord
100
AcDbBlockTableRecord
  2
*D3
340
0
  0
BLOCK_RECORD
  5
227
330
1
100
AcDbSymbolTableRecord
100
AcDbBlockTableRecord
  2
LOGO2_BL0
340
0
102
{BLKREFS
331
2AD
102
}
  0
BLOCK_RECORD
  5
228
330
1
100
AcDbSymbolTableRecord
100
AcDbBlockTableRecord
  2
*T5
340
0
102
{BLKREFS
331
2AE
102
}
  0
ENDTAB
  0
ENDSEC
  0
SECTION
  2
BLOCKS
  0
BLOCK
  5
20
330
221
100
AcDbEntity
  8
0
100
AcDbBlockBegin
  2
*Model_Space
 70
     0
 10
0.0
 20
0.0
 30
0.0
  3
*Model_Space
  1
*Model_Space
  0
ENDBLK
  5
21
330
221
100
AcDbEntity
  8
0
100
AcDbBlockEnd
  0
BLOCK
  5
1C
330
222
100
AcDbEntity
 67
     1
  8
0
100
AcDbBlockBegin
  2
*Paper_Space
 70
     0
 10
0.0
 20
0.0
 30
0.0
  3
*Paper_Space
  1
*Paper_Space
  0
ENDBLK
  5
1D
330
222
100
AcDbEntity
 67
     1
  8
0
100
AcDbBlockEnd
  0
BLOCK
  5
268
330
223
100
AcDbEntity
  8
0
100
AcDbBlockBegin
  2
_CLOSED
 70
     0
 10
0.0
 20
0.0
 30
0.0
  3
_CLOSED
  1
_CLOSED
  0
LINE
  5
269
330
223
100
AcDbEntity
  8
0
  6
ByBlock
 62
     0
100
AcDbLine
 10
0.0
 20
0.0
 30
0.0
 11
-1.0
 21
0.2
 31
0.0
  0
LINE
  5
26A
330
223
100
AcDbEntity
  8
0
  6
ByBlock
 62
     0
100
AcDbLine
 10
-1.0
 20
0.2
 30
0.0
 11
-1.0
 21
-0.2
 31
0.0
  0
LINE
  5
26B
330
223
100
AcDbEntity
  8
0
  6
ByBlock
 62
     0
100
AcDbLine
 10
-1.0
 20
-0.2
 30
0.0
 11
0.0
 21
0.0
 31
0.0
  0
LINE
  5
26C
330
223
100
AcDbEntity
  8
0
  6
ByBlock
 62
     0
100
AcDbLine
 10
-1.0
 20
0.0
 30
0.0
 11
0.0
 21
0.0
 31
0.0
  0
ENDBLK
  5
26D
330
223
100
AcDbEntity
  8
0
  6
ByBlock
 62
     0
100
AcDbBlockEnd
  0
BLOCK
  5
26E
330
224
100
AcDbEntity
  8
0
100
AcDbBlockBegin
  2
*D1
 70
     1
 10
0.0
 20
0.0
 30
0.0
  3
*D1
  1
*D1
  0
LINE
  5
26F
330
224
100
AcDbEntity
  8
0
  6
Continuous
 62
     0
370
    -2
100
AcDbLine
 10
29.8377166769
 20
36.5816608752
 30
0.0
 11
29.8377166769
 21
21.7207435383
 31
0.0
  0
LINE
  5
270
330
224
100
AcDbEntity
  8
0
  6
Continuous
 62
     0
370
    -2
100
AcDbLine
 10
119.8377166769
 20
36.0907517843
 30
0.0
 11
119.8377166769
 21
21.7207435383
 31
0.0
  0
LINE
  5
271
330
224
100
AcDbEntity
  8
0
  6
Continuous
 62
     0
370
    -2
100
AcDbLine
 10
32.3377166769
 20
21.9007435383
 30
0.0
 11
117.3377166769
 21
21.9007435383
 31
0.0
  0
INSERT
  5
272
330
224
100
AcDbEntity
  8
0
 62
     0
370
    -2
100
AcDbBlockReference
  2
_CLOSED
 10
29.8377166769
 20
21.9007435383
 30
0.0
 41
2.5
 42
2.5
 43
2.5
 50
180.0
  0
INSERT
  5
273
330
224
100
AcDbEntity
  8
0
 62
     0
370
    -2
100
AcDbBlockReference
  2
_CLOSED
 10
119.8377166769
 20
21.9007435383
 30
0.0
 41
2.5
 42
2.5
 43
2.5
  0
MTEXT
  5
274
330
224
100
AcDbEntity
  8
0
 62
     0
100
AcDbMText
 10
74.8377166769
 20
26.9007435383
 30
0.0
 40
3.0
 41
0.0
 71
     2
 72
     1
  1
\A1;120
 73
     1
 44
1.0
  0
POINT
  5
275
330
224
100
AcDbEntity
  8
Defpoints
 62
     0
100
AcDbPoint
 10
29.8377166769
 20
36.6441608752
 30
0.0
  0
POINT
  5
529
330
224
100
AcDbEntity
  8
Defpoints
 62
     0
100
AcDbPoint
 10
119.8377166769
 20
36.1532517843
 30
0.0
  0
POINT
  5
52A
330
224
100
AcDbEntity
  8
Defpoints
 62
     0
100
AcDbPoint
 10
119.8377166769
 20
21.9007435383
 30
0.0
  0
ENDBLK
  5
276
330
224
100
AcDbEntity
  8
0
  6
ByBlock
 62
     0
100
AcDbBlockEnd
  0
BLOCK
  5
277
330
225
100
AcDbEntity
  8
0
100
AcDbBlockBegin
  2
*D2
 70
     1
 10
0.0
 20
0.0
 30
0.0
  3
*D2
  1
*D2
  0
LINE
  5
278
330
225
100
AcDbEntity
  8
0
  6
Continuous
 62
     0
370
    -2
100
AcDbLine
 10
124.3246436053
 20
129.6507435383
 30
0.0
 11
139.2079533002
 21
129.6507435383
 31
0.0
  0
LINE
  5
279
330
225
100
AcDbEntity
  8
0
  6
Continuous
 62
     0
370
    -2
100
AcDbLine
 10
124.3246436053
 20
39.6507435383
 30
0.0
 11
139.2079533002
 21
39.6507435383
 31
0.0
  0
LINE
  5
27A
330
225
100
AcDbEntity
  8
0
  6
Continuous
 62
     0
370
    -2
100
AcDbLine
 10
139.0279533002
 20
127.1507435383
 30
0.0
 11
139.0279533002
 21
42.1507435383
 31
0.0
  0
INSERT
  5
27B
330
225
100
AcDbEntity
  8
0
 62
     0
370
    -2
100
AcDbBlockReference
  2
_CLOSED
 10
139.0279533002
 20
129.6507435383
 30
0.0
 41
2.5
 42
2.5
 43
2.5
 50
89.99999999999999
  0
INSERT
  5
27C
330
225
100
AcDbEntity
  8
0
 62
     0
370
    -2
100
AcDbBlockReference
  2
_CLOSED
 10
139.0279533002
 20
39.6507435383
 30
0.0
 41
2.5
 42
2.5
 43
2.5
 50
270.0
  0
MTEXT
  5
27D
330
225
100
AcDbEntity
  8
0
 62
     0
100
AcDbMText
 10
134.0279533002
 20
84.65074353829999
 30
0.0
 40
3.0
 41
0.0
 71
     2
 72
     1
  1
\A1;120
 11
3.157967714489334E-16
 21
1.0
 31
0.0
 73
     1
 44
1.0
  0
POINT
  5
27E
330
225
100
AcDbEntity
  8
Defpoints
 62
     0
100
AcDbPoint
 10
124.2621436053
 20
129.6507435383
 30
0.0
  0
POINT
  5
527
330
225
100
AcDbEntity
  8
Defpoints
 62
     0
100
AcDbPoint
 10
124.2621436053
 20
39.6507435383
 30
0.0
  0
POINT
  5
528
330
225
100
AcDbEntity
  8
Defpoints
 62
     0
100
AcDbPoint
 10
139.0279533002
 20
39.6507435383
 30
0.0
  0
ENDBLK
  5
27F
330
225
100
AcDbEntity
  8
0
  6
ByBlock
 62
     0
100
AcDbBlockEnd
  0
BLOCK
  5
280
330
226
100
AcDbEntity
  8
0
100
AcDbBlockBegin
  2
*D3
 70
     1
 10
0.0
 20
0.0
 30
0.0
  3
*D3
  1
*D3
  0
LINE
  5
281
330
226
100
AcDbEntity
  8
0
  6
Continuous
 62
     0
370
    -2
100
AcDbLine
 10
124.6031194576
 20
252.6470135711
 30
0.0
 11
138.6798665383
 21
252.6470135711
 31
0.0
  0
LINE
  5
282
330
226
100
AcDbEntity
  8
0
  6
Continuous
 62
     0
370
    -2
100
AcDbLine
 10
123.8176649121
 20
184.2095135711
 30
0.0
 11
138.6798665383
 21
184.2095135711
 31
0.0
  0
LINE
  5
283
330
226
100
AcDbEntity
  8
0
  6
Continuous
 62
     0
370
    -2
100
AcDbLine
 10
138.4998665383
 20
250.1470135711
 30
0.0
 11
138.4998665383
 21
186.7095135711
 31
0.0
  0
INSERT
  5
284
330
226
100
AcDbEntity
  8
0
 62
     0
370
    -2
100
AcDbBlockReference
  2
_CLOSED
 10
138.4998665383
 20
252.6470135711
 30
0.0
 41
2.5
 42
2.5
 43
2.5
 50
90.0
  0
INSERT
  5
285
330
226
100
AcDbEntity
  8
0
 62
     0
370
    -2
100
AcDbBlockReference
  2
_CLOSED
 10
138.4998665383
 20
184.2095135711
 30
0.0
 41
2.5
 42
2.5
 43
2.5
 50
270.0
  0
MTEXT
  5
286
330
226
100
AcDbEntity
  8
0
 62
     0
100
AcDbMText
 10
133.4998665383
 20
218.4282635711
 30
0.0
 40
3.0
 41
0.0
 71
     2
 72
     1
  1
\A1;91
 11
0.0
 21
1.0
 31
0.0
 73
     1
 44
1.0
  0
POINT
  5
287
330
226
100
AcDbEntity
  8
Defpoints
 62
     0
100
AcDbPoint
 10
124.5406194576
 20
252.6470135711
 30
0.0
  0
POINT
  5
525
330
226
100
AcDbEntity
  8
Defpoints
 62
     0
100
AcDbPoint
 10
123.7551649121
 20
184.2095135711
 30
0.0
  0
POINT
  5
526
330
226
100
AcDbEntity
  8
Defpoints
 62
     0
100
AcDbPoint
 10
138.4998665383
 20
184.2095135711
 30
0.0
  0
ENDBLK
  5
288
330
226
100
AcDbEntity
  8
0
  6
ByBlock
 62
     0
100
AcDbBlockEnd
  0
BLOCK
  5
22C
330
227
100
AcDbEntity
  8
0
100
AcDbBlockBegin
  2
LOGO2_BL0
 70
     0
 10
333.1473869546
 20
37.5239270671
 30
0.0
  3
LOGO2_BL0
  1
LOGO2_BL0
  0
LINE
  5
22D
330
227
100
AcDbEntity
  8
0
  6
Continuous
 62
     7
100
AcDbLine
 10
324.8903121828
 20
40.7194184059
 30
0.0
 11
323.5859712535
 21
40.7194184059
 31
0.0
  0
LINE
  5
22E
330
227
100
AcDbEntity
  8
0
  6
Continuous
 62
     7
100
AcDbLine
 10
323.5859712535
 20
40.7194184059
 30
0.0
 11
323.5859712535
 21
30.260352346
 31
0.0
  0
LINE
  5
22F
330
227
100
AcDbEntity
  8
0
  6
Continuous
 62
     7
100
AcDbLine
 10
323.5859712535
 20
30.260352346
 30
0.0
 11
328.0670261417
 21
30.260352346
 31
0.0
  0
LINE
  5
230
330
227
100
AcDbEntity
  8
0
  6
Continuous
 62
     7
100
AcDbLine
 10
328.0670261417
 20
30.260352346
 30
0.0
 11
328.0670261417
 21
31.4532066711
 31
0.0
  0
LINE
  5
231
330
227
100
AcDbEntity
  8
0
  6
Continuous
 62
     7
100
AcDbLine
 10
328.0670261417
 20
31.4532066711
 30
0.0
 11
324.8903121828
 21
31.4532066711
 31
0.0
  0
LINE
  5
232
330
227
100
AcDbEntity
  8
0
  6
Continuous
 62
     7
100
AcDbLine
 10
324.8903121828
 20
31.4532066711
 30
0.0
 11
324.8903121828
 21
40.7194184059
 31
0.0
  0
LINE
  5
233
330
227
100
AcDbEntity
  8
0
  6
Continuous
 62
     7
100
AcDbLine
 10
339.8266383991
 20
40.7194184059
 30
0.0
 11
338.522820881
 21
40.7194184059
 31
0.0
  0
LINE
  5
234
330
227
100
AcDbEntity
  8
0
  6
Continuous
 62
     7
100
AcDbLine
 10
338.522820881
 20
40.7194184059
 30
0.0
 11
338.522820881
 21
30.260352346
 31
0.0
  0
LINE
  5
235
330
227
100
AcDbEntity
  8
0
  6
Continuous
 62
     7
100
AcDbLine
 10
338.522820881
 20
30.260352346
 30
0.0
 11
343.0040066221
 21
30.260352346
 31
0.0
  0
LINE
  5
236
330
227
100
AcDbEntity
  8
0
  6
Continuous
 62
     7
100
AcDbLine
 10
343.0040066221
 20
30.260352346
 30
0.0
 11
343.0040066221
 21
31.4532066711
 31
0.0
  0
LINE
  5
237
330
227
100
AcDbEntity
  8
0
  6
Continuous
 62
     7
100
AcDbLine
 10
343.0040066221
 20
31.4532066711
 30
0.0
 11
339.8266383991
 21
31.4532066711
 31
0.0
  0
LINE
  5
238
330
227
100
AcDbEntity
  8
0
  6
Continuous
 62
     7
100
AcDbLine
 10
339.8266383991
 20
31.4532066711
 30
0.0
 11
339.8266383991
 21
40.7194184059
 31
0.0
  0
LWPOLYLINE
  5
239
330
227
100
AcDbEntity
  8
0
  6
Continuous
 62
     7
100
AcDbPolyline
 90
        2
 70
     0
 43
0.2
 10
321.9403661644
 20
26.9168010391
 10
321.9403661644
 20
25.0597377898
  0
LWPOLYLINE
  5
23A
330
227
100
AcDbEntity
  8
0
  6
Continuous
 62
     7
100
AcDbPolyline
 90
        2
 70
     0
 43
0.2
 10
321.9403661644
 20
25.0597377898
 10
322.7360821748
 20
25.0597377898
  0
LWPOLYLINE
  5
23B
330
227
100
AcDbEntity
  8
0
  6
Continuous
 62
     7
100
AcDbPolyline
 90
        2
 70
     0
 43
0.2
 10
322.7360821748
 20
25.0597377898
 10
322.7360821748
 20
25.2717193614
  0
LWPOLYLINE
  5
23C
330
227
100
AcDbEntity
  8
0
  6
Continuous
 62
     7
100
AcDbPolyline
 90
        2
 70
     0
 43
0.2
 10
322.7360821748
 20
25.2717193614
 10
322.1719756593
 20
25.2717193614
  0
LWPOLYLINE
  5
23D
330
227
100
AcDbEntity
  8
0
  6
Continuous
 62
     7
100
AcDbPolyline
 90
        2
 70
     0
 43
0.2
 10
322.1719756593
 20
25.2717193614
 10
322.1719756593
 20
26.9168010391
  0
LWPOLYLINE
  5
23E
330
227
100
AcDbEntity
  8
0
  6
Continuous
 62
     7
100
AcDbPolyline
 90
        2
 70
     0
 43
0.2
 10
322.1719756593
 20
26.9168010391
 10
321.9403661644
 20
26.9168010391
  0
SPLINE
  5
23F
330
227
100
AcDbEntity
  8
0
  6
Continuous
 62
     7
100
AcDbSpline
 70
     3
 71
     3
 72
    35
 73
    31
 74
     0
 42
0.000000001
 43
0.0000001
 40
0.0
 40
0.0
 40
0.0
 40
0.0
 40
1.0
 40
1.0
 40
1.0
 40
2.0
 40
2.0
 40
2.0
 40
3.0
 40
3.0
 40
3.0
 40
4.0
 40
4.0
 40
4.0
 40
5.0
 40
5.0
 40
5.0
 40
6.0
 40
6.0
 40
6.0
 40
7.0
 40
7.0
 40
7.0
 40
8.0
 40
8.0
 40
8.0
 40
9.0
 40
9.0
 40
9.0
 40
10.0
 40
10.0
 40
10.0
 40
10.0
 10
324.1343754303
 20
26.2122894457
 30
0.0
 10
324.1343754303
 20
26.2122894457
 30
0.0
 10
324.1343754303
 20
25.5501741665
 30
0.0
 10
324.1343754303
 20
25.5501741665
 30
0.0
 10
324.1343754303
 20
25.2350805712
 30
0.0
 10
324.2822391191
 20
25.0204819432
 30
0.0
 10
324.6223256034
 20
25.0204819432
 30
0.0
 10
324.9618886764
 20
25.0204819432
 30
0.0
 10
325.1100140709
 20
25.2350805712
 30
0.0
 10
325.1100140709
 20
25.5501741665
 30
0.0
 10
325.1100140709
 20
25.5501741665
 30
0.0
 10
325.1100140709
 20
26.2122894457
 30
0.0
 10
325.1100140709
 20
26.2122894457
 30
0.0
 10
325.1100140709
 20
26.2122894457
 30
0.0
 10
324.887956832
 20
26.2122894457
 30
0.0
 10
324.887956832
 20
26.2122894457
 30
0.0
 10
324.887956832
 20
26.2122894457
 30
0.0
 10
324.887956832
 20
25.5752979083
 30
0.0
 10
324.887956832
 20
25.5752979083
 30
0.0
 10
324.887956832
 20
25.3894869011
 30
0.0
 10
324.8412423746
 20
25.2267059906
 30
0.0
 10
324.6223256034
 20
25.2267059906
 30
0.0
 10
324.402885421
 20
25.2267059906
 30
0.0
 10
324.3561709636
 20
25.3894869011
 30
0.0
 10
324.3561709636
 20
25.5752979083
 30
0.0
 10
324.3561709636
 20
25.5752979083
 30
0.0
 10
324.3561709636
 20
26.2122894457
 30
0.0
 10
324.3561709636
 20
26.2122894457
 30
0.0
 10
324.3561709636
 20
26.2122894457
 30
0.0
 10
324.1343754303
 20
26.2122894457
 30
0.0
 10
324.1343754303
 20
26.2122894457
 30
0.0
  0
SPLINE
  5
240
330
227
100
AcDbEntity
  8
0
  6
Continuous
 62
     7
100
AcDbSpline
 70
     3
 71
     3
 72
    35
 73
    31
 74
     0
 42
0.000000001
 43
0.0000001
 40
0.0
 40
0.0
 40
0.0
 40
0.0
 40
1.0
 40
1.0
 40
1.0
 40
2.0
 40
2.0
 40
2.0
 40
3.0
 40
3.0
 40
3.0
 40
4.0
 40
4.0
 40
4.0
 40
5.0
 40
5.0
 40
5.0
 40
6.0
 40
6.0
 40
6.0
 40
7.0
 40
7.0
 40
7.0
 40
8.0
 40
8.0
 40
8.0
 40
9.0
 40
9.0
 40
9.0
 40
10.0
 40
10.0
 40
10.0
 40
10.0
 10
327.5331466281
 20
26.1709399539
 30
0.0
 10
327.4446901205
 20
26.2222342601
 30
0.0
 10
327.3312407238
 20
26.2473580019
 30
0.0
 10
327.2276052888
 20
26.2473580019
 30
0.0
 10
326.8727324356
 20
26.2473580019
 30
0.0
 10
326.5972872454
 20
25.9835587129
 30
0.0
 10
326.5972872454
 20
25.6260688032
 30
0.0
 10
326.5972872454
 20
25.2811407645
 30
0.0
 10
326.8757420505
 20
25.0210053545
 30
0.0
 10
327.2153051235
 20
25.0210053545
 30
0.0
 10
327.3312407238
 20
25.0210053545
 30
0.0
 10
327.4319973967
 20
25.0429886286
 30
0.0
 10
327.5331466281
 20
25.0968999912
 30
0.0
 10
327.5331466281
 20
25.0968999912
 30
0.0
 10
327.5331466281
 20
25.3795420867
 30
0.0
 10
327.5331466281
 20
25.3795420867
 30
0.0
 10
327.4492699692
 20
25.2863748774
 30
0.0
 10
327.345765387
 20
25.2272294019
 30
0.0
 10
327.2176604743
 20
25.2272294019
 30
0.0
 10
326.9839573343
 20
25.2272294019
 30
0.0
 10
326.8186902202
 20
25.3994317156
 30
0.0
 10
326.8186902202
 20
25.6360136177
 30
0.0
 10
326.8186902202
 20
25.8479951893
 30
0.0
 10
326.9864435379
 20
26.040087132
 30
0.0
 10
327.2032666639
 20
26.040087132
 30
0.0
 10
327.3360822782
 20
26.040087132
 30
0.0
 10
327.4446901205
 20
25.9861757693
 30
0.0
 10
327.5331466281
 20
25.8851573907
 30
0.0
 10
327.5331466281
 20
25.8851573907
 30
0.0
 10
327.5331466281
 20
26.1709399539
 30
0.0
 10
327.5331466281
 20
26.1709399539
 30
0.0
  0
SPLINE
  5
241
330
227
100
AcDbEntity
  8
0
  6
Continuous
 62
     7
100
AcDbSpline
 70
     3
 71
     3
 72
    32
 73
    28
 74
     0
 42
0.000000001
 43
0.0000001
 40
0.0
 40
0.0
 40
0.0
 40
0.0
 40
1.0
 40
1.0
 40
1.0
 40
2.0
 40
2.0
 40
2.0
 40
3.0
 40
3.0
 40
3.0
 40
4.0
 40
4.0
 40
4.0
 40
5.0
 40
5.0
 40
5.0
 40
6.0
 40
6.0
 40
6.0
 40
7.0
 40
7.0
 40
7.0
 40
8.0
 40
8.0
 40
8.0
 40
9.0
 40
9.0
 40
9.0
 40
9.0
 10
330.0650178804
 20
25.5993748276
 30
0.0
 10
330.0650178804
 20
25.5993748276
 30
0.0
 10
330.0650178804
 20
25.6333965613
 30
0.0
 10
330.0650178804
 20
25.6333965613
 30
0.0
 10
330.0650178804
 20
25.9757075435
 30
0.0
 10
329.8921613025
 20
26.2473580019
 30
0.0
 10
329.5255116954
 20
26.2473580019
 30
0.0
 10
329.153889681
 20
26.2473580019
 30
0.0
 10
328.9641530891
 20
25.9809416564
 30
0.0
 10
328.9641530891
 20
25.6260688032
 30
0.0
 10
328.9641530891
 20
25.2863748774
 30
0.0
 10
329.1782283059
 20
25.0204819432
 30
0.0
 10
329.5303532498
 20
25.0204819432
 30
0.0
 10
329.754373281
 20
25.0204819432
 30
0.0
 10
329.9565408909
 20
25.1361558378
 30
0.0
 10
330.0650178804
 20
25.3355755385
 30
0.0
 10
330.0650178804
 20
25.3355755385
 30
0.0
 10
329.8773749337
 20
25.4423514412
 30
0.0
 10
329.8773749337
 20
25.4423514412
 30
0.0
 10
329.7938908332
 20
25.3036474499
 30
0.0
 10
329.7026864163
 20
25.2178079987
 30
0.0
 10
329.5331011591
 20
25.2178079987
 30
0.0
 10
329.3211195875
 20
25.2178079987
 30
0.0
 10
329.1881731204
 20
25.4025721833
 30
0.0
 10
329.1858177696
 20
25.5993748276
 30
0.0
 10
329.1858177696
 20
25.5993748276
 30
0.0
 10
330.0650178804
 20
25.5993748276
 30
0.0
 10
330.0650178804
 20
25.5993748276
 30
0.0
  0
SPLINE
  5
242
330
227
100
AcDbEntity
  8
0
  6
Continuous
 62
     7
100
AcDbSpline
 70
     3
 71
     3
 72
    14
 73
    10
 74
     0
 42
0.000000001
 43
0.0000001
 40
0.0
 40
0.0
 40
0.0
 40
0.0
 40
1.0
 40
1.0
 40
1.0
 40
2.0
 40
2.0
 40
2.0
 40
3.0
 40
3.0
 40
3.0
 40
3.0
 10
329.1978562292
 20
25.7668664397
 30
0.0
 10
329.2254661746
 20
25.9317409954
 30
0.0
 10
329.3533093817
 20
26.054742648
 30
0.0
 10
329.5255116954
 20
26.054742648
 30
0.0
 10
329.7026864163
 20
26.054742648
 30
0.0
 10
329.816135813
 20
25.9390687534
 30
0.0
 10
329.8433531999
 20
25.7668664397
 30
0.0
 10
329.8433531999
 20
25.7668664397
 30
0.0
 10
329.1978562292
 20
25.7668664397
 30
0.0
 10
329.1978562292
 20
25.7668664397
 30
0.0
  0
SPLINE
  5
243
330
227
100
AcDbEntity
  8
0
  6
Continuous
 62
     7
100
AcDbSpline
 70
     3
 71
     3
 72
    20
 73
    16
 74
     0
 42
0.000000001
 43
0.0000001
 40
0.0
 40
0.0
 40
0.0
 40
0.0
 40
1.0
 40
1.0
 40
1.0
 40
2.0
 40
2.0
 40
2.0
 40
3.0
 40
3.0
 40
3.0
 40
4.0
 40
4.0
 40
4.0
 40
5.0
 40
5.0
 40
5.0
 40
5.0
 10
332.0890493306
 20
25.9762309548
 30
0.0
 10
332.0890493306
 20
25.9762309548
 30
0.0
 10
332.5001888972
 20
25.4737561185
 30
0.0
 10
332.5001888972
 20
25.4737561185
 30
0.0
 10
332.3841224441
 20
25.3580822239
 30
0.0
 10
332.2463344226
 20
25.2277528132
 30
0.0
 10
332.0743938145
 20
25.2277528132
 30
0.0
 10
331.8969573879
 20
25.2277528132
 30
0.0
 10
331.7294657758
 20
25.3921039576
 30
0.0
 10
331.7294657758
 20
25.5690169729
 30
0.0
 10
331.7294657758
 20
25.7469768107
 30
0.0
 10
331.9392228494
 20
25.8731189311
 30
0.0
 10
332.0668043508
 20
25.9610520275
 30
0.0
 10
332.0668043508
 20
25.9610520275
 30
0.0
 10
332.0890493306
 20
25.9762309548
 30
0.0
 10
332.0890493306
 20
25.9762309548
 30
0.0
  0
SPLINE
  5
244
330
227
100
AcDbEntity
  8
0
  6
Continuous
 62
     7
100
AcDbSpline
 70
     3
 71
     3
 72
    23
 73
    19
 74
     0
 42
0.000000001
 43
0.0000001
 40
0.0
 40
0.0
 40
0.0
 40
0.0
 40
1.0
 40
1.0
 40
1.0
 40
2.0
 40
2.0
 40
2.0
 40
3.0
 40
3.0
 40
3.0
 40
4.0
 40
4.0
 40
4.0
 40
5.0
 40
5.0
 40
5.0
 40
6.0
 40
6.0
 40
6.0
 40
6.0
 10
332.1383808444
 20
26.2672476309
 30
0.0
 10
332.1383808444
 20
26.2672476309
 30
0.0
 10
332.0767491653
 20
26.3457593241
 30
0.0
 10
332.0767491653
 20
26.3457593241
 30
0.0
 10
332.0228378026
 20
26.4143262028
 30
0.0
 10
331.9660476779
 20
26.4834164928
 30
0.0
 10
331.9660476779
 20
26.5771071133
 30
0.0
 10
331.9660476779
 20
26.6959214757
 30
0.0
 10
332.0619627964
 20
26.7733863463
 30
0.0
 10
332.1729259894
 20
26.7733863463
 30
0.0
 10
332.2961893477
 20
26.7733863463
 30
0.0
 10
332.3894874098
 20
26.7022024111
 30
0.0
 10
332.3894874098
 20
26.5718730004
 30
0.0
 10
332.3894874098
 20
26.4368328882
 30
0.0
 10
332.2613824971
 20
26.3604148401
 30
0.0
 10
332.1678227294
 20
26.2866138485
 30
0.0
 10
332.1678227294
 20
26.2866138485
 30
0.0
 10
332.1383808444
 20
26.2672476309
 30
0.0
 10
332.1383808444
 20
26.2672476309
 30
0.0
  0
SPLINE
  5
245
330
227
100
AcDbEntity
  8
0
  6
Continuous
 62
     7
100
AcDbSpline
 70
     3
 71
     3
 72
    50
 73
    46
 74
     0
 42
0.000000001
 43
0.0000001
 40
0.0
 40
0.0
 40
0.0
 40
0.0
 40
1.0
 40
1.0
 40
1.0
 40
2.0
 40
2.0
 40
2.0
 40
3.0
 40
3.0
 40
3.0
 40
4.0
 40
4.0
 40
4.0
 40
5.0
 40
5.0
 40
5.0
 40
6.0
 40
6.0
 40
6.0
 40
7.0
 40
7.0
 40
7.0
 40
8.0
 40
8.0
 40
8.0
 40
9.0
 40
9.0
 40
9.0
 40
10.0
 40
10.0
 40
10.0
 40
11.0
 40
11.0
 40
11.0
 40
12.0
 40
12.0
 40
12.0
 40
13.0
 40
13.0
 40
13.0
 40
14.0
 40
14.0
 40
14.0
 40
15.0
 40
15.0
 40
15.0
 40
15.0
 10
332.8405370871
 20
25.0602612011
 30
0.0
 10
332.8405370871
 20
25.0602612011
 30
0.0
 10
333.1259270918
 20
25.0602612011
 30
0.0
 10
333.1259270918
 20
25.0602612011
 30
0.0
 10
333.1259270918
 20
25.0602612011
 30
0.0
 10
332.793560924
 20
25.471139062
 30
0.0
 10
332.793560924
 20
25.471139062
 30
0.0
 10
332.793560924
 20
25.471139062
 30
0.0
 10
333.0200671588
 20
25.7370319963
 30
0.0
 10
333.0200671588
 20
25.7370319963
 30
0.0
 10
333.0200671588
 20
25.7370319963
 30
0.0
 10
332.8718109116
 20
25.8898680923
 30
0.0
 10
332.8718109116
 20
25.8898680923
 30
0.0
 10
332.8718109116
 20
25.8898680923
 30
0.0
 10
332.6559037553
 20
25.6386306742
 30
0.0
 10
332.6559037553
 20
25.6386306742
 30
0.0
 10
332.6559037553
 20
25.6386306742
 30
0.0
 10
332.2688411079
 20
26.1065603655
 30
0.0
 10
332.2688411079
 20
26.1065603655
 30
0.0
 10
332.4242942604
 20
26.2206640263
 30
0.0
 10
332.6065722414
 20
26.3604148401
 30
0.0
 10
332.6065722414
 20
26.5697793553
 30
0.0
 10
332.6065722414
 20
26.8136890154
 30
0.0
 10
332.4045354843
 20
26.9571037083
 30
0.0
 10
332.1780292495
 20
26.9571037083
 30
0.0
 10
331.9338578837
 20
26.9571037083
 30
0.0
 10
331.7494862575
 20
26.8063612574
 30
0.0
 10
331.7494862575
 20
26.5498897263
 30
0.0
 10
331.7494862575
 20
26.3923429287
 30
0.0
 10
331.8481492853
 20
26.25468576
 30
0.0
 10
331.953485807
 20
26.1437225669
 30
0.0
 10
331.953485807
 20
26.1437225669
 30
0.0
 10
331.8379427652
 20
26.0599767609
 30
0.0
 10
331.8379427652
 20
26.0599767609
 30
0.0
 10
331.660244633
 20
25.9317409954
 30
0.0
 10
331.5129043554
 20
25.8040286411
 30
0.0
 10
331.5129043554
 20
25.5669233277
 30
0.0
 10
331.5129043554
 20
25.2465956195
 30
0.0
 10
331.7714695316
 20
25.0204819432
 30
0.0
 10
332.0818524253
 20
25.0204819432
 30
0.0
 10
332.3007691965
 20
25.0204819432
 30
0.0
 10
332.4979643992
 20
25.145577241
 30
0.0
 10
332.6382386243
 20
25.3114986192
 30
0.0
 10
332.6382386243
 20
25.3114986192
 30
0.0
 10
332.8405370871
 20
25.0602612011
 30
0.0
 10
332.8405370871
 20
25.0602612011
 30
0.0
  0
LWPOLYLINE
  5
246
330
227
100
AcDbEntity
  8
0
  6
Continuous
 62
     7
100
AcDbPolyline
 90
        2
 70
     0
 43
0.2
 10
334.7759811768
 20
26.9168010391
 10
334.5446333876
 20
26.9168010391
  0
LWPOLYLINE
  5
247
330
227
100
AcDbEntity
  8
0
  6
Continuous
 62
     7
100
AcDbPolyline
 90
        2
 70
     0
 43
0.2
 10
334.5446333876
 20
26.9168010391
 10
334.5446333876
 20
25.0597377898
  0
LWPOLYLINE
  5
248
330
227
100
AcDbEntity
  8
0
  6
Continuous
 62
     7
100
AcDbPolyline
 90
        2
 70
     0
 43
0.2
 10
334.5446333876
 20
25.0597377898
 10
335.3399568395
 20
25.0597377898
  0
LWPOLYLINE
  5
249
330
227
100
AcDbEntity
  8
0
  6
Continuous
 62
     7
100
AcDbPolyline
 90
        2
 70
     0
 43
0.2
 10
335.3399568395
 20
25.0597377898
 10
335.3399568395
 20
25.2717193614
  0
LWPOLYLINE
  5
24A
330
227
100
AcDbEntity
  8
0
  6
Continuous
 62
     7
100
AcDbPolyline
 90
        2
 70
     0
 43
0.2
 10
335.3399568395
 20
25.2717193614
 10
334.7759811768
 20
25.2717193614
  0
LWPOLYLINE
  5
24B
330
227
100
AcDbEntity
  8
0
  6
Continuous
 62
     7
100
AcDbPolyline
 90
        2
 70
     0
 43
0.2
 10
334.7759811768
 20
25.2717193614
 10
334.7759811768
 20
26.9168010391
  0
LWPOLYLINE
  5
24C
330
227
100
AcDbEntity
  8
0
  6
Continuous
 62
     7
100
AcDbPolyline
 90
        2
 70
     0
 43
0.2
 10
337.019060251
 20
26.2122894457
 10
336.7979189819
 20
26.2122894457
  0
LWPOLYLINE
  5
24D
330
227
100
AcDbEntity
  8
0
  6
Continuous
 62
     7
100
AcDbPolyline
 90
        2
 70
     0
 43
0.2
 10
336.7979189819
 20
26.2122894457
 10
336.7979189819
 20
25.0602612011
  0
LWPOLYLINE
  5
24E
330
227
100
AcDbEntity
  8
0
  6
Continuous
 62
     7
100
AcDbPolyline
 90
        2
 70
     0
 43
0.2
 10
336.7979189819
 20
25.0602612011
 10
337.019060251
 20
25.0602612011
  0
LWPOLYLINE
  5
24F
330
227
100
AcDbEntity
  8
0
  6
Continuous
 62
     7
100
AcDbPolyline
 90
        2
 70
     0
 43
0.2
 10
337.019060251
 20
25.0602612011
 10
337.019060251
 20
26.2122894457
  0
SPLINE
  5
250
330
227
100
AcDbEntity
  8
0
  6
Continuous
 62
     7
100
AcDbSpline
 70
     3
 71
     3
 72
    17
 73
    13
 74
     0
 42
0.000000001
 43
0.0000001
 40
0.0
 40
0.0
 40
0.0
 40
0.0
 40
1.0
 40
1.0
 40
1.0
 40
2.0
 40
2.0
 40
2.0
 40
3.0
 40
3.0
 40
3.0
 40
4.0
 40
4.0
 40
4.0
 40
4.0
 10
336.9086204693
 20
26.894817765
 30
0.0
 10
336.8246129576
 20
26.894817765
 30
0.0
 10
336.7560460788
 20
26.825727475
 30
0.0
 10
336.7560460788
 20
26.7398880238
 30
0.0
 10
336.7560460788
 20
26.6556188065
 30
0.0
 10
336.8246129576
 20
26.5896689842
 30
0.0
 10
336.9086204693
 20
26.5896689842
 30
0.0
 10
336.9923662753
 20
26.5896689842
 30
0.0
 10
337.0611948597
 20
26.6556188065
 30
0.0
 10
337.0611948597
 20
26.7398880238
 30
0.0
 10
337.0611948597
 20
26.825727475
 30
0.0
 10
336.9923662753
 20
26.894817765
 30
0.0
 10
336.9086204693
 20
26.894817765
 30
0.0
  0
SPLINE
  5
251
330
227
100
AcDbEntity
  8
0
  6
Continuous
 62
     7
100
AcDbSpline
 70
     3
 71
     3
 72
    17
 73
    13
 74
     0
 42
0.000000001
 43
0.0000001
 40
0.0
 40
0.0
 40
0.0
 40
0.0
 40
1.0
 40
1.0
 40
1.0
 40
2.0
 40
2.0
 40
2.0
 40
3.0
 40
3.0
 40
3.0
 40
4.0
 40
4.0
 40
4.0
 40
4.0
 10
339.1493441926
 20
25.2178079987
 30
0.0
 10
338.915379347
 20
25.2178079987
 30
0.0
 10
338.7850499363
 20
25.4198447558
 30
0.0
 10
338.7850499363
 20
25.6360136177
 30
0.0
 10
338.7850499363
 20
25.8506122457
 30
0.0
 10
338.9208751655
 20
26.0495085351
 30
0.0
 10
339.1493441926
 20
26.0495085351
 30
0.0
 10
339.3888048568
 20
26.0495085351
 30
0.0
 10
339.5243683804
 20
25.8605570602
 30
0.0
 10
339.5243683804
 20
25.6360136177
 30
0.0
 10
339.5243683804
 20
25.4098999414
 30
0.0
 10
339.3911602076
 20
25.2178079987
 30
0.0
 10
339.1493441926
 20
25.2178079987
 30
0.0
  0
SPLINE
  5
252
330
227
100
AcDbEntity
  8
0
  6
Continuous
 62
     7
100
AcDbSpline
 70
     3
 71
     3
 72
    50
 73
    46
 74
     0
 42
0.000000001
 43
0.0000001
 40
0.0
 40
0.0
 40
0.0
 40
0.0
 40
1.0
 40
1.0
 40
1.0
 40
2.0
 40
2.0
 40
2.0
 40
3.0
 40
3.0
 40
3.0
 40
4.0
 40
4.0
 40
4.0
 40
5.0
 40
5.0
 40
5.0
 40
6.0
 40
6.0
 40
6.0
 40
7.0
 40
7.0
 40
7.0
 40
8.0
 40
8.0
 40
8.0
 40
9.0
 40
9.0
 40
9.0
 40
10.0
 40
10.0
 40
10.0
 40
11.0
 40
11.0
 40
11.0
 40
12.0
 40
12.0
 40
12.0
 40
13.0
 40
13.0
 40
13.0
 40
14.0
 40
14.0
 40
14.0
 40
15.0
 40
15.0
 40
15.0
 40
15.0
 10
339.7334711899
 20
26.2128128569
 30
0.0
 10
339.7334711899
 20
26.2128128569
 30
0.0
 10
339.5118065095
 20
26.2128128569
 30
0.0
 10
339.5118065095
 20
26.2128128569
 30
0.0
 10
339.5118065095
 20
26.2128128569
 30
0.0
 10
339.5118065095
 20
26.0154868014
 30
0.0
 10
339.5118065095
 20
26.0154868014
 30
0.0
 10
339.5118065095
 20
26.0154868014
 30
0.0
 10
339.5070958079
 20
26.0154868014
 30
0.0
 10
339.5070958079
 20
26.0154868014
 30
0.0
 10
339.4157605382
 20
26.158378083
 30
0.0
 10
339.2778416638
 20
26.2468345907
 30
0.0
 10
339.1051159388
 20
26.2468345907
 30
0.0
 10
338.772749771
 20
26.2468345907
 30
0.0
 10
338.5636469615
 20
25.9589583823
 30
0.0
 10
338.5636469615
 20
25.6433413757
 30
0.0
 10
338.5636469615
 20
25.3135922644
 30
0.0
 10
338.7607113114
 20
25.0204819432
 30
0.0
 10
339.1155841646
 20
25.0204819432
 30
0.0
 10
339.2778416638
 20
25.0204819432
 30
0.0
 10
339.4178541833
 20
25.1089384508
 30
0.0
 10
339.5070958079
 20
25.2397912728
 30
0.0
 10
339.5070958079
 20
25.2397912728
 30
0.0
 10
339.5118065095
 20
25.2397912728
 30
0.0
 10
339.5118065095
 20
25.2397912728
 30
0.0
 10
339.5118065095
 20
25.2397912728
 30
0.0
 10
339.5118065095
 20
25.0204819432
 30
0.0
 10
339.5118065095
 20
25.0204819432
 30
0.0
 10
339.5118065095
 20
24.7839000411
 30
0.0
 10
339.4552780904
 20
24.5970422113
 30
0.0
 10
339.1820573981
 20
24.5970422113
 30
0.0
 10
338.9797589354
 20
24.5970422113
 30
0.0
 10
338.8371293594
 20
24.7153331624
 30
0.0
 10
338.8371293594
 20
24.9215572098
 30
0.0
 10
338.8371293594
 20
24.9215572098
 30
0.0
 10
338.615464679
 20
24.9215572098
 30
0.0
 10
338.615464679
 20
24.9215572098
 30
0.0
 10
338.6204370862
 20
24.5970422113
 30
0.0
 10
338.8515231698
 20
24.4002395671
 30
0.0
 10
339.171850878
 20
24.4002395671
 30
0.0
 10
339.6198909404
 20
24.4002395671
 30
0.0
 10
339.7334711899
 20
24.6854987189
 30
0.0
 10
339.7334711899
 20
25.0822444751
 30
0.0
 10
339.7334711899
 20
25.0822444751
 30
0.0
 10
339.7334711899
 20
26.2128128569
 30
0.0
 10
339.7334711899
 20
26.2128128569
 30
0.0
  0
SPLINE
  5
253
330
227
100
AcDbEntity
  8
0
  6
Continuous
 62
     7
100
AcDbSpline
 70
     3
 71
     3
 72
    44
 73
    40
 74
     0
 42
0.000000001
 43
0.0000001
 40
0.0
 40
0.0
 40
0.0
 40
0.0
 40
1.0
 40
1.0
 40
1.0
 40
2.0
 40
2.0
 40
2.0
 40
3.0
 40
3.0
 40
3.0
 40
4.0
 40
4.0
 40
4.0
 40
5.0
 40
5.0
 40
5.0
 40
6.0
 40
6.0
 40
6.0
 40
7.0
 40
7.0
 40
7.0
 40
8.0
 40
8.0
 40
8.0
 40
9.0
 40
9.0
 40
9.0
 40
10.0
 40
10.0
 40
10.0
 40
11.0
 40
11.0
 40
11.0
 40
12.0
 40
12.0
 40
12.0
 40
13.0
 40
13.0
 40
13.0
 40
13.0
 10
341.3023965253
 20
27.1978729007
 30
0.0
 10
341.3023965253
 20
27.1978729007
 30
0.0
 10
341.3023965253
 20
25.0597377898
 30
0.0
 10
341.3023965253
 20
25.0597377898
 30
0.0
 10
341.3023965253
 20
25.0597377898
 30
0.0
 10
341.5237995001
 20
25.0597377898
 30
0.0
 10
341.5237995001
 20
25.0597377898
 30
0.0
 10
341.5237995001
 20
25.0597377898
 30
0.0
 10
341.5237995001
 20
25.5894300131
 30
0.0
 10
341.5237995001
 20
25.5894300131
 30
0.0
 10
341.5237995001
 20
25.7993179395
 30
0.0
 10
341.5237995001
 20
26.0500319464
 30
0.0
 10
341.8090586519
 20
26.0500319464
 30
0.0
 10
342.0359574452
 20
26.0500319464
 30
0.0
 10
342.0629131266
 20
25.9170854793
 30
0.0
 10
342.0629131266
 20
25.7208062464
 30
0.0
 10
342.0629131266
 20
25.7208062464
 30
0.0
 10
342.0629131266
 20
25.0597377898
 30
0.0
 10
342.0629131266
 20
25.0597377898
 30
0.0
 10
342.0629131266
 20
25.0597377898
 30
0.0
 10
342.2848395126
 20
25.0597377898
 30
0.0
 10
342.2848395126
 20
25.0597377898
 30
0.0
 10
342.2848395126
 20
25.0597377898
 30
0.0
 10
342.2848395126
 20
25.7469768107
 30
0.0
 10
342.2848395126
 20
25.7469768107
 30
0.0
 10
342.2848395126
 20
26.027525261
 30
0.0
 10
342.2008320009
 20
26.2473580019
 30
0.0
 10
341.8757935911
 20
26.2473580019
 30
0.0
 10
341.7360427773
 20
26.2473580019
 30
0.0
 10
341.5978621973
 20
26.1808847684
 30
0.0
 10
341.5285102016
 20
26.0578831157
 30
0.0
 10
341.5285102016
 20
26.0578831157
 30
0.0
 10
341.5237995001
 20
26.0578831157
 30
0.0
 10
341.5237995001
 20
26.0578831157
 30
0.0
 10
341.5237995001
 20
26.0578831157
 30
0.0
 10
341.5237995001
 20
27.1978729007
 30
0.0
 10
341.5237995001
 20
27.1978729007
 30
0.0
 10
341.5237995001
 20
27.1978729007
 30
0.0
 10
341.3023965253
 20
27.1978729007
 30
0.0
 10
341.3023965253
 20
27.1978729007
 30
0.0
  0
LWPOLYLINE
  5
254
330
227
100
AcDbEntity
  8
0
  6
Continuous
 62
     7
100
AcDbPolyline
 90
        2
 70
     0
 43
0.2
 10
344.1246301895
 20
26.005541987
 10
344.341060757
 20
26.005541987
  0
LWPOLYLINE
  5
255
330
227
100
AcDbEntity
  8
0
  6
Continuous
 62
     7
100
AcDbPolyline
 90
        2
 70
     0
 43
0.2
 10
344.341060757
 20
26.005541987
 10
344.341060757
 20
26.2122894457
  0
LWPOLYLINE
  5
256
330
227
100
AcDbEntity
  8
0
  6
Continuous
 62
     7
100
AcDbPolyline
 90
        2
 70
     0
 43
0.2
 10
344.341060757
 20
26.2122894457
 10
344.1246301895
 20
26.2122894457
  0
LWPOLYLINE
  5
257
330
227
100
AcDbEntity
  8
0
  6
Continuous
 62
     7
100
AcDbPolyline
 90
        2
 70
     0
 43
0.2
 10
344.1246301895
 20
26.2122894457
 10
344.1246301895
 20
26.65300175
  0
LWPOLYLINE
  5
258
330
227
100
AcDbEntity
  8
0
  6
Continuous
 62
     7
100
AcDbPolyline
 90
        2
 70
     0
 43
0.2
 10
344.1246301895
 20
26.65300175
 10
343.9029655091
 20
26.65300175
  0
LWPOLYLINE
  5
259
330
227
100
AcDbEntity
  8
0
  6
Continuous
 62
     7
100
AcDbPolyline
 90
        2
 70
     0
 43
0.2
 10
343.9029655091
 20
26.65300175
 10
343.9029655091
 20
26.2122894457
  0
LWPOLYLINE
  5
25A
330
227
100
AcDbEntity
  8
0
  6
Continuous
 62
     7
100
AcDbPolyline
 90
        2
 70
     0
 43
0.2
 10
343.9029655091
 20
26.2122894457
 10
343.7823192072
 20
26.2122894457
  0
LWPOLYLINE
  5
25B
330
227
100
AcDbEntity
  8
0
  6
Continuous
 62
     7
100
AcDbPolyline
 90
        2
 70
     0
 43
0.2
 10
343.7823192072
 20
26.2122894457
 10
343.7823192072
 20
26.005541987
  0
LWPOLYLINE
  5
25C
330
227
100
AcDbEntity
  8
0
  6
Continuous
 62
     7
100
AcDbPolyline
 90
        2
 70
     0
 43
0.2
 10
343.7823192072
 20
26.005541987
 10
343.9029655091
 20
26.005541987
  0
LWPOLYLINE
  5
25D
330
227
100
AcDbEntity
  8
0
  6
Continuous
 62
     7
100
AcDbPolyline
 90
        2
 70
     0
 43
0.2
 10
343.9029655091
 20
26.005541987
 10
343.9029655091
 20
25.0597377898
  0
LWPOLYLINE
  5
25E
330
227
100
AcDbEntity
  8
0
  6
Continuous
 62
     7
100
AcDbPolyline
 90
        2
 70
     0
 43
0.2
 10
343.9029655091
 20
25.0597377898
 10
344.1246301895
 20
25.0597377898
  0
LWPOLYLINE
  5
25F
330
227
100
AcDbEntity
  8
0
  6
Continuous
 62
     7
100
AcDbPolyline
 90
        2
 70
     0
 43
0.2
 10
344.1246301895
 20
25.0597377898
 10
344.1246301895
 20
26.005541987
  0
SPLINE
  5
260
330
227
100
AcDbEntity
  8
0
  6
Continuous
 62
     7
100
AcDbSpline
 70
     3
 71
     3
 72
    20
 73
    16
 74
     0
 42
0.000000001
 43
0.0000001
 40
0.0
 40
0.0
 40
0.0
 40
0.0
 40
1.0
 40
1.0
 40
1.0
 40
2.0
 40
2.0
 40
2.0
 40
3.0
 40
3.0
 40
3.0
 40
4.0
 40
4.0
 40
4.0
 40
5.0
 40
5.0
 40
5.0
 40
5.0
 10
331.9066404967
 20
35.4206642332
 30
0.0
 10
331.9066404967
 20
35.4206642332
 30
0.0
 10
334.2229971512
 20
32.5911028109
 30
0.0
 10
334.2229971512
 20
32.5911028109
 30
0.0
 10
333.5713500978
 20
31.9389323462
 30
0.0
 10
332.7944768938
 20
31.2030160755
 30
0.0
 10
331.8232872491
 20
31.2030160755
 30
0.0
 10
330.8247493647
 20
31.2030160755
 30
0.0
 10
329.8814313711
 20
32.1325945228
 30
0.0
 10
329.8814313711
 20
33.1317866713
 30
0.0
 10
329.8814313711
 20
34.1309788198
 30
0.0
 10
331.0602844442
 20
34.8375840585
 30
0.0
 10
331.7818069046
 20
35.3374418384
 30
0.0
 10
331.7818069046
 20
35.3374418384
 30
0.0
 10
331.9066404967
 20
35.4206642332
 30
0.0
 10
331.9066404967
 20
35.4206642332
 30
0.0
  0
SPLINE
  5
261
330
227
100
AcDbEntity
  8
0
  6
Continuous
 62
     7
100
AcDbSpline
 70
     3
 71
     3
 72
    23
 73
    19
 74
     0
 42
0.000000001
 43
0.0000001
 40
0.0
 40
0.0
 40
0.0
 40
0.0
 40
1.0
 40
1.0
 40
1.0
 40
2.0
 40
2.0
 40
2.0
 40
3.0
 40
3.0
 40
3.0
 40
4.0
 40
4.0
 40
4.0
 40
5.0
 40
5.0
 40
5.0
 40
6.0
 40
6.0
 40
6.0
 40
6.0
 10
332.1840484793
 20
37.0584181529
 30
0.0
 10
332.1840484793
 20
37.0584181529
 30
0.0
 10
331.8375502067
 20
37.5017475137
 30
0.0
 10
331.8375502067
 20
37.5017475137
 30
0.0
 10
331.5317471618
 20
37.8898569837
 30
0.0
 10
331.2128588347
 20
38.2783590121
 30
0.0
 10
331.2128588347
 20
38.8053033262
 30
0.0
 10
331.2128588347
 20
39.4714750428
 30
0.0
 10
331.7541969591
 20
39.9151969621
 30
0.0
 10
332.3781032143
 20
39.9151969621
 30
0.0
 10
333.0718848763
 20
39.9151969621
 30
0.0
 10
333.5990908961
 20
39.5129553874
 30
0.0
 10
333.5990908961
 20
38.7779550864
 30
0.0
 10
333.5990908961
 20
38.0146905758
 30
0.0
 10
332.8778301414
 20
37.58457735
 30
0.0
 10
332.3507549745
 20
37.1688579346
 30
0.0
 10
332.3507549745
 20
37.1688579346
 30
0.0
 10
332.1840484793
 20
37.0584181529
 30
0.0
 10
332.1840484793
 20
37.0584181529
 30
0.0
  0
SPLINE
  5
262
330
227
100
AcDbEntity
  8
0
  6
Continuous
 62
     7
100
AcDbSpline
 70
     3
 71
     3
 72
    50
 73
    46
 74
     0
 42
0.000000001
 43
0.0000001
 40
0.0
 40
0.0
 40
0.0
 40
0.0
 40
1.0
 40
1.0
 40
1.0
 40
2.0
 40
2.0
 40
2.0
 40
3.0
 40
3.0
 40
3.0
 40
4.0
 40
4.0
 40
4.0
 40
5.0
 40
5.0
 40
5.0
 40
6.0
 40
6.0
 40
6.0
 40
7.0
 40
7.0
 40
7.0
 40
8.0
 40
8.0
 40
8.0
 40
9.0
 40
9.0
 40
9.0
 40
10.0
 40
10.0
 40
10.0
 40
11.0
 40
11.0
 40
11.0
 40
12.0
 40
12.0
 40
12.0
 40
13.0
 40
13.0
 40
13.0
 40
14.0
 40
14.0
 40
14.0
 40
15.0
 40
15.0
 40
15.0
 40
15.0
 10
336.1376356422
 20
30.2598289348
 30
0.0
 10
336.1376356422
 20
30.2598289348
 30
0.0
 10
337.7468636468
 20
30.2598289348
 30
0.0
 10
337.7468636468
 20
30.2598289348
 30
0.0
 10
337.7468636468
 20
30.2598289348
 30
0.0
 10
335.8738363531
 20
32.5769707062
 30
0.0
 10
335.8738363531
 20
32.5769707062
 30
0.0
 10
335.8738363531
 20
32.5769707062
 30
0.0
 10
337.1501747786
 20
34.0744504008
 30
0.0
 10
337.1501747786
 20
34.0744504008
 30
0.0
 10
337.1501747786
 20
34.0744504008
 30
0.0
 10
336.3179508309
 20
34.9354619693
 30
0.0
 10
336.3179508309
 20
34.9354619693
 30
0.0
 10
336.3179508309
 20
34.9354619693
 30
0.0
 10
335.0973557076
 20
33.5201578469
 30
0.0
 10
335.0973557076
 20
33.5201578469
 30
0.0
 10
335.0973557076
 20
33.5201578469
 30
0.0
 10
332.9194413388
 20
36.1555336813
 30
0.0
 10
332.9194413388
 20
36.1555336813
 30
0.0
 10
333.7930147782
 20
36.7935720412
 30
0.0
 10
334.8196860194
 20
37.58457735
 30
0.0
 10
334.8196860194
 20
38.7634304231
 30
0.0
 10
334.8196860194
 20
40.1371233482
 30
0.0
 10
333.6817898795
 20
40.9416064976
 30
0.0
 10
332.4064982766
 20
40.9416064976
 30
0.0
 10
331.0330670573
 20
40.9416064976
 30
0.0
 10
329.9921328585
 20
40.0953812979
 30
0.0
 10
329.9921328585
 20
38.6527289358
 30
0.0
 10
329.9921328585
 20
37.7651542444
 30
0.0
 10
330.547472235
 20
36.9882810403
 30
0.0
 10
331.1436376918
 20
36.3638513739
 30
0.0
 10
331.1436376918
 20
36.3638513739
 30
0.0
 10
330.4917289328
 20
35.8922578035
 30
0.0
 10
330.4917289328
 20
35.8922578035
 30
0.0
 10
329.4931910484
 20
35.1709970488
 30
0.0
 10
328.6603128365
 20
34.4497362942
 30
0.0
 10
328.6603128365
 20
33.1181779778
 30
0.0
 10
328.6603128365
 20
31.3145026798
 30
0.0
 10
330.1173590091
 20
30.0379025487
 30
0.0
 10
331.8648984465
 20
30.0379025487
 30
0.0
 10
333.0997565274
 20
30.0379025487
 30
0.0
 10
334.2091267521
 20
30.7460780212
 30
0.0
 10
335.000001208
 20
31.6746096459
 30
0.0
 10
335.000001208
 20
31.6746096459
 30
0.0
 10
336.1376356422
 20
30.2598289348
 30
0.0
 10
336.1376356422
 20
30.2598289348
 30
0.0
  0
LINE
  5
263
330
227
100
AcDbEntity
  8
0
  6
Continuous
 62
     7
100
AcDbLine
 10
321.9404970172
 20
28.2337038394
 30
0.0
 11
344.3544077449
 21
28.2337038394
 31
0.0
  0
LINE
  5
264
330
227
100
AcDbEntity
  8
0
  6
Continuous
 62
     7
100
AcDbLine
 10
344.3544077449
 20
28.2337038394
 30
0.0
 11
344.3544077449
 21
50.6476145671
 31
0.0
  0
LINE
  5
265
330
227
100
AcDbEntity
  8
0
  6
Continuous
 62
     7
100
AcDbLine
 10
344.3544077449
 20
50.6476145671
 30
0.0
 11
321.9404970172
 21
50.6476145671
 31
0.0
  0
LINE
  5
266
330
227
100
AcDbEntity
  8
0
  6
Continuous
 62
     7
100
AcDbLine
 10
321.9404970172
 20
50.6476145671
 30
0.0
 11
321.9404970172
 21
28.2337038394
 31
0.0
  0
ENDBLK
  5
267
330
227
100
AcDbEntity
  8
0
  6
ByBlock
 62
     0
100
AcDbBlockEnd
  0
BLOCK
  5
289
330
228
100
AcDbEntity
  8
0
100
AcDbBlockBegin
  2
*T5
 70
     1
 10
0.0
 20
0.0
 30
0.0
  3
*T5
  1
*T5
  0
MTEXT
  5
28A
330
228
100
AcDbEntity
  8
0
  6
Continuous
 62
     0
100
AcDbMText
 10
30.06
 20
-3.0
 30
0.0
 40
3.0
 41
39.88
 71
     4
 72
     5
  1
2C4_C_001
 73
     1
 44
1.0
  0
MTEXT
  5
28B
330
228
100
AcDbEntity
  8
0
  6
Continuous
 62
     0
100
AcDbMText
 10
70.06
 20
-0.06
 30
0.0
 40
3.5
 41
19.88
 71
     1
 72
     5
  1
Rev:00
 73
     1
 44
1.0
  0
MTEXT
  5
28C
330
228
100
AcDbEntity
  8
0
  6
Continuous
 62
     0
100
AcDbMText
 10
30.06
 20
-6.06
 30
0.0
 40
3.5
 41
39.88
 71
     1
 72
     5
  1
Scale:1:1
 73
     1
 44
1.0
  0
MTEXT
  5
28D
330
228
100
AcDbEntity
  8
0
  6
Continuous
 62
     0
100
AcDbMText
 10
70.06
 20
-9.0
 30
0.0
 40
3.5
 41
19.88
 71
     4
 72
     5
  1
A3
 73
     1
 44
1.0
  0
MTEXT
  5
28E
330
228
100
AcDbEntity
  8
0
  6
Continuous
 62
     0
100
AcDbMText
 10
30.06
 20
-17.0
 30
0.0
 40
3.5
 41
59.88
 71
     4
 72
     5
  1
BRIGHT 3.5
 73
     1
 44
1.0
  0
MTEXT
  5
28F
330
228
100
AcDbEntity
  8
0
  6
Continuous
 62
     0
100
AcDbMText
 10
30.06
 20
-24.5
 30
0.0
 40
2.5
 41
59.88
 71
     4
 72
     5
  1
DATE:24/02/2014
 73
     1
 44
1.0
  0
MTEXT
  5
290
330
228
100
AcDbEntity
  8
0
  6
Continuous
 62
     0
100
AcDbMText
 10
0.06
 20
-27.06
 30
0.0
 40
1.85
 41
89.88
 71
     1
 72
     5
  1
Any integral or partial reproductions are prohibited \Pwithout prior authorisation of L & L Luce & Light s.r.l., \Pin accordance with the law in force. \PAll rights reserved.
 73
     1
 44
1.0
  0
LINE
  5
291
330
228
100
AcDbEntity
  8
0
  6
Continuous
 62
     0
370
    -2
100
AcDbLine
 10
0.0
 20
0.0
 30
0.0
 11
10.0
 21
0.0
 31
0.0
  0
LINE
  5
292
330
228
100
AcDbEntity
  8
0
  6
Continuous
 62
     0
370
    -2
100
AcDbLine
 10
10.0
 20
0.0
 30
0.0
 11
20.0
 21
0.0
 31
0.0
  0
LINE
  5
293
330
228
100
AcDbEntity
  8
0
  6
Continuous
 62
     0
370
    -2
100
AcDbLine
 10
20.0
 20
0.0
 30
0.0
 11
30.0
 21
0.0
 31
0.0
  0
LINE
  5
294
330
228
100
AcDbEntity
  8
0
  6
Continuous
 62
     0
370
    -2
100
AcDbLine
 10
0.0
 20
0.0
 30
0.0
 11
0.0
 21
-6.0
 31
0.0
  0
LINE
  5
295
330
228
100
AcDbEntity
  8
0
  6
Continuous
 62
     0
370
    -2
100
AcDbLine
 10
0.0
 20
-6.0
 30
0.0
 11
0.0
 21
-12.0
 31
0.0
  0
LINE
  5
296
330
228
100
AcDbEntity
  8
0
  6
Continuous
 62
     0
370
    -2
100
AcDbLine
 10
0.0
 20
-12.0
 30
0.0
 11
0.0
 21
-22.0
 31
0.0
  0
LINE
  5
297
330
228
100
AcDbEntity
  8
0
  6
Continuous
 62
     0
370
    -2
100
AcDbLine
 10
0.0
 20
-22.0
 30
0.0
 11
0.0
 21
-27.0
 31
0.0
  0
LINE
  5
298
330
228
100
AcDbEntity
  8
0
  6
Continuous
 62
     0
370
    -2
100
AcDbLine
 10
30.0
 20
0.0
 30
0.0
 11
70.0
 21
0.0
 31
0.0
  0
LINE
  5
299
330
228
100
AcDbEntity
  8
0
  6
Continuous
 62
     0
370
    -2
100
AcDbLine
 10
30.0
 20
0.0
 30
0.0
 11
30.0
 21
-6.0
 31
0.0
  0
LINE
  5
29A
330
228
100
AcDbEntity
  8
0
  6
Continuous
 62
     0
370
    -2
100
AcDbLine
 10
70.0
 20
0.0
 30
0.0
 11
90.0
 21
0.0
 31
0.0
  0
LINE
  5
52B
330
228
100
AcDbEntity
  8
0
  6
Continuous
 62
     0
370
    -2
100
AcDbLine
 10
70.0
 20
0.0
 30
0.0
 11
70.0
 21
-6.0
 31
0.0
  0
LINE
  5
52C
330
228
100
AcDbEntity
  8
0
  6
Continuous
 62
     0
370
    -2
100
AcDbLine
 10
90.0
 20
0.0
 30
0.0
 11
90.0
 21
-6.0
 31
0.0
  0
LINE
  5
52D
330
228
100
AcDbEntity
  8
0
  6
Continuous
 62
     0
370
    -2
100
AcDbLine
 10
30.0
 20
-6.0
 30
0.0
 11
70.0
 21
-6.0
 31
0.0
  0
LINE
  5
52E
330
228
100
AcDbEntity
  8
0
  6
Continuous
 62
     0
370
    -2
100
AcDbLine
 10
30.0
 20
-6.0
 30
0.0
 11
30.0
 21
-12.0
 31
0.0
  0
LINE
  5
52F
330
228
100
AcDbEntity
  8
0
  6
Continuous
 62
     0
370
    -2
100
AcDbLine
 10
70.0
 20
-6.0
 30
0.0
 11
90.0
 21
-6.0
 31
0.0
  0
LINE
  5
530
330
228
100
AcDbEntity
  8
0
  6
Continuous
 62
     0
370
    -2
100
AcDbLine
 10
70.0
 20
-6.0
 30
0.0
 11
70.0
 21
-12.0
 31
0.0
  0
LINE
  5
531
330
228
100
AcDbEntity
  8
0
  6
Continuous
 62
     0
370
    -2
100
AcDbLine
 10
90.0
 20
-6.0
 30
0.0
 11
90.0
 21
-12.0
 31
0.0
  0
LINE
  5
532
330
228
100
AcDbEntity
  8
0
  6
Continuous
 62
     0
370
    -2
100
AcDbLine
 10
30.0
 20
-12.0
 30
0.0
 11
70.0
 21
-12.0
 31
0.0
  0
LINE
  5
533
330
228
100
AcDbEntity
  8
0
  6
Continuous
 62
     0
370
    -2
100
AcDbLine
 10
70.0
 20
-12.0
 30
0.0
 11
90.0
 21
-12.0
 31
0.0
  0
LINE
  5
534
330
228
100
AcDbEntity
  8
0
  6
Continuous
 62
     0
370
    -2
100
AcDbLine
 10
30.0
 20
-12.0
 30
0.0
 11
30.0
 21
-22.0
 31
0.0
  0
LINE
  5
535
330
228
100
AcDbEntity
  8
0
  6
Continuous
 62
     0
370
    -2
100
AcDbLine
 10
90.0
 20
-12.0
 30
0.0
 11
90.0
 21
-22.0
 31
0.0
  0
LINE
  5
536
330
228
100
AcDbEntity
  8
0
  6
Continuous
 62
     0
370
    -2
100
AcDbLine
 10
30.0
 20
-22.0
 30
0.0
 11
70.0
 21
-22.0
 31
0.0
  0
LINE
  5
537
330
228
100
AcDbEntity
  8
0
  6
Continuous
 62
     0
370
    -2
100
AcDbLine
 10
70.0
 20
-22.0
 30
0.0
 11
90.0
 21
-22.0
 31
0.0
  0
LINE
  5
538
330
228
100
AcDbEntity
  8
0
  6
Continuous
 62
     0
370
    -2
100
AcDbLine
 10
30.0
 20
-22.0
 30
0.0
 11
30.0
 21
-27.0
 31
0.0
  0
LINE
  5
539
330
228
100
AcDbEntity
  8
0
  6
Continuous
 62
     0
370
    -2
100
AcDbLine
 10
90.0
 20
-22.0
 30
0.0
 11
90.0
 21
-27.0
 31
0.0
  0
LINE
  5
53A
330
228
100
AcDbEntity
  8
0
  6
Continuous
 62
     0
370
    -2
100
AcDbLine
 10
0.0
 20
-27.0
 30
0.0
 11
10.0
 21
-27.0
 31
0.0
  0
LINE
  5
53B
330
228
100
AcDbEntity
  8
0
  6
Continuous
 62
     0
370
    -2
100
AcDbLine
 10
10.0
 20
-27.0
 30
0.0
 11
20.0
 21
-27.0
 31
0.0
  0
LINE
  5
53C
330
228
100
AcDbEntity
  8
0
  6
Continuous
 62
     0
370
    -2
100
AcDbLine
 10
20.0
 20
-27.0
 30
0.0
 11
30.0
 21
-27.0
 31
0.0
  0
LINE
  5
53D
330
228
100
AcDbEntity
  8
0
  6
Continuous
 62
     0
370
    -2
100
AcDbLine
 10
30.0
 20
-27.0
 30
0.0
 11
70.0
 21
-27.0
 31
0.0
  0
LINE
  5
53E
330
228
100
AcDbEntity
  8
0
  6
Continuous
 62
     0
370
    -2
100
AcDbLine
 10
70.0
 20
-27.0
 30
0.0
 11
90.0
 21
-27.0
 31
0.0
  0
LINE
  5
53F
330
228
100
AcDbEntity
  8
0
  6
Continuous
 62
     0
370
    -2
100
AcDbLine
 10
0.0
 20
-27.0
 30
0.0
 11
0.0
 21
-40.0
 31
0.0
  0
LINE
  5
540
330
228
100
AcDbEntity
  8
0
  6
Continuous
 62
     0
370
    -2
100
AcDbLine
 10
90.0
 20
-27.0
 30
0.0
 11
90.0
 21
-40.0
 31
0.0
  0
LINE
  5
541
330
228
100
AcDbEntity
  8
0
  6
Continuous
 62
     0
370
    -2
100
AcDbLine
 10
0.0
 20
-40.0
 30
0.0
 11
10.0
 21
-40.0
 31
0.0
  0
LINE
  5
542
330
228
100
AcDbEntity
  8
0
  6
Continuous
 62
     0
370
    -2
100
AcDbLine
 10
10.0
 20
-40.0
 30
0.0
 11
20.0
 21
-40.0
 31
0.0
  0
LINE
  5
543
330
228
100
AcDbEntity
  8
0
  6
Continuous
 62
     0
370
    -2
100
AcDbLine
 10
20.0
 20
-40.0
 30
0.0
 11
30.0
 21
-40.0
 31
0.0
  0
LINE
  5
544
330
228
100
AcDbEntity
  8
0
  6
Continuous
 62
     0
370
    -2
100
AcDbLine
 10
30.0
 20
-40.0
 30
0.0
 11
70.0
 21
-40.0
 31
0.0
  0
LINE
  5
545
330
228
100
AcDbEntity
  8
0
  6
Continuous
 62
     0
370
    -2
100
AcDbLine
 10
70.0
 20
-40.0
 30
0.0
 11
90.0
 21
-40.0
 31
0.0
  0
ENDBLK
  5
29B
330
228
100
AcDbEntity
  8
0
100
AcDbBlockEnd
  0
ENDSEC
  0
SECTION
  2
ENTITIES
  0
MTEXT
  5
29C
330
221
100
AcDbEntity
  8
0
  6
Continuous
 62
     2
100
AcDbMText
 10
1.6467220993
 20
53.595027386
 30
0.0
 40
4.0
 41
2.2857142857
 71
     1
 72
     1
  1
1
  7
TEXTSTYLE_2
 73
     1
 44
0.9
  0
MTEXT
  5
29D
330
221
100
AcDbEntity
  8
0
  6
Continuous
 62
     2
100
AcDbMText
 10
1.6467220993
 20
153.595027386
 30
0.0
 40
4.0
 41
3.1428571429
 71
     1
 72
     1
  1
2
  7
TEXTSTYLE_2
 73
     1
 44
0.9
  0
MTEXT
  5
29E
330
221
100
AcDbEntity
  8
0
  6
Continuous
 62
     2
100
AcDbMText
 10
1.6467220993
 20
253.595027386
 30
0.0
 40
4.0
 41
2.8571428571
 71
     1
 72
     1
  1
3
  7
TEXTSTYLE_2
 73
     1
 44
0.9
  0
MTEXT
  5
29F
330
221
100
AcDbEntity
  8
0
  6
Continuous
 62
     2
100
AcDbMText
 10
414.6467220993
 20
60.6268709614
 30
0.0
 40
4.0
 41
2.2857142857
 71
     1
 72
     1
  1
1
  7
TEXTSTYLE_2
 73
     1
 44
0.9
  0
MTEXT
  5
2A0
330
221
100
AcDbEntity
  8
0
  6
Continuous
 62
     2
100
AcDbMText
 10
414.6467220993
 20
160.6268709614
 30
0.0
 40
4.0
 41
3.1428571429
 71
     1
 72
     1
  1
2
  7
TEXTSTYLE_2
 73
     1
 44
0.9
  0
MTEXT
  5
2A1
330
221
100
AcDbEntity
  8
0
  6
Continuous
 62
     2
100
AcDbMText
 10
414.6467220993
 20
260.6268709614
 30
0.0
 40
4.0
 41
2.8571428571
 71
     1
 72
     1
  1
3
  7
TEXTSTYLE_2
 73
     1
 44
0.9
  0
MTEXT
  5
2A2
330
221
100
AcDbEntity
  8
0
  6
Continuous
 62
     2
100
AcDbMText
 10
362.154890719
 20
5.35876025
 30
0.0
 40
4.0
 41
3.6
 71
     1
 72
     1
  1
A
  7
TEXTSTYLE_3
 73
     1
 44
0.9
  0
MTEXT
  5
2A3
330
221
100
AcDbEntity
  8
0
  6
Continuous
 62
     2
100
AcDbMText
 10
262.154890719
 20
5.35876025
 30
0.0
 40
4.0
 41
3.6
 71
     1
 72
     1
  1
B
  7
TEXTSTYLE_3
 73
     1
 44
0.9
  0
MTEXT
  5
2A4
330
221
100
AcDbEntity
  8
0
  6
Continuous
 62
     2
100
AcDbMText
 10
162.154890719
 20
5.35876025
 30
0.0
 40
4.0
 41
3.6
 71
     1
 72
     1
  1
C
  7
TEXTSTYLE_3
 73
     1
 44
0.9
  0
MTEXT
  5
2A5
330
221
100
AcDbEntity
  8
0
  6
Continuous
 62
     2
100
AcDbMText
 10
55.7978688212
 20
5.5353441916
 30
0.0
 40
4.0
 41
3.6
 71
     1
 72
     1
  1
D
  7
TEXTSTYLE_3
 73
     1
 44
0.9
  0
MTEXT
  5
2A6
330
221
100
AcDbEntity
  8
0
  6
Continuous
 62
     2
100
AcDbMText
 10
362.154890719
 20
295.35876025
 30
0.0
 40
4.0
 41
3.6
 71
     1
 72
     1
  1
A
  7
TEXTSTYLE_3
 73
     1
 44
0.9
  0
MTEXT
  5
2A7
330
221
100
AcDbEntity
  8
0
  6
Continuous
 62
     2
100
AcDbMText
 10
262.154890719
 20
295.35876025
 30
0.0
 40
4.0
 41
3.6
 71
     1
 72
     1
  1
B
  7
TEXTSTYLE_3
 73
     1
 44
0.9
  0
MTEXT
  5
2A8
330
221
100
AcDbEntity
  8
0
  6
Continuous
 62
     2
100
AcDbMText
 10
162.154890719
 20
295.35876025
 30
0.0
 40
4.0
 41
3.6
 71
     1
 72
     1
  1
C
  7
TEXTSTYLE_3
 73
     1
 44
0.9
  0
MTEXT
  5
2A9
330
221
100
AcDbEntity
  8
0
  6
Continuous
 62
     2
100
AcDbMText
 10
53.9878834197
 20
295.579490177
 30
0.0
 40
4.0
 41
3.6
 71
     1
 72
     1
  1
D
  7
TEXTSTYLE_3
 73
     1
 44
0.9
  0
INSERT
  5
2AD
330
221
100
AcDbEntity
  8
0
  6
Continuous
 62
     2
100
AcDbBlockReference
  2
LOGO2_BL0
 10
333.1473869546
 20
37.5239270671
 30
0.0
  0
INSERT
  5
2AE
330
221
100
AcDbEntity
  8
0
  6
Continuous
 62
     2
100
AcDbBlockReference
  2
*T5
 10
319.3213399098
 20
51.0239270671
 30
0.0
  0
LINE
  5
2B1
330
221
100
AcDbEntity
  8
0
  6
Continuous
 62
     7
100
AcDbLine
 10
0.0
 20
0.0
 30
0.0
 11
0.0
 21
297.0
 31
0.0
  0
LWPOLYLINE
  5
2B2
330
221
100
AcDbEntity
  8
0
  6
Continuous
 62
     7
100
AcDbPolyline
 90
        2
 70
     0
 43
0.1000000003
 10
7.0536312849
 20
0.0
 10
7.0536312849
 20
297.0
  0
LWPOLYLINE
  5
2B3
330
221
100
AcDbEntity
  8
0
  6
Continuous
 62
     7
100
AcDbPolyline
 90
        2
 70
     0
 43
0.4999999952
 10
10.0536312849
 20
10.0318435754
 10
10.0536312849
 20
287.0
  0
LINE
  5
2B4
330
221
100
AcDbEntity
  8
0
  6
Continuous
 62
     7
100
AcDbLine
 10
0.0
 20
0.0
 30
0.0
 11
420.0
 21
0.0
 31
0.0
  0
LWPOLYLINE
  5
2B5
330
221
100
AcDbEntity
  8
0
  6
Continuous
 62
     7
100
AcDbPolyline
 90
        2
 70
     0
 43
0.1000000003
 10
0.0
 20
7.0318435754
 10
420.0
 20
7.0318435754
  0
LWPOLYLINE
  5
2B6
330
221
100
AcDbEntity
  8
0
  6
Continuous
 62
     7
100
AcDbPolyline
 90
        2
 70
     0
 43
0.4999999952
 10
10.0536312849
 20
10.0318435754
 10
410.0
 20
10.0318435754
  0
LINE
  5
2B7
330
221
100
AcDbEntity
  8
0
  6
Continuous
 62
     7
100
AcDbLine
 10
113.0
 20
297.0
 30
0.0
 11
113.0
 21
290.0
 31
0.0
  0
LINE
  5
2B8
330
221
100
AcDbEntity
  8
0
  6
Continuous
 62
     7
100
AcDbLine
 10
113.0
 20
7.0
 30
0.0
 11
113.0
 21
0.0
 31
0.0
  0
LWPOLYLINE
  5
2B9
330
221
100
AcDbEntity
  8
0
  6
Continuous
 62
     7
100
AcDbPolyline
 90
        2
 70
     0
 43
0.1000000003
 10
123.0
 20
10.0
 10
123.0
 20
0.0
  0
LWPOLYLINE
  5
2BA
330
221
100
AcDbEntity
  8
0
  6
Continuous
 62
     7
100
AcDbPolyline
 90
        2
 70
     0
 43
0.1000000003
 10
123.0
 20
287.0
 10
123.0
 20
297.0
  0
LINE
  5
2BB
330
221
100
AcDbEntity
  8
0
  6
Continuous
 62
     7
100
AcDbLine
 10
0.0
 20
99.9681564246
 30
0.0
 11
7.0
 21
99.9681564246
 31
0.0
  0
LINE
  5
2BC
330
221
100
AcDbEntity
  8
0
  6
Continuous
 62
     7
100
AcDbLine
 10
413.0
 20
107.0
 30
0.0
 11
420.0
 21
107.0
 31
0.0
  0
LWPOLYLINE
  5
2BD
330
221
100
AcDbEntity
  8
0
  6
Continuous
 62
     7
100
AcDbPolyline
 90
        2
 70
     0
 43
0.1000000003
 10
210.0
 20
10.0
 10
210.0
 20
0.0
  0
LWPOLYLINE
  5
2BE
330
221
100
AcDbEntity
  8
0
  6
Continuous
 62
     7
100
AcDbPolyline
 90
        2
 70
     0
 43
0.1000000003
 10
210.0
 20
287.0
 10
210.0
 20
297.0
  0
LWPOLYLINE
  5
2BF
330
221
100
AcDbEntity
  8
0
  6
Continuous
 62
     7
100
AcDbPolyline
 90
        2
 70
     0
 43
0.1000000003
 10
10.0
 20
148.5
 10
0.0
 20
148.5
  0
LWPOLYLINE
  5
2C0
330
221
100
AcDbEntity
  8
0
  6
Continuous
 62
     7
100
AcDbPolyline
 90
        2
 70
     0
 43
0.1000000003
 10
410.0
 20
148.5
 10
420.0
 20
148.5
  0
LINE
  5
2C1
330
221
100
AcDbEntity
  8
0
  6
Continuous
 62
     7
100
AcDbLine
 10
0.0
 20
199.9681564246
 30
0.0
 11
7.0
 21
199.9681564246
 31
0.0
  0
LWPOLYLINE
  5
2C2
330
221
100
AcDbEntity
  8
0
  6
Continuous
 62
     7
100
AcDbPolyline
 90
        2
 70
     0
 43
0.1000000003
 10
10.0
 20
202.9681564246
 10
0.0
 20
202.9681564246
  0
LWPOLYLINE
  5
2C3
330
221
100
AcDbEntity
  8
0
  6
Continuous
 62
     7
100
AcDbPolyline
 90
        2
 70
     0
 43
0.1000000003
 10
410.0
 20
210.0
 10
420.0
 20
210.0
  0
LINE
  5
2C4
330
221
100
AcDbEntity
  8
0
  6
Continuous
 62
     7
100
AcDbLine
 10
313.0
 20
297.0
 30
0.0
 11
313.0
 21
290.0
 31
0.0
  0
LINE
  5
2C5
330
221
100
AcDbEntity
  8
0
  6
Continuous
 62
     7
100
AcDbLine
 10
313.0
 20
7.0
 30
0.0
 11
313.0
 21
0.0
 31
0.0
  0
LWPOLYLINE
  5
2C6
330
221
100
AcDbEntity
  8
0
  6
Continuous
 62
     7
100
AcDbPolyline
 90
        2
 70
     0
 43
0.4999999952
 10
10.0536312849
 20
287.0
 10
410.0
 20
287.0
  0
LWPOLYLINE
  5
2C7
330
221
100
AcDbEntity
  8
0
  6
Continuous
 62
     7
100
AcDbPolyline
 90
        2
 70
     0
 43
0.1000000003
 10
0.0
 20
290.0
 10
420.0
 20
290.0
  0
LINE
  5
2C8
330
221
100
AcDbEntity
  8
0
  6
Continuous
 62
     7
100
AcDbLine
 10
0.0
 20
297.0
 30
0.0
 11
420.0
 21
297.0
 31
0.0
  0
LWPOLYLINE
  5
2C9
330
221
100
AcDbEntity
  8
0
  6
Continuous
 62
     7
100
AcDbPolyline
 90
        2
 70
     0
 43
0.4999999952
 10
410.0
 20
10.0318435754
 10
410.0
 20
287.0
  0
LWPOLYLINE
  5
2CA
330
221
100
AcDbEntity
  8
0
  6
Continuous
 62
     7
100
AcDbPolyline
 90
        2
 70
     0
 43
0.1000000003
 10
413.0
 20
0.0
 10
413.0
 20
297.0
  0
LINE
  5
2CB
330
221
100
AcDbEntity
  8
0
  6
Continuous
 62
     7
100
AcDbLine
 10
420.0
 20
0.0
 30
0.0
 11
420.0
 21
297.0
 31
0.0
  0
LINE
  5
2CC
330
221
100
AcDbEntity
  8
7_ALL_FEATURES
  6
Continuous
 62
     7
100
AcDbLine
 10
23.46265984493336
 20
146.0445046845583
 30
0.0
 11
23.46265984493336
 21
26.04450468455833
 31
0.0
  0
LINE
  5
2CD
330
221
100
AcDbEntity
  8
7_ALL_FEATURES
  6
Continuous
 62
     7
100
AcDbLine
 10
25.46265984493336
 20
144.0445046845583
 30
0.0
 11
25.46265984493336
 21
28.04450468455833
 31
0.0
  0
LINE
  5
2CE
330
221
100
AcDbEntity
  8
7_ALL_FEATURES
  6
Continuous
 62
     7
100
AcDbLine
 10
23.46265984493336
 20
26.04450468455833
 30
0.0
 11
143.4626598449334
 21
26.04450468455833
 31
0.0
  0
LINE
  5
2CF
330
221
100
AcDbEntity
  8
7_ALL_FEATURES
  6
Continuous
 62
     7
100
AcDbLine
 10
25.46265984493336
 20
28.04450468455833
 30
0.0
 11
141.4626598449334
 21
28.04450468455833
 31
0.0
  0
LINE
  5
2D0
330
221
100
AcDbEntity
  8
7_ALL_FEATURES
  6
Continuous
 62
     7
100
AcDbLine
 10
143.4626598449334
 20
146.0445046845583
 30
0.0
 11
141.4626598449334
 21
144.0445046845583
 31
0.0
  0
LINE
  5
2D1
330
221
100
AcDbEntity
  8
7_ALL_FEATURES
  6
Continuous
 62
     7
100
AcDbLine
 10
23.46265984493336
 20
26.04450468455833
 30
0.0
 11
25.46265984493336
 21
28.04450468455833
 31
0.0
  0
LINE
  5
2D2
330
221
100
AcDbEntity
  8
7_ALL_FEATURES
  6
Continuous
 62
     7
100
AcDbLine
 10
23.46265984493336
 20
146.0445046845583
 30
0.0
 11
25.46265984493336
 21
144.0445046845583
 31
0.0
  0
LINE
  5
2D3
330
221
100
AcDbEntity
  8
7_ALL_FEATURES
  6
Continuous
 62
     7
100
AcDbLine
 10
143.4626598449334
 20
26.04450468455833
 30
0.0
 11
141.4626598449334
 21
28.04450468455833
 31
0.0
  0
LINE
  5
2D4
330
221
100
AcDbEntity
  8
7_ALL_FEATURES
  6
Continuous
 62
     7
100
AcDbLine
 10
141.4626598449334
 20
28.04450468455833
 30
0.0
 11
141.4626598449334
 21
144.0445046845583
 31
0.0
  0
LINE
  5
2D5
330
221
100
AcDbEntity
  8
7_ALL_FEATURES
  6
Continuous
 62
     7
100
AcDbLine
 10
143.4626598449334
 20
26.04450468455833
 30
0.0
 11
143.4626598449334
 21
146.0445046845583
 31
0.0
  0
LINE
  5
2D6
330
221
100
AcDbEntity
  8
7_ALL_FEATURES
  6
Continuous
 62
     7
100
AcDbLine
 10
141.4626598449334
 20
144.0445046845583
 30
0.0
 11
25.46265984493336
 21
144.0445046845583
 31
0.0
  0
LINE
  5
2D7
330
221
100
AcDbEntity
  8
7_ALL_FEATURES
  6
Continuous
 62
     7
100
AcDbLine
 10
143.4626598449334
 20
146.0445046845583
 30
0.0
 11
23.46265984493336
 21
146.0445046845583
 31
0.0
  0
LINE
  5
2D8
330
221
100
AcDbEntity
  8
7_ALL_FEATURES
  6
Continuous
 62
     7
100
AcDbLine
 10
23.46265984493334
 20
258.4595135711
 30
0.0
 11
25.46265984493334
 21
260.4595135711
 31
0.0
  0
LINE
  5
2D9
330
221
100
AcDbEntity
  8
7_ALL_FEATURES
  6
Continuous
 62
     7
100
AcDbLine
 10
23.46265984493334
 20
257.4595135711
 30
0.0
 11
23.46265984493334
 21
258.4595135711
 31
0.0
  0
LINE
  5
2DA
330
221
100
AcDbEntity
  8
7_ALL_FEATURES
  6
Continuous
 62
     7
100
AcDbLine
 10
36.56269175306667
 20
257.4595135711
 30
0.0
 11
36.06265984493334
 21
256.9594813228333
 31
0.0
  0
LINE
  5
2DB
330
221
100
AcDbEntity
  8
02___PRT_ALL_AXES
  6
Continuous
 62
     7
100
AcDbLine
 10
36.06265984493334
 20
256.9594813228333
 30
0.0
 11
36.06265984493334
 21
241.2095152805667
 31
0.0
  0
LINE
  5
2DC
330
221
100
AcDbEntity
  8
02___PRT_ALL_AXES
  6
Continuous
 62
     7
100
AcDbLine
 10
78.62110527799999
 20
169.2095135711
 30
0.0
 11
88.30421441186667
 21
169.2095135711
 31
0.0
  0
LINE
  5
2DD
330
221
100
AcDbEntity
  8
02___PRT_ALL_AXES
  6
Continuous
 62
     9
100
AcDbLine
 10
92.51272524786665
 20
173.4659699565667
 30
0.0
 11
91.76715929066668
 21
173.4659699565667
 31
0.0
  0
LINE
  5
2DE
330
221
100
AcDbEntity
  8
02___PRT_ALL_AXES
  6
Continuous
 62
     9
100
AcDbLine
 10
87.17897567933335
 20
173.4659699565667
 30
0.0
 11
84.39648564666666
 21
173.4659699565667
 31
0.0
  0
LINE
  5
2DF
330
221
100
AcDbEntity
  8
02___PRT_ALL_AXES
  6
Continuous
 62
     9
100
AcDbLine
 10
76.09198620093335
 20
173.4659699565667
 30
0.0
 11
78.1289102764
 21
173.4659699565667
 31
0.0
  0
LINE
  5
2E0
330
221
100
AcDbEntity
  8
02___PRT_ALL_AXES
  6
Continuous
 62
     7
100
AcDbLine
 10
92.51272524786665
 20
173.4926749771
 30
0.0
 11
91.76715929066668
 21
173.4926749771
 31
0.0
  0
LINE
  5
2E1
330
221
100
AcDbEntity
  8
02___PRT_ALL_AXES
  6
Continuous
 62
     7
100
AcDbLine
 10
87.17897567933335
 20
173.4926749771
 30
0.0
 11
84.39648564666666
 21
173.4926749771
 31
0.0
  0
LINE
  5
2E2
330
221
100
AcDbEntity
  8
02___PRT_ALL_AXES
  6
Continuous
 62
     7
100
AcDbLine
 10
76.09198620093335
 20
173.4926749771
 30
0.0
 11
78.1289102764
 21
173.4926749771
 31
0.0
  0
LINE
  5
2E3
330
221
100
AcDbEntity
  8
7_ALL_FEATURES
  6
Continuous
 62
     7
100
AcDbLine
 10
49.96265251480001
 20
189.2095053673667
 30
0.0
 11
48.96265138986667
 21
190.2095060285666
 31
0.0
  0
LINE
  5
2E4
330
221
100
AcDbEntity
  8
7_ALL_FEATURES
  6
Continuous
 62
     7
100
AcDbLine
 10
44.24781068160001
 20
256.9595135711
 30
0.0
 11
44.24781068160001
 21
254.4595135711
 31
0.0
  0
LINE
  5
2E5
330
221
100
AcDbEntity
  8
7_ALL_FEATURES
  6
Continuous
 62
     7
100
AcDbLine
 10
48.96265984493333
 20
239.7095135899
 30
0.0
 11
48.96265984493333
 21
229.2095135711
 31
0.0
  0
LINE
  5
2E6
330
221
100
AcDbEntity
  8
7_ALL_FEATURES
  6
Continuous
 62
     7
100
AcDbLine
 10
48.96265984493333
 20
225.7095135711
 30
0.0
 11
48.96265984493333
 21
222.7095135711
 31
0.0
  0
LINE
  5
2E7
330
221
100
AcDbEntity
  8
7_ALL_FEATURES
  6
Continuous
 62
     7
100
AcDbLine
 10
48.96265984493333
 20
219.2095135711
 30
0.0
 11
48.96265984493333
 21
216.2095135711
 31
0.0
  0
LINE
  5
2E8
330
221
100
AcDbEntity
  8
7_ALL_FEATURES
  6
Continuous
 62
     7
100
AcDbLine
 10
48.96265984493333
 20
212.7095135711
 30
0.0
 11
48.96265984493333
 21
209.7095135711
 31
0.0
  0
LINE
  5
2E9
330
221
100
AcDbEntity
  8
7_ALL_FEATURES
  6
Continuous
 62
     7
100
AcDbLine
 10
48.96265984493333
 20
206.2095135711
 30
0.0
 11
48.96265984493333
 21
203.2095135711
 31
0.0
  0
LINE
  5
2EA
330
221
100
AcDbEntity
  8
7_ALL_FEATURES
  6
Continuous
 62
     7
100
AcDbLine
 10
48.96265984493333
 20
199.7095135711
 30
0.0
 11
48.96265984493333
 21
196.7095135711
 31
0.0
  0
LINE
  5
2EB
330
221
100
AcDbEntity
  8
7_ALL_FEATURES
  6
Continuous
 62
     7
100
AcDbLine
 10
48.96265984493333
 20
193.2095135711
 30
0.0
 11
48.96265984493333
 21
190.2095144836333
 31
0.0
  0
LINE
  5
2EC
330
221
100
AcDbEntity
  8
02___PRT_ALL_AXES
  6
Continuous
 62
     7
100
AcDbLine
 10
50.01417503506666
 20
255.9595135711
 30
0.0
 11
50.01417503506666
 21
257.4595135711
 31
0.0
  0
LINE
  5
2ED
330
221
100
AcDbEntity
  8
02___PRT_ALL_AXES
  6
Continuous
 62
     7
100
AcDbLine
 10
50.76417503506666
 20
254.4595135711
 30
0.0
 11
50.76417503506666
 21
255.9595135711
 31
0.0
  0
LINE
  5
2EE
330
221
100
AcDbEntity
  8
7_ALL_FEATURES
  6
Continuous
 62
     7
100
AcDbLine
 10
51.46265984493333
 20
216.2095135711
 30
0.0
 11
51.46265984493333
 21
212.7095135711
 31
0.0
  0
LINE
  5
2EF
330
221
100
AcDbEntity
  8
7_ALL_FEATURES
  6
Continuous
 62
     7
100
AcDbLine
 10
51.46265984493333
 20
209.7095135711
 30
0.0
 11
51.46265984493333
 21
206.2095135711
 31
0.0
  0
LINE
  5
2F0
330
221
100
AcDbEntity
  8
7_ALL_FEATURES
  6
Continuous
 62
     7
100
AcDbLine
 10
52.96265984493333
 20
229.2095135711
 30
0.0
 11
52.96265984493333
 21
225.7095135711
 31
0.0
  0
LINE
  5
2F1
330
221
100
AcDbEntity
  8
7_ALL_FEATURES
  6
Continuous
 62
     7
100
AcDbLine
 10
52.96265984493333
 20
222.7095135711
 30
0.0
 11
52.96265984493333
 21
219.2095135711
 31
0.0
  0
LINE
  5
2F2
330
221
100
AcDbEntity
  8
02___PRT_ALL_AXES
  6
Continuous
 62
     7
100
AcDbLine
 10
92.94317795399999
 20
181.7095135711
 30
0.0
 11
73.98214173586669
 21
181.7095135711
 31
0.0
  0
LINE
  5
2F3
330
221
100
AcDbEntity
  8
7_ALL_FEATURES
  6
Continuous
 62
     7
100
AcDbLine
 10
54.96265984493333
 20
196.7095135711
 30
0.0
 11
54.96265984493333
 21
193.2095135711
 31
0.0
  0
LINE
  5
2F4
330
221
100
AcDbEntity
  8
02___PRT_ALL_AXES
  6
Continuous
 62
     7
100
AcDbLine
 10
56.76417503506666
 20
254.4595135711
 30
0.0
 11
56.76417503506666
 21
255.9595135711
 31
0.0
  0
LINE
  5
2F5
330
221
100
AcDbEntity
  8
7_ALL_FEATURES
  6
Continuous
 62
     7
100
AcDbLine
 10
56.83643958933333
 20
256.9595135711
 30
0.0
 11
56.83643958933333
 21
254.4595135711
 31
0.0
  0
LINE
  5
2F6
330
221
100
AcDbEntity
  8
7_ALL_FEATURES
  6
Continuous
 62
     7
100
AcDbLine
 10
57.96265984493333
 20
203.2095135711
 30
0.0
 11
57.96265984493333
 21
199.7095135711
 31
0.0
  0
LINE
  5
2F7
330
221
100
AcDbEntity
  8
02___PRT_ALL_AXES
  6
Continuous
 62
     7
100
AcDbLine
 10
92.94317795399999
 20
185.7095135711
 30
0.0
 11
73.98214173586669
 21
185.7095135711
 31
0.0
  0
LINE
  5
2F8
330
221
100
AcDbEntity
  8
7_ALL_FEATURES
  6
Continuous
 62
     7
100
AcDbLine
 10
116.9625015546667
 20
189.2095135711
 30
0.0
 11
49.9628181352
 21
189.2095135711
 31
0.0
  0
LINE
  5
2F9
330
221
100
AcDbEntity
  8
7_ALL_FEATURES
  6
Continuous
 62
     7
100
AcDbLine
 10
117.962659844
 20
190.2095150799
 30
0.0
 11
48.96265984586667
 21
190.2095150799
 31
0.0
  0
LINE
  5
2FA
330
221
100
AcDbEntity
  8
7_ALL_FEATURES
  6
Continuous
 62
     7
100
AcDbLine
 10
117.9624325169333
 20
193.2095135711
 30
0.0
 11
48.9628871728
 21
193.2095135711
 31
0.0
  0
LINE
  5
2FB
330
221
100
AcDbEntity
  8
7_ALL_FEATURES
  6
Continuous
 62
     7
100
AcDbLine
 10
117.9624325169333
 20
196.7095135711
 30
0.0
 11
48.9628871728
 21
196.7095135711
 31
0.0
  0
LINE
  5
2FC
330
221
100
AcDbEntity
  8
7_ALL_FEATURES
  6
Continuous
 62
     7
100
AcDbLine
 10
117.9624325169333
 20
199.7095135711
 30
0.0
 11
48.9628871728
 21
199.7095135711
 31
0.0
  0
LINE
  5
2FD
330
221
100
AcDbEntity
  8
7_ALL_FEATURES
  6
Continuous
 62
     7
100
AcDbLine
 10
36.56266321626668
 20
240.7095152665667
 30
0.0
 11
36.06266155066667
 21
241.2095169863
 31
0.0
  0
LINE
  5
2FE
330
221
100
AcDbEntity
  8
02___PRT_ALL_AXES
  6
Continuous
 62
     7
100
AcDbLine
 10
73.98214173586669
 20
189.2095135711
 30
0.0
 11
73.98214173586669
 21
185.7095135711
 31
0.0
  0
LINE
  5
2FF
330
221
100
AcDbEntity
  8
02___PRT_ALL_AXES
  6
Continuous
 62
     7
100
AcDbLine
 10
73.98214173586669
 20
181.7095135711
 30
0.0
 11
73.98214173586669
 21
174.2095135711
 31
0.0
  0
LINE
  5
300
330
221
100
AcDbEntity
  8
7_ALL_FEATURES
  6
Continuous
 62
     7
100
AcDbLine
 10
117.9624325169333
 20
203.2095135711
 30
0.0
 11
48.9628871728
 21
203.2095135711
 31
0.0
  0
LINE
  5
301
330
221
100
AcDbEntity
  8
02___PRT_ALL_AXES
  6
Continuous
 62
     7
100
AcDbLine
 10
74.412594442
 20
173.4659699565667
 30
0.0
 11
74.412594442
 21
173.4926749771
 31
0.0
  0
LINE
  5
302
330
221
100
AcDbEntity
  8
02___PRT_ALL_AXES
  6
Continuous
 62
     7
100
AcDbLine
 10
75.96265984493334
 20
181.7095135711
 30
0.0
 11
75.96265984493334
 21
185.7095135711
 31
0.0
  0
LINE
  5
303
330
221
100
AcDbEntity
  8
02___PRT_ALL_AXES
  6
Continuous
 62
     7
100
AcDbLine
 10
76.09198620093335
 20
173.4659699565667
 30
0.0
 11
76.09198620093335
 21
173.4926749771
 31
0.0
  0
LINE
  5
304
330
221
100
AcDbEntity
  8
02___PRT_ALL_AXES
  6
Continuous
 62
     7
100
AcDbLine
 10
76.52243890706669
 20
189.2095135711
 30
0.0
 11
76.52243890706669
 21
185.7095135711
 31
0.0
  0
LINE
  5
305
330
221
100
AcDbEntity
  8
02___PRT_ALL_AXES
  6
Continuous
 62
     7
100
AcDbLine
 10
76.52243890706669
 20
181.7095135711
 30
0.0
 11
76.52243890706669
 21
174.2095135711
 31
0.0
  0
LINE
  5
306
330
221
100
AcDbEntity
  8
02___PRT_ALL_AXES
  6
Continuous
 62
     7
100
AcDbLine
 10
78.1289102764
 20
173.4659699565667
 30
0.0
 11
78.1289102764
 21
173.4926749771
 31
0.0
  0
LINE
  5
307
330
221
100
AcDbEntity
  8
7_ALL_FEATURES
  6
Continuous
 62
     7
100
AcDbLine
 10
117.9624325169333
 20
206.2095135711
 30
0.0
 11
48.9628871728
 21
206.2095135711
 31
0.0
  0
LINE
  5
308
330
221
100
AcDbEntity
  8
7_ALL_FEATURES
  6
Continuous
 62
     7
100
AcDbLine
 10
117.9626591445333
 20
209.7095135711
 30
0.0
 11
48.96299678746667
 21
209.7095135711
 31
0.0
  0
LINE
  5
309
330
221
100
AcDbEntity
  8
7_ALL_FEATURES
  6
Continuous
 62
     7
100
AcDbLine
 10
48.96264793653334
 20
239.7095016813666
 30
0.0
 11
47.9626476112
 21
240.7095013169666
 31
0.0
  0
LINE
  5
30A
330
221
100
AcDbEntity
  8
7_ALL_FEATURES
  6
Continuous
 62
     7
100
AcDbLine
 10
48.96279781906667
 20
212.7095135711
 30
0.0
 11
117.9622312862667
 21
212.7095135711
 31
0.0
  0
LINE
  5
30B
330
221
100
AcDbEntity
  8
02___PRT_ALL_AXES
  6
Continuous
 62
     7
100
AcDbLine
 10
84.39648564666666
 20
173.4659699565667
 30
0.0
 11
84.39648564666666
 21
173.4926749771
 31
0.0
  0
LINE
  5
30C
330
221
100
AcDbEntity
  8
02___PRT_ALL_AXES
  6
Continuous
 62
     7
100
AcDbLine
 10
86.00295701600001
 20
189.2095135711
 30
0.0
 11
86.00295701600001
 21
185.7095135711
 31
0.0
  0
LINE
  5
30D
330
221
100
AcDbEntity
  8
02___PRT_ALL_AXES
  6
Continuous
 62
     7
100
AcDbLine
 10
86.00295701600001
 20
181.7095135711
 30
0.0
 11
86.00295701600001
 21
174.2095135711
 31
0.0
  0
LINE
  5
30E
330
221
100
AcDbEntity
  8
02___PRT_ALL_AXES
  6
Continuous
 62
     7
100
AcDbLine
 10
87.17897567933335
 20
173.4659699565667
 30
0.0
 11
87.17897567933335
 21
173.4926749771
 31
0.0
  0
LINE
  5
30F
330
221
100
AcDbEntity
  8
7_ALL_FEATURES
  6
Continuous
 62
     7
100
AcDbLine
 10
117.9624689276
 20
216.2095135711
 30
0.0
 11
48.9628871728
 21
216.2095135711
 31
0.0
  0
LINE
  5
310
330
221
100
AcDbEntity
  8
7_ALL_FEATURES
  6
Continuous
 62
     7
100
AcDbLine
 10
117.9624325169333
 20
219.2095135711
 30
0.0
 11
48.9628871728
 21
219.2095135711
 31
0.0
  0
LINE
  5
311
330
221
100
AcDbEntity
  8
02___PRT_ALL_AXES
  6
Continuous
 62
     7
100
AcDbLine
 10
90.96265984493334
 20
181.7095135711
 30
0.0
 11
90.96265984493334
 21
185.7095135711
 31
0.0
  0
LINE
  5
312
330
221
100
AcDbEntity
  8
02___PRT_ALL_AXES
  6
Continuous
 62
     7
100
AcDbLine
 10
91.76715929066668
 20
173.4659699565667
 30
0.0
 11
91.76715929066668
 21
173.4926749771
 31
0.0
  0
LINE
  5
313
330
221
100
AcDbEntity
  8
02___PRT_ALL_AXES
  6
Continuous
 62
     7
100
AcDbLine
 10
92.51272524786665
 20
173.4659699565667
 30
0.0
 11
92.51272524786665
 21
173.4926749771
 31
0.0
  0
LINE
  5
314
330
221
100
AcDbEntity
  8
02___PRT_ALL_AXES
  6
Continuous
 62
     7
100
AcDbLine
 10
92.94317795399999
 20
189.2095135711
 30
0.0
 11
92.94317795399999
 21
185.7095135711
 31
0.0
  0
LINE
  5
315
330
221
100
AcDbEntity
  8
02___PRT_ALL_AXES
  6
Continuous
 62
     7
100
AcDbLine
 10
92.94317795399999
 20
181.7095135711
 30
0.0
 11
92.94317795399999
 21
174.2095135711
 31
0.0
  0
LINE
  5
316
330
221
100
AcDbEntity
  8
7_ALL_FEATURES
  6
Continuous
 62
     7
100
AcDbLine
 10
117.9626717533334
 20
239.7095016813666
 30
0.0
 11
118.9626720786667
 21
240.7095013169666
 31
0.0
  0
LINE
  5
317
330
221
100
AcDbEntity
  8
7_ALL_FEATURES
  6
Continuous
 62
     7
100
AcDbLine
 10
117.9624325169333
 20
222.7095135711
 30
0.0
 11
48.9628871728
 21
222.7095135711
 31
0.0
  0
LINE
  5
318
330
221
100
AcDbEntity
  8
7_ALL_FEATURES
  6
Continuous
 62
     7
100
AcDbLine
 10
130.3626564736
 20
240.7095152665667
 30
0.0
 11
130.8626581392
 21
241.2095169863
 31
0.0
  0
LINE
  5
319
330
221
100
AcDbEntity
  8
7_ALL_FEATURES
  6
Continuous
 62
     7
100
AcDbLine
 10
117.9624325169333
 20
225.7095135711
 30
0.0
 11
48.9628871728
 21
225.7095135711
 31
0.0
  0
LINE
  5
31A
330
221
100
AcDbEntity
  8
7_ALL_FEATURES
  6
Continuous
 62
     7
100
AcDbLine
 10
117.9624325169333
 20
229.2095135711
 30
0.0
 11
48.9628871728
 21
229.2095135711
 31
0.0
  0
LINE
  5
31B
330
221
100
AcDbEntity
  8
7_ALL_FEATURES
  6
Continuous
 62
     7
100
AcDbLine
 10
108.9626598449333
 20
203.2095135711
 30
0.0
 11
108.9626598449333
 21
199.7095135711
 31
0.0
  0
LINE
  5
31C
330
221
100
AcDbEntity
  8
7_ALL_FEATURES
  6
Continuous
 62
     7
100
AcDbLine
 10
48.96265985933334
 20
239.7095141064333
 30
0.0
 11
117.9626598305333
 21
239.7095141064333
 31
0.0
  0
LINE
  5
31D
330
221
100
AcDbEntity
  8
7_ALL_FEATURES
  6
Continuous
 62
     7
100
AcDbLine
 10
110.0888801004
 20
256.9595135711
 30
0.0
 11
110.0888801004
 21
254.4595135711
 31
0.0
  0
LINE
  5
31E
330
221
100
AcDbEntity
  8
02___PRT_ALL_AXES
  6
Continuous
 62
     7
100
AcDbLine
 10
110.1611446548
 20
254.4595135711
 30
0.0
 11
110.1611446548
 21
255.9595135711
 31
0.0
  0
LINE
  5
31F
330
221
100
AcDbEntity
  8
7_ALL_FEATURES
  6
Continuous
 62
     7
100
AcDbLine
 10
111.9626598449333
 20
196.7095135711
 30
0.0
 11
111.9626598449333
 21
193.2095135711
 31
0.0
  0
LINE
  5
320
330
221
100
AcDbEntity
  8
7_ALL_FEATURES
  6
Continuous
 62
     7
100
AcDbLine
 10
113.9626598449333
 20
229.2095135711
 30
0.0
 11
113.9626598449333
 21
225.7095135711
 31
0.0
  0
LINE
  5
321
330
221
100
AcDbEntity
  8
7_ALL_FEATURES
  6
Continuous
 62
     7
100
AcDbLine
 10
113.9626598449333
 20
222.7095135711
 30
0.0
 11
113.9626598449333
 21
219.2095135711
 31
0.0
  0
LINE
  5
322
330
221
100
AcDbEntity
  8
7_ALL_FEATURES
  6
Continuous
 62
     7
100
AcDbLine
 10
36.56275189346668
 20
240.7095135711
 30
0.0
 11
130.3625677964
 21
240.7095135711
 31
0.0
  0
LINE
  5
323
330
221
100
AcDbEntity
  8
7_ALL_FEATURES
  6
Continuous
 62
     7
100
AcDbLine
 10
36.06265984573334
 20
241.2095156368333
 30
0.0
 11
130.862659844
 21
241.2095156368333
 31
0.0
  0
LINE
  5
324
330
221
100
AcDbEntity
  8
7_ALL_FEATURES
  6
Continuous
 62
     7
100
AcDbLine
 10
115.4626598449333
 20
216.2095135711
 30
0.0
 11
115.4626598449333
 21
212.7095135711
 31
0.0
  0
LINE
  5
325
330
221
100
AcDbEntity
  8
7_ALL_FEATURES
  6
Continuous
 62
     7
100
AcDbLine
 10
115.4626598449333
 20
209.7095135711
 30
0.0
 11
115.4626598449333
 21
206.2095135711
 31
0.0
  0
LINE
  5
326
330
221
100
AcDbEntity
  8
02___PRT_ALL_AXES
  6
Continuous
 62
     7
100
AcDbLine
 10
116.1611446548
 20
254.4595135711
 30
0.0
 11
116.1611446548
 21
255.9595135711
 31
0.0
  0
LINE
  5
327
330
221
100
AcDbEntity
  8
02___PRT_ALL_AXES
  6
Continuous
 62
     7
100
AcDbLine
 10
116.9111446548
 20
255.9595135711
 30
0.0
 11
116.9111446548
 21
257.4595135711
 31
0.0
  0
LINE
  5
328
330
221
100
AcDbEntity
  8
7_ALL_FEATURES
  6
Continuous
 62
     7
100
AcDbLine
 10
117.9626598449333
 20
239.7095135899
 30
0.0
 11
117.9626598449333
 21
229.2095135711
 31
0.0
  0
LINE
  5
329
330
221
100
AcDbEntity
  8
7_ALL_FEATURES
  6
Continuous
 62
     7
100
AcDbLine
 10
117.9626598449333
 20
225.7095135711
 30
0.0
 11
117.9626598449333
 21
222.7095135711
 31
0.0
  0
LINE
  5
32A
330
221
100
AcDbEntity
  8
7_ALL_FEATURES
  6
Continuous
 62
     7
100
AcDbLine
 10
117.9626598449333
 20
219.2095135711
 30
0.0
 11
117.9626598449333
 21
216.2095135711
 31
0.0
  0
LINE
  5
32B
330
221
100
AcDbEntity
  8
7_ALL_FEATURES
  6
Continuous
 62
     7
100
AcDbLine
 10
117.9626598449333
 20
212.7095135711
 30
0.0
 11
117.9626598449333
 21
209.7095135711
 31
0.0
  0
LINE
  5
32C
330
221
100
AcDbEntity
  8
7_ALL_FEATURES
  6
Continuous
 62
     7
100
AcDbLine
 10
117.9626598449333
 20
206.2095135711
 30
0.0
 11
117.9626598449333
 21
203.2095135711
 31
0.0
  0
LINE
  5
32D
330
221
100
AcDbEntity
  8
7_ALL_FEATURES
  6
Continuous
 62
     7
100
AcDbLine
 10
117.9626598449333
 20
199.7095135711
 30
0.0
 11
117.9626598449333
 21
196.7095135711
 31
0.0
  0
LINE
  5
32E
330
221
100
AcDbEntity
  8
7_ALL_FEATURES
  6
Continuous
 62
     7
100
AcDbLine
 10
117.9626598449333
 20
193.2095135711
 30
0.0
 11
117.9626598449333
 21
190.2095144836333
 31
0.0
  0
LINE
  5
32F
330
221
100
AcDbEntity
  8
7_ALL_FEATURES
  6
Continuous
 62
     7
100
AcDbLine
 10
122.6775090082667
 20
256.9595135711
 30
0.0
 11
122.6775090082667
 21
254.4595135711
 31
0.0
  0
LINE
  5
330
330
221
100
AcDbEntity
  8
02___PRT_ALL_AXES
  6
Continuous
 62
     7
100
AcDbLine
 10
122.6775090082667
 20
254.4595135711
 30
0.0
 11
110.0888801004
 21
254.4595135711
 31
0.0
  0
LINE
  5
331
330
221
100
AcDbEntity
  8
02___PRT_ALL_AXES
  6
Continuous
 62
     7
100
AcDbLine
 10
56.83643958933333
 20
254.4595135711
 30
0.0
 11
44.24781068160001
 21
254.4595135711
 31
0.0
  0
LINE
  5
332
330
221
100
AcDbEntity
  8
02___PRT_ALL_AXES
  6
Continuous
 62
     7
100
AcDbLine
 10
110.1611446548
 20
254.8095135711
 30
0.0
 11
110.0888801004
 21
254.8095135711
 31
0.0
  0
LINE
  5
333
330
221
100
AcDbEntity
  8
02___PRT_ALL_AXES
  6
Continuous
 62
     7
100
AcDbLine
 10
56.83643958933333
 20
254.8095135711
 30
0.0
 11
56.76417503506666
 21
254.8095135711
 31
0.0
  0
LINE
  5
334
330
221
100
AcDbEntity
  8
7_ALL_FEATURES
  6
Continuous
 62
     7
100
AcDbLine
 10
116.9626671750667
 20
189.2095053673667
 30
0.0
 11
117.9626683
 21
190.2095060285666
 31
0.0
  0
LINE
  5
335
330
221
100
AcDbEntity
  8
02___PRT_ALL_AXES
  6
Continuous
 62
     7
100
AcDbLine
 10
50.0141922136
 20
255.9595135711
 30
0.0
 11
56.83643958933333
 21
255.9595135711
 31
0.0
  0
LINE
  5
336
330
221
100
AcDbEntity
  8
02___PRT_ALL_AXES
  6
Continuous
 62
     7
100
AcDbLine
 10
110.0888801004
 20
255.9595135711
 30
0.0
 11
116.9111274762667
 21
255.9595135711
 31
0.0
  0
LINE
  5
337
330
221
100
AcDbEntity
  8
7_ALL_FEATURES
  6
Continuous
 62
     7
100
AcDbLine
 10
110.0888801004
 20
256.9595135711
 30
0.0
 11
56.83643958933333
 21
256.9595135711
 31
0.0
  0
LINE
  5
338
330
221
100
AcDbEntity
  8
7_ALL_FEATURES
  6
Continuous
 62
     7
100
AcDbLine
 10
44.24781068160001
 20
256.9595135711
 30
0.0
 11
36.06265984493334
 21
256.9594813228333
 31
0.0
  0
LINE
  5
339
330
221
100
AcDbEntity
  8
7_ALL_FEATURES
  6
Continuous
 62
     7
100
AcDbLine
 10
130.8626598449333
 20
256.9594788872333
 30
0.0
 11
122.6775090082667
 21
256.9595135711
 31
0.0
  0
LINE
  5
33A
330
221
100
AcDbEntity
  8
02___PRT_ALL_AXES
  6
Continuous
 62
     7
100
AcDbLine
 10
23.46265984493334
 20
257.4595135711
 30
0.0
 11
143.4626598449333
 21
257.4595135711
 31
0.0
  0
LINE
  5
33B
330
221
100
AcDbEntity
  8
7_ALL_FEATURES
  6
Continuous
 62
     7
100
AcDbLine
 10
23.46265984493334
 20
258.4595135711
 30
0.0
 11
143.4626598449333
 21
258.4595135711
 31
0.0
  0
LINE
  5
33C
330
221
100
AcDbEntity
  8
7_ALL_FEATURES
  6
Continuous
 62
     7
100
AcDbLine
 10
25.46265984493334
 20
260.4595135711
 30
0.0
 11
141.4626598449333
 21
260.4595135711
 31
0.0
  0
LINE
  5
33D
330
221
100
AcDbEntity
  8
02___PRT_ALL_AXES
  6
Continuous
 62
     7
100
AcDbLine
 10
130.8626598449333
 20
256.9594788872333
 30
0.0
 11
130.8626598449333
 21
241.2095152805667
 31
0.0
  0
LINE
  5
33E
330
221
100
AcDbEntity
  8
7_ALL_FEATURES
  6
Continuous
 62
     7
100
AcDbLine
 10
143.4626598449333
 20
257.4595135711
 30
0.0
 11
143.4626598449333
 21
258.4595135711
 31
0.0
  0
LINE
  5
33F
330
221
100
AcDbEntity
  8
7_ALL_FEATURES
  6
Continuous
 62
     7
100
AcDbLine
 10
130.3626255269333
 20
257.4595135711
 30
0.0
 11
130.8626598449333
 21
256.9594788872333
 31
0.0
  0
LINE
  5
340
330
221
100
AcDbEntity
  8
7_ALL_FEATURES
  6
Continuous
 62
     7
100
AcDbLine
 10
143.4626598449333
 20
258.4595135711
 30
0.0
 11
141.4626598449333
 21
260.4595135711
 31
0.0
  0
LINE
  5
341
330
221
100
AcDbEntity
  8
7_ALL_FEATURES
  6
Continuous
 62
     7
100
AcDbLine
 10
159.5601391246667
 20
258.4595135710999
 30
0.0
 11
161.5601391246667
 21
260.4595135710999
 31
0.0
  0
LINE
  5
342
330
221
100
AcDbEntity
  8
7_ALL_FEATURES
  6
Continuous
 62
     7
100
AcDbLine
 10
159.5601391246667
 20
257.4595135710999
 30
0.0
 11
159.5601391246667
 21
258.4595135710999
 31
0.0
  0
LINE
  5
343
330
221
100
AcDbEntity
  8
7_ALL_FEATURES
  6
Continuous
 62
     7
100
AcDbLine
 10
172.6601670516
 20
257.4595135710999
 30
0.0
 11
172.1601391246667
 21
256.9594853462999
 31
0.0
  0
LINE
  5
344
330
221
100
AcDbEntity
  8
02___PRT_ALL_AXES
  6
Continuous
 62
     7
100
AcDbLine
 10
172.1601391246667
 20
256.9594853462999
 30
0.0
 11
172.1601391246667
 21
241.2095149765666
 31
0.0
  0
LINE
  5
345
330
221
100
AcDbEntity
  8
02___PRT_ALL_AXES
  6
Continuous
 62
     7
100
AcDbLine
 10
214.7185845577334
 20
169.2095135710999
 30
0.0
 11
224.4016936916
 21
169.2095135710999
 31
0.0
  0
LINE
  5
346
330
221
100
AcDbEntity
  8
02___PRT_ALL_AXES
  6
Continuous
 62
     9
100
AcDbLine
 10
210.5100737217334
 20
173.4659699565666
 30
0.0
 11
211.2556396788
 21
173.4659699565666
 31
0.0
  0
LINE
  5
347
330
221
100
AcDbEntity
  8
02___PRT_ALL_AXES
  6
Continuous
 62
     9
100
AcDbLine
 10
215.8438232902667
 20
173.4659699565666
 30
0.0
 11
218.6263133228
 21
173.4659699565666
 31
0.0
  0
LINE
  5
348
330
221
100
AcDbEntity
  8
02___PRT_ALL_AXES
  6
Continuous
 62
     9
100
AcDbLine
 10
224.8938886932
 20
173.4659699565666
 30
0.0
 11
226.9308127685333
 21
173.4659699565666
 31
0.0
  0
LINE
  5
349
330
221
100
AcDbEntity
  8
02___PRT_ALL_AXES
  6
Continuous
 62
     7
100
AcDbLine
 10
210.5100737217334
 20
173.4926749770999
 30
0.0
 11
211.2556396788
 21
173.4926749770999
 31
0.0
  0
LINE
  5
34A
330
221
100
AcDbEntity
  8
02___PRT_ALL_AXES
  6
Continuous
 62
     7
100
AcDbLine
 10
215.8438232902667
 20
173.4926749770999
 30
0.0
 11
218.6263133228
 21
173.4926749770999
 31
0.0
  0
LINE
  5
34B
330
221
100
AcDbEntity
  8
02___PRT_ALL_AXES
  6
Continuous
 62
     7
100
AcDbLine
 10
224.8938886932
 20
173.4926749770999
 30
0.0
 11
226.9308127685333
 21
173.4926749770999
 31
0.0
  0
LINE
  5
34C
330
221
100
AcDbEntity
  8
7_ALL_FEATURES
  6
Continuous
 62
     7
100
AcDbLine
 10
186.0601314845333
 20
189.2095056773666
 30
0.0
 11
185.0601309932
 21
190.2095057049666
 31
0.0
  0
LINE
  5
34D
330
221
100
AcDbEntity
  8
7_ALL_FEATURES
  6
Continuous
 62
     7
100
AcDbLine
 10
180.3452899613333
 20
256.9595135710999
 30
0.0
 11
180.3452899613333
 21
254.4595135710999
 31
0.0
  0
LINE
  5
34E
330
221
100
AcDbEntity
  8
7_ALL_FEATURES
  6
Continuous
 62
     7
100
AcDbLine
 10
185.0601391246667
 20
239.7095136280332
 30
0.0
 11
185.0601391246667
 21
229.2095135710999
 31
0.0
  0
LINE
  5
34F
330
221
100
AcDbEntity
  8
7_ALL_FEATURES
  6
Continuous
 62
     7
100
AcDbLine
 10
185.0601391246667
 20
225.7095135710999
 30
0.0
 11
185.0601391246667
 21
222.7095135710999
 31
0.0
  0
LINE
  5
350
330
221
100
AcDbEntity
  8
7_ALL_FEATURES
  6
Continuous
 62
     7
100
AcDbLine
 10
185.0601391246667
 20
219.2095135710999
 30
0.0
 11
185.0601391246667
 21
216.2095135710999
 31
0.0
  0
LINE
  5
351
330
221
100
AcDbEntity
  8
7_ALL_FEATURES
  6
Continuous
 62
     7
100
AcDbLine
 10
185.0601391246667
 20
212.7095135710999
 30
0.0
 11
185.0601391246667
 21
209.7095135710999
 31
0.0
  0
LINE
  5
352
330
221
100
AcDbEntity
  8
7_ALL_FEATURES
  6
Continuous
 62
     7
100
AcDbLine
 10
185.0601391246667
 20
206.2095135710999
 30
0.0
 11
185.0601391246667
 21
203.2095135710999
 31
0.0
  0
LINE
  5
353
330
221
100
AcDbEntity
  8
7_ALL_FEATURES
  6
Continuous
 62
     7
100
AcDbLine
 10
185.0601391246667
 20
199.7095135710999
 30
0.0
 11
185.0601391246667
 21
196.7095135710999
 31
0.0
  0
LINE
  5
354
330
221
100
AcDbEntity
  8
7_ALL_FEATURES
  6
Continuous
 62
     7
100
AcDbLine
 10
185.0601391246667
 20
193.2095135710999
 30
0.0
 11
185.0601391246667
 21
190.2095138362999
 31
0.0
  0
LINE
  5
355
330
221
100
AcDbEntity
  8
02___PRT_ALL_AXES
  6
Continuous
 62
     7
100
AcDbLine
 10
186.1116543148
 20
255.9595135710999
 30
0.0
 11
186.1116543148
 21
257.4595135710999
 31
0.0
  0
LINE
  5
356
330
221
100
AcDbEntity
  8
02___PRT_ALL_AXES
  6
Continuous
 62
     7
100
AcDbLine
 10
186.8616543148
 20
254.4595135710999
 30
0.0
 11
186.8616543148
 21
255.9595135710999
 31
0.0
  0
LINE
  5
357
330
221
100
AcDbEntity
  8
7_ALL_FEATURES
  6
Continuous
 62
     7
100
AcDbLine
 10
187.5601391246667
 20
216.2095135710999
 30
0.0
 11
187.5601391246667
 21
212.7095135710999
 31
0.0
  0
LINE
  5
358
330
221
100
AcDbEntity
  8
7_ALL_FEATURES
  6
Continuous
 62
     7
100
AcDbLine
 10
187.5601391246667
 20
209.7095135710999
 30
0.0
 11
187.5601391246667
 21
206.2095135710999
 31
0.0
  0
LINE
  5
359
330
221
100
AcDbEntity
  8
7_ALL_FEATURES
  6
Continuous
 62
     7
100
AcDbLine
 10
189.0601391246667
 20
229.2095135710999
 30
0.0
 11
189.0601391246667
 21
225.7095135710999
 31
0.0
  0
LINE
  5
35A
330
221
100
AcDbEntity
  8
7_ALL_FEATURES
  6
Continuous
 62
     7
100
AcDbLine
 10
189.0601391246667
 20
222.7095135710999
 30
0.0
 11
189.0601391246667
 21
219.2095135710999
 31
0.0
  0
LINE
  5
35B
330
221
100
AcDbEntity
  8
02___PRT_ALL_AXES
  6
Continuous
 62
     7
100
AcDbLine
 10
229.0406572336
 20
181.7095135710999
 30
0.0
 11
210.0796210156
 21
181.7095135710999
 31
0.0
  0
LINE
  5
35C
330
221
100
AcDbEntity
  8
7_ALL_FEATURES
  6
Continuous
 62
     7
100
AcDbLine
 10
191.0601391246667
 20
196.7095135710999
 30
0.0
 11
191.0601391246667
 21
193.2095135710999
 31
0.0
  0
LINE
  5
35D
330
221
100
AcDbEntity
  8
02___PRT_ALL_AXES
  6
Continuous
 62
     7
100
AcDbLine
 10
192.8616543148
 20
254.4595135710999
 30
0.0
 11
192.8616543148
 21
255.9595135710999
 31
0.0
  0
LINE
  5
35E
330
221
100
AcDbEntity
  8
7_ALL_FEATURES
  6
Continuous
 62
     7
100
AcDbLine
 10
192.9339188690667
 20
256.9595135710999
 30
0.0
 11
192.9339188690667
 21
254.4595135710999
 31
0.0
  0
LINE
  5
35F
330
221
100
AcDbEntity
  8
7_ALL_FEATURES
  6
Continuous
 62
     7
100
AcDbLine
 10
194.0601391246667
 20
203.2095135710999
 30
0.0
 11
194.0601391246667
 21
199.7095135710999
 31
0.0
  0
LINE
  5
360
330
221
100
AcDbEntity
  8
02___PRT_ALL_AXES
  6
Continuous
 62
     7
100
AcDbLine
 10
229.0406572336
 20
185.7095135710999
 30
0.0
 11
210.0796210156
 21
185.7095135710999
 31
0.0
  0
LINE
  5
361
330
221
100
AcDbEntity
  8
7_ALL_FEATURES
  6
Continuous
 62
     7
100
AcDbLine
 10
253.0599818392
 20
189.2095135710999
 30
0.0
 11
186.06029641
 21
189.2095135710999
 31
0.0
  0
LINE
  5
362
330
221
100
AcDbEntity
  8
7_ALL_FEATURES
  6
Continuous
 62
     7
100
AcDbLine
 10
254.0601391236
 20
190.2095142202999
 30
0.0
 11
185.0601391256
 21
190.2095142202999
 31
0.0
  0
LINE
  5
363
330
221
100
AcDbEntity
  8
7_ALL_FEATURES
  6
Continuous
 62
     7
100
AcDbLine
 10
254.0599117966667
 20
193.2095135710999
 30
0.0
 11
185.0603664525334
 21
193.2095135710999
 31
0.0
  0
LINE
  5
364
330
221
100
AcDbEntity
  8
7_ALL_FEATURES
  6
Continuous
 62
     7
100
AcDbLine
 10
254.0599117966667
 20
196.7095135710999
 30
0.0
 11
185.0603664525334
 21
196.7095135710999
 31
0.0
  0
LINE
  5
365
330
221
100
AcDbEntity
  8
7_ALL_FEATURES
  6
Continuous
 62
     7
100
AcDbLine
 10
254.0599117966667
 20
199.7095135710999
 30
0.0
 11
185.0603664525334
 21
199.7095135710999
 31
0.0
  0
LINE
  5
366
330
221
100
AcDbEntity
  8
7_ALL_FEATURES
  6
Continuous
 62
     7
100
AcDbLine
 10
172.6601423469334
 20
240.7095154156332
 30
0.0
 11
172.1601409822667
 21
241.2095168342999
 31
0.0
  0
LINE
  5
367
330
221
100
AcDbEntity
  8
02___PRT_ALL_AXES
  6
Continuous
 62
     7
100
AcDbLine
 10
210.0796210156
 20
189.2095135710999
 30
0.0
 11
210.0796210156
 21
185.7095135710999
 31
0.0
  0
LINE
  5
368
330
221
100
AcDbEntity
  8
02___PRT_ALL_AXES
  6
Continuous
 62
     7
100
AcDbLine
 10
210.0796210156
 20
181.7095135710999
 30
0.0
 11
210.0796210156
 21
174.2095135710999
 31
0.0
  0
LINE
  5
369
330
221
100
AcDbEntity
  8
7_ALL_FEATURES
  6
Continuous
 62
     7
100
AcDbLine
 10
254.0599117966667
 20
203.2095135710999
 30
0.0
 11
185.0603664525334
 21
203.2095135710999
 31
0.0
  0
LINE
  5
36A
330
221
100
AcDbEntity
  8
02___PRT_ALL_AXES
  6
Continuous
 62
     7
100
AcDbLine
 10
210.5100737217334
 20
173.4659699565666
 30
0.0
 11
210.5100737217334
 21
173.4926749770999
 31
0.0
  0
LINE
  5
36B
330
221
100
AcDbEntity
  8
02___PRT_ALL_AXES
  6
Continuous
 62
     7
100
AcDbLine
 10
211.2556396788
 20
173.4659699565666
 30
0.0
 11
211.2556396788
 21
173.4926749770999
 31
0.0
  0
LINE
  5
36C
330
221
100
AcDbEntity
  8
02___PRT_ALL_AXES
  6
Continuous
 62
     7
100
AcDbLine
 10
212.0601391246667
 20
181.7095135710999
 30
0.0
 11
212.0601391246667
 21
185.7095135710999
 31
0.0
  0
LINE
  5
36D
330
221
100
AcDbEntity
  8
7_ALL_FEATURES
  6
Continuous
 62
     7
100
AcDbLine
 10
254.0599117966667
 20
206.2095135710999
 30
0.0
 11
185.0603664525334
 21
206.2095135710999
 31
0.0
  0
LINE
  5
36E
330
221
100
AcDbEntity
  8
7_ALL_FEATURES
  6
Continuous
 62
     7
100
AcDbLine
 10
254.0598034116
 20
209.7095135710999
 30
0.0
 11
185.0601397181333
 21
209.7095135710999
 31
0.0
  0
LINE
  5
36F
330
221
100
AcDbEntity
  8
7_ALL_FEATURES
  6
Continuous
 62
     7
100
AcDbLine
 10
185.0601271970667
 20
239.7095017005666
 30
0.0
 11
184.0601269106667
 21
240.7095012970999
 31
0.0
  0
LINE
  5
370
330
221
100
AcDbEntity
  8
02___PRT_ALL_AXES
  6
Continuous
 62
     7
100
AcDbLine
 10
215.8438232902667
 20
173.4659699565666
 30
0.0
 11
215.8438232902667
 21
173.4926749770999
 31
0.0
  0
LINE
  5
371
330
221
100
AcDbEntity
  8
02___PRT_ALL_AXES
  6
Continuous
 62
     7
100
AcDbLine
 10
217.0198419534667
 20
189.2095135710999
 30
0.0
 11
217.0198419534667
 21
185.7095135710999
 31
0.0
  0
LINE
  5
372
330
221
100
AcDbEntity
  8
02___PRT_ALL_AXES
  6
Continuous
 62
     7
100
AcDbLine
 10
217.0198419534667
 20
181.7095135710999
 30
0.0
 11
217.0198419534667
 21
174.2095135710999
 31
0.0
  0
LINE
  5
373
330
221
100
AcDbEntity
  8
02___PRT_ALL_AXES
  6
Continuous
 62
     7
100
AcDbLine
 10
218.6263133228
 20
173.4659699565666
 30
0.0
 11
218.6263133228
 21
173.4926749770999
 31
0.0
  0
LINE
  5
374
330
221
100
AcDbEntity
  8
7_ALL_FEATURES
  6
Continuous
 62
     7
100
AcDbLine
 10
185.0605676121333
 20
212.7095135710999
 30
0.0
 11
254.0599998093333
 21
212.7095135710999
 31
0.0
  0
LINE
  5
375
330
221
100
AcDbEntity
  8
02___PRT_ALL_AXES
  6
Continuous
 62
     7
100
AcDbLine
 10
224.8938886932
 20
173.4659699565666
 30
0.0
 11
224.8938886932
 21
173.4926749770999
 31
0.0
  0
LINE
  5
376
330
221
100
AcDbEntity
  8
7_ALL_FEATURES
  6
Continuous
 62
     7
100
AcDbLine
 10
254.0599117966667
 20
216.2095135710999
 30
0.0
 11
185.0603300418667
 21
216.2095135710999
 31
0.0
  0
LINE
  5
377
330
221
100
AcDbEntity
  8
7_ALL_FEATURES
  6
Continuous
 62
     7
100
AcDbLine
 10
254.0599117966667
 20
219.2095135710999
 30
0.0
 11
185.0603664525334
 21
219.2095135710999
 31
0.0
  0
LINE
  5
378
330
221
100
AcDbEntity
  8
02___PRT_ALL_AXES
  6
Continuous
 62
     7
100
AcDbLine
 10
226.5003600625334
 20
189.2095135710999
 30
0.0
 11
226.5003600625334
 21
185.7095135710999
 31
0.0
  0
LINE
  5
379
330
221
100
AcDbEntity
  8
02___PRT_ALL_AXES
  6
Continuous
 62
     7
100
AcDbLine
 10
226.5003600625334
 20
181.7095135710999
 30
0.0
 11
226.5003600625334
 21
174.2095135710999
 31
0.0
  0
LINE
  5
37A
330
221
100
AcDbEntity
  8
02___PRT_ALL_AXES
  6
Continuous
 62
     7
100
AcDbLine
 10
226.9308127685333
 20
173.4659699565666
 30
0.0
 11
226.9308127685333
 21
173.4926749770999
 31
0.0
  0
LINE
  5
37B
330
221
100
AcDbEntity
  8
02___PRT_ALL_AXES
  6
Continuous
 62
     7
100
AcDbLine
 10
227.0601391246667
 20
181.7095135710999
 30
0.0
 11
227.0601391246667
 21
185.7095135710999
 31
0.0
  0
LINE
  5
37C
330
221
100
AcDbEntity
  8
02___PRT_ALL_AXES
  6
Continuous
 62
     7
100
AcDbLine
 10
228.6102045276
 20
173.4659699565666
 30
0.0
 11
228.6102045276
 21
173.4926749770999
 31
0.0
  0
LINE
  5
37D
330
221
100
AcDbEntity
  8
02___PRT_ALL_AXES
  6
Continuous
 62
     7
100
AcDbLine
 10
229.0406572336
 20
189.2095135710999
 30
0.0
 11
229.0406572336
 21
185.7095135710999
 31
0.0
  0
LINE
  5
37E
330
221
100
AcDbEntity
  8
02___PRT_ALL_AXES
  6
Continuous
 62
     7
100
AcDbLine
 10
229.0406572336
 20
181.7095135710999
 30
0.0
 11
229.0406572336
 21
174.2095135710999
 31
0.0
  0
LINE
  5
37F
330
221
100
AcDbEntity
  8
7_ALL_FEATURES
  6
Continuous
 62
     7
100
AcDbLine
 10
254.0601510521333
 20
239.7095017005666
 30
0.0
 11
255.0601513385333
 21
240.7095012970999
 31
0.0
  0
LINE
  5
380
330
221
100
AcDbEntity
  8
7_ALL_FEATURES
  6
Continuous
 62
     7
100
AcDbLine
 10
254.0599117966667
 20
222.7095135710999
 30
0.0
 11
185.0603664525334
 21
222.7095135710999
 31
0.0
  0
LINE
  5
381
330
221
100
AcDbEntity
  8
7_ALL_FEATURES
  6
Continuous
 62
     7
100
AcDbLine
 10
266.4601359022666
 20
240.7095154156332
 30
0.0
 11
266.9601372669333
 21
241.2095168342999
 31
0.0
  0
LINE
  5
382
330
221
100
AcDbEntity
  8
7_ALL_FEATURES
  6
Continuous
 62
     7
100
AcDbLine
 10
254.0599117966667
 20
225.7095135710999
 30
0.0
 11
185.0603664525334
 21
225.7095135710999
 31
0.0
  0
LINE
  5
383
330
221
100
AcDbEntity
  8
7_ALL_FEATURES
  6
Continuous
 62
     7
100
AcDbLine
 10
254.0599117966667
 20
229.2095135710999
 30
0.0
 11
185.0603664525334
 21
229.2095135710999
 31
0.0
  0
LINE
  5
384
330
221
100
AcDbEntity
  8
7_ALL_FEATURES
  6
Continuous
 62
     7
100
AcDbLine
 10
245.0601391246667
 20
203.2095135710999
 30
0.0
 11
245.0601391246667
 21
199.7095135710999
 31
0.0
  0
LINE
  5
385
330
221
100
AcDbEntity
  8
7_ALL_FEATURES
  6
Continuous
 62
     7
100
AcDbLine
 10
185.0601391388
 20
239.7095141929666
 30
0.0
 11
254.0601391104
 21
239.7095141929666
 31
0.0
  0
LINE
  5
386
330
221
100
AcDbEntity
  8
7_ALL_FEATURES
  6
Continuous
 62
     7
100
AcDbLine
 10
246.1863593801333
 20
256.9595135710999
 30
0.0
 11
246.1863593801333
 21
254.4595135710999
 31
0.0
  0
LINE
  5
387
330
221
100
AcDbEntity
  8
02___PRT_ALL_AXES
  6
Continuous
 62
     7
100
AcDbLine
 10
246.2586239344
 20
254.4595135710999
 30
0.0
 11
246.2586239344
 21
255.9595135710999
 31
0.0
  0
LINE
  5
388
330
221
100
AcDbEntity
  8
7_ALL_FEATURES
  6
Continuous
 62
     7
100
AcDbLine
 10
248.0601391246667
 20
196.7095135710999
 30
0.0
 11
248.0601391246667
 21
193.2095135710999
 31
0.0
  0
LINE
  5
389
330
221
100
AcDbEntity
  8
7_ALL_FEATURES
  6
Continuous
 62
     7
100
AcDbLine
 10
250.0601391246667
 20
229.2095135710999
 30
0.0
 11
250.0601391246667
 21
225.7095135710999
 31
0.0
  0
LINE
  5
38A
330
221
100
AcDbEntity
  8
7_ALL_FEATURES
  6
Continuous
 62
     7
100
AcDbLine
 10
250.0601391246667
 20
222.7095135710999
 30
0.0
 11
250.0601391246667
 21
219.2095135710999
 31
0.0
  0
LINE
  5
38B
330
221
100
AcDbEntity
  8
7_ALL_FEATURES
  6
Continuous
 62
     7
100
AcDbLine
 10
172.6602308714667
 20
240.7095135710999
 30
0.0
 11
266.4600473777333
 21
240.7095135710999
 31
0.0
  0
LINE
  5
38C
330
221
100
AcDbEntity
  8
7_ALL_FEATURES
  6
Continuous
 62
     7
100
AcDbLine
 10
172.1601391254667
 20
241.2095152841666
 30
0.0
 11
266.9601391237333
 21
241.2095152841666
 31
0.0
  0
LINE
  5
38D
330
221
100
AcDbEntity
  8
7_ALL_FEATURES
  6
Continuous
 62
     7
100
AcDbLine
 10
251.5601391246667
 20
216.2095135710999
 30
0.0
 11
251.5601391246667
 21
212.7095135710999
 31
0.0
  0
LINE
  5
38E
330
221
100
AcDbEntity
  8
7_ALL_FEATURES
  6
Continuous
 62
     7
100
AcDbLine
 10
251.5601391246667
 20
209.7095135710999
 30
0.0
 11
251.5601391246667
 21
206.2095135710999
 31
0.0
  0
LINE
  5
38F
330
221
100
AcDbEntity
  8
02___PRT_ALL_AXES
  6
Continuous
 62
     7
100
AcDbLine
 10
252.2586239344
 20
254.4595135710999
 30
0.0
 11
252.2586239344
 21
255.9595135710999
 31
0.0
  0
LINE
  5
390
330
221
100
AcDbEntity
  8
02___PRT_ALL_AXES
  6
Continuous
 62
     7
100
AcDbLine
 10
253.0086239344
 20
255.9595135710999
 30
0.0
 11
253.0086239344
 21
257.4595135710999
 31
0.0
  0
LINE
  5
391
330
221
100
AcDbEntity
  8
7_ALL_FEATURES
  6
Continuous
 62
     7
100
AcDbLine
 10
254.0601391246667
 20
239.7095136280332
 30
0.0
 11
254.0601391246667
 21
229.2095135710999
 31
0.0
  0
LINE
  5
392
330
221
100
AcDbEntity
  8
7_ALL_FEATURES
  6
Continuous
 62
     7
100
AcDbLine
 10
254.0601391246667
 20
225.7095135710999
 30
0.0
 11
254.0601391246667
 21
222.7095135710999
 31
0.0
  0
LINE
  5
393
330
221
100
AcDbEntity
  8
7_ALL_FEATURES
  6
Continuous
 62
     7
100
AcDbLine
 10
254.0601391246667
 20
219.2095135710999
 30
0.0
 11
254.0601391246667
 21
216.2095135710999
 31
0.0
  0
LINE
  5
394
330
221
100
AcDbEntity
  8
7_ALL_FEATURES
  6
Continuous
 62
     7
100
AcDbLine
 10
254.0601391246667
 20
212.7095135710999
 30
0.0
 11
254.0601391246667
 21
209.7095135710999
 31
0.0
  0
LINE
  5
395
330
221
100
AcDbEntity
  8
7_ALL_FEATURES
  6
Continuous
 62
     7
100
AcDbLine
 10
254.0601391246667
 20
206.2095135710999
 30
0.0
 11
254.0601391246667
 21
203.2095135710999
 31
0.0
  0
LINE
  5
396
330
221
100
AcDbEntity
  8
7_ALL_FEATURES
  6
Continuous
 62
     7
100
AcDbLine
 10
254.0601391246667
 20
199.7095135710999
 30
0.0
 11
254.0601391246667
 21
196.7095135710999
 31
0.0
  0
LINE
  5
397
330
221
100
AcDbEntity
  8
7_ALL_FEATURES
  6
Continuous
 62
     7
100
AcDbLine
 10
254.0601391246667
 20
193.2095135710999
 30
0.0
 11
254.0601391246667
 21
190.2095138362999
 31
0.0
  0
LINE
  5
398
330
221
100
AcDbEntity
  8
7_ALL_FEATURES
  6
Continuous
 62
     7
100
AcDbLine
 10
258.774988288
 20
256.9595135710999
 30
0.0
 11
258.774988288
 21
254.4595135710999
 31
0.0
  0
LINE
  5
399
330
221
100
AcDbEntity
  8
02___PRT_ALL_AXES
  6
Continuous
 62
     7
100
AcDbLine
 10
258.774988288
 20
254.4595135710999
 30
0.0
 11
246.1863593801333
 21
254.4595135710999
 31
0.0
  0
LINE
  5
39A
330
221
100
AcDbEntity
  8
02___PRT_ALL_AXES
  6
Continuous
 62
     7
100
AcDbLine
 10
192.9339188690667
 20
254.4595135710999
 30
0.0
 11
180.3452899613333
 21
254.4595135710999
 31
0.0
  0
LINE
  5
39B
330
221
100
AcDbEntity
  8
02___PRT_ALL_AXES
  6
Continuous
 62
     7
100
AcDbLine
 10
246.2586239344
 20
254.8095135710999
 30
0.0
 11
246.1863593801333
 21
254.8095135710999
 31
0.0
  0
LINE
  5
39C
330
221
100
AcDbEntity
  8
02___PRT_ALL_AXES
  6
Continuous
 62
     7
100
AcDbLine
 10
192.9339188690667
 20
254.8095135710999
 30
0.0
 11
192.8616543148
 21
254.8095135710999
 31
0.0
  0
LINE
  5
39D
330
221
100
AcDbEntity
  8
7_ALL_FEATURES
  6
Continuous
 62
     7
100
AcDbLine
 10
253.0601467646667
 20
189.2095056773666
 30
0.0
 11
254.060147256
 21
190.2095057049666
 31
0.0
  0
LINE
  5
39E
330
221
100
AcDbEntity
  8
02___PRT_ALL_AXES
  6
Continuous
 62
     7
100
AcDbLine
 10
186.1116714932
 20
255.9595135710999
 30
0.0
 11
192.9339188690667
 21
255.9595135710999
 31
0.0
  0
LINE
  5
39F
330
221
100
AcDbEntity
  8
02___PRT_ALL_AXES
  6
Continuous
 62
     7
100
AcDbLine
 10
246.1863593801333
 20
255.9595135710999
 30
0.0
 11
253.008606756
 21
255.9595135710999
 31
0.0
  0
LINE
  5
3A0
330
221
100
AcDbEntity
  8
7_ALL_FEATURES
  6
Continuous
 62
     7
100
AcDbLine
 10
246.1863593801333
 20
256.9595135710999
 30
0.0
 11
192.9339188690667
 21
256.9595135710999
 31
0.0
  0
LINE
  5
3A1
330
221
100
AcDbEntity
  8
7_ALL_FEATURES
  6
Continuous
 62
     7
100
AcDbLine
 10
266.9601391246666
 20
256.9594862102999
 30
0.0
 11
258.774988288
 21
256.9595135710999
 31
0.0
  0
LINE
  5
3A2
330
221
100
AcDbEntity
  8
7_ALL_FEATURES
  6
Continuous
 62
     7
100
AcDbLine
 10
180.3452899613333
 20
256.9595135710999
 30
0.0
 11
172.1601391246667
 21
256.9594853462999
 31
0.0
  0
LINE
  5
3A3
330
221
100
AcDbEntity
  8
02___PRT_ALL_AXES
  6
Continuous
 62
     7
100
AcDbLine
 10
159.5601391246667
 20
257.4595135710999
 30
0.0
 11
279.5601391246666
 21
257.4595135710999
 31
0.0
  0
LINE
  5
3A4
330
221
100
AcDbEntity
  8
7_ALL_FEATURES
  6
Continuous
 62
     7
100
AcDbLine
 10
159.5601391246667
 20
258.4595135710999
 30
0.0
 11
279.5601391246666
 21
258.4595135710999
 31
0.0
  0
LINE
  5
3A5
330
221
100
AcDbEntity
  8
7_ALL_FEATURES
  6
Continuous
 62
     7
100
AcDbLine
 10
161.5601391246667
 20
260.4595135710999
 30
0.0
 11
277.5601391246666
 21
260.4595135710999
 31
0.0
  0
LINE
  5
3A6
330
221
100
AcDbEntity
  8
02___PRT_ALL_AXES
  6
Continuous
 62
     7
100
AcDbLine
 10
266.9601391246666
 20
256.9594862102999
 30
0.0
 11
266.9601391246666
 21
241.2095149765666
 31
0.0
  0
LINE
  5
3A7
330
221
100
AcDbEntity
  8
7_ALL_FEATURES
  6
Continuous
 62
     7
100
AcDbLine
 10
279.5601391246666
 20
257.4595135710999
 30
0.0
 11
279.5601391246666
 21
258.4595135710999
 31
0.0
  0
LINE
  5
3A8
330
221
100
AcDbEntity
  8
7_ALL_FEATURES
  6
Continuous
 62
     7
100
AcDbLine
 10
266.4601120525333
 20
257.4595135710999
 30
0.0
 11
266.9601391246666
 21
256.9594862102999
 31
0.0
  0
LINE
  5
3A9
330
221
100
AcDbEntity
  8
7_ALL_FEATURES
  6
Continuous
 62
     7
100
AcDbLine
 10
279.5601391246666
 20
258.4595135710999
 30
0.0
 11
277.5601391246666
 21
260.4595135710999
 31
0.0
  0
LINE
  5
3AA
330
221
100
AcDbEntity
  8
7_ALL_FEATURES
  6
Continuous
 62
     7
100
AcDbLine
 10
282.5955798422
 20
157.4181389997
 30
0.0
 11
282.5951842099
 21
158.1108460965
 31
0.0
  0
LINE
  5
3AB
330
221
100
AcDbEntity
  8
7_ALL_FEATURES
  6
Continuous
 62
     7
100
AcDbLine
 10
282.5951842099
 20
158.1108460965
 30
0.0
 11
284.529964283
 21
159.1644384036
 31
0.0
  0
LINE
  5
3AC
330
221
100
AcDbEntity
  8
7_ALL_FEATURES
  6
Continuous
 62
     7
100
AcDbLine
 10
317.8331954693
 20
96.1757992673
 30
0.0
 11
317.1505139988
 21
96.7487934533
 31
0.0
  0
LINE
  5
3AD
330
221
100
AcDbEntity
  8
7_ALL_FEATURES
  6
Continuous
 62
     7
100
AcDbLine
 10
319.8481126816
 20
152.1646910707
 30
0.0
 11
319.7901085628
 21
152.1153393741
 31
0.0
  0
LINE
  5
3AE
330
221
100
AcDbEntity
  8
7_ALL_FEATURES
  6
Continuous
 62
     7
100
AcDbLine
 10
319.5068838856
 20
151.8774688686
 30
0.0
 11
319.4481424743
 21
151.8276442023
 31
0.0
  0
LINE
  5
3AF
330
221
100
AcDbEntity
  8
7_ALL_FEATURES
  6
Continuous
 62
     7
100
AcDbLine
 10
314.6203293354
 20
125.1916541438
 30
0.0
 11
314.6199337031
 21
125.8843612406
 31
0.0
  0
LINE
  5
3B0
330
221
100
AcDbEntity
  8
7_ALL_FEATURES
  6
Continuous
 62
     7
100
AcDbLine
 10
314.8004210075
 20
125.2180271365
 30
0.0
 11
314.8014724149
 21
123.3771325652
 31
0.0
  0
LINE
  5
3B1
330
221
100
AcDbEntity
  8
7_ALL_FEATURES
  6
Continuous
 62
     7
100
AcDbLine
 10
314.8028571279
 20
120.9526577265
 30
0.0
 11
314.8040440248
 21
118.8745364361
 31
0.0
  0
LINE
  5
3B2
330
221
100
AcDbEntity
  8
7_ALL_FEATURES
  6
Continuous
 62
     7
100
AcDbLine
 10
314.8054287378
 20
116.4500615974
 30
0.0
 11
314.8066156347
 21
114.371940307
 31
0.0
  0
LINE
  5
3B3
330
221
100
AcDbEntity
  8
7_ALL_FEATURES
  6
Continuous
 62
     7
100
AcDbLine
 10
314.8080003477
 20
111.9474654683
 30
0.0
 11
314.8091872446
 21
109.869344178
 31
0.0
  0
LINE
  5
3B4
330
221
100
AcDbEntity
  8
7_ALL_FEATURES
  6
Continuous
 62
     7
100
AcDbLine
 10
314.8105719576
 20
107.4448693392
 30
0.0
 11
314.8117588545
 21
105.3667480489
 31
0.0
  0
LINE
  5
3B5
330
221
100
AcDbEntity
  8
7_ALL_FEATURES
  6
Continuous
 62
     7
100
AcDbLine
 10
314.8131435675
 20
102.9422732101
 30
0.0
 11
314.8143304613
 21
100.8641572493
 31
0.0
  0
LINE
  5
3B6
330
221
100
AcDbEntity
  8
7_ALL_FEATURES
  6
Continuous
 62
     7
100
AcDbLine
 10
314.6199337031
 20
125.8843612406
 30
0.0
 11
315.4872221265
 21
128.0121697096
 31
0.0
  0
LINE
  5
3B7
330
221
100
AcDbEntity
  8
7_ALL_FEATURES
  6
Continuous
 62
     7
100
AcDbLine
 10
329.1269782834
 20
107.3843393066
 30
0.0
 11
330.1538126248
 21
106.6084622339
 31
0.0
  0
LINE
  5
3B8
330
221
100
AcDbEntity
  8
7_ALL_FEATURES
  6
Continuous
 62
     7
100
AcDbLine
 10
330.0477158343
 20
108.1717673463
 30
0.0
 11
331.0745501757
 21
107.3958902736
 31
0.0
  0
LINE
  5
3B9
330
221
100
AcDbEntity
  8
7_ALL_FEATURES
  6
Continuous
 62
     7
100
AcDbLine
 10
331.1792764557
 20
108.2321929339
 30
0.0
 11
330.1524421144
 21
109.0080700067
 31
0.0
  0
LINE
  5
3BA
330
221
100
AcDbEntity
  8
02___PRT_ALL_AXES
  6
Continuous
 62
     7
100
AcDbLine
 10
282.5955798422
 20
157.4181389997
 30
0.0
 11
314.6203293354
 21
125.1916541438
 31
0.0
  0
LINE
  5
3BB
330
221
100
AcDbEntity
  8
7_ALL_FEATURES
  6
Continuous
 62
     7
100
AcDbLine
 10
282.5951842099
 20
158.1108460965
 30
0.0
 11
314.6199337031
 21
125.8843612406
 31
0.0
  0
LINE
  5
3BC
330
221
100
AcDbEntity
  8
7_ALL_FEATURES
  6
Continuous
 62
     7
100
AcDbLine
 10
284.529964283
 20
159.1644384036
 30
0.0
 11
315.4872221265
 21
128.0121697096
 31
0.0
  0
LINE
  5
3BD
330
221
100
AcDbEntity
  8
7_ALL_FEATURES
  6
Continuous
 62
     7
100
AcDbLine
 10
329.1262930282
 20
108.584143193
 30
0.0
 11
329.1269782834
 21
107.3843393066
 31
0.0
  0
LINE
  5
3BE
330
221
100
AcDbEntity
  8
7_ALL_FEATURES
  6
Continuous
 62
     7
100
AcDbLine
 10
330.0472630061
 20
108.9646179929
 30
0.0
 11
330.0477158343
 21
108.1717673463
 31
0.0
  0
LINE
  5
3BF
330
221
100
AcDbEntity
  8
7_ALL_FEATURES
  6
Continuous
 62
     7
100
AcDbLine
 10
331.179961711
 20
107.0323890476
 30
0.0
 11
331.1792764557
 21
108.2321929339
 31
0.0
  0
LINE
  5
3C0
330
221
100
AcDbEntity
  8
02___PRT_ALL_AXES
  6
Continuous
 62
     7
100
AcDbLine
 10
333.371853064
 20
90.9942143946
 30
0.0
 11
333.3727037764
 21
89.5047139268
 31
0.0
  0
LINE
  5
3C1
330
221
100
AcDbEntity
  8
02___PRT_ALL_AXES
  6
Continuous
 62
     7
100
AcDbLine
 10
334.1034314321
 20
88.6024146101
 30
0.0
 11
334.1034208667
 21
88.6209133674
 31
0.0
  0
LINE
  5
3C2
330
221
100
AcDbEntity
  8
02___PRT_ALL_AXES
  6
Continuous
 62
     7
100
AcDbLine
 10
336.953184632
 20
87.0916098922
 30
0.0
 11
336.9531740666
 21
87.1101086494
 31
0.0
  0
LINE
  5
3C3
330
221
100
AcDbEntity
  8
02___PRT_ALL_AXES
  6
Continuous
 62
     7
100
AcDbLine
 10
337.6813645295
 20
90.6501449664
 30
0.0
 11
337.6833239479
 21
87.2194264525
 31
0.0
  0
LINE
  5
3C4
330
221
100
AcDbEntity
  8
02___PRT_ALL_AXES
  6
Continuous
 62
     7
100
AcDbLine
 10
338.9244905607
 20
86.7536618976
 30
0.0
 11
338.9244799953
 21
86.7721606548
 31
0.0
  0
LINE
  5
3C5
330
221
100
AcDbEntity
  8
02___PRT_ALL_AXES
  6
Continuous
 62
     7
100
AcDbLine
 10
343.7656982593
 20
86.9459778035
 30
0.0
 11
343.7656876939
 21
86.9644765607
 31
0.0
  0
LINE
  5
3C6
330
221
100
AcDbEntity
  8
02___PRT_ALL_AXES
  6
Continuous
 62
     7
100
AcDbLine
 10
345.0044390951
 20
90.7274724479
 30
0.0
 11
345.0062765323
 21
87.5103291256
 31
0.0
  0
LINE
  5
3C7
330
221
100
AcDbEntity
  8
02___PRT_ALL_AXES
  6
Continuous
 62
     7
100
AcDbLine
 10
345.5170096593
 20
87.4318059487
 30
0.0
 11
345.5169990939
 21
87.450304706
 31
0.0
  0
LINE
  5
3C8
330
221
100
AcDbEntity
  8
02___PRT_ALL_AXES
  6
Continuous
 62
     7
100
AcDbLine
 10
314.6203293354
 20
125.1916541438
 30
0.0
 11
398.729860103
 21
137.5088258146
 31
0.0
  0
LINE
  5
3C9
330
221
100
AcDbEntity
  8
7_ALL_FEATURES
  6
Continuous
 62
     7
100
AcDbLine
 10
314.6199337031
 20
125.8843612406
 30
0.0
 11
398.7294644707
 21
138.2015329114
 31
0.0
  0
LINE
  5
3CA
330
221
100
AcDbEntity
  8
7_ALL_FEATURES
  6
Continuous
 62
     7
100
AcDbLine
 10
315.4872221265
 20
128.0121697096
 30
0.0
 11
396.7931018684
 21
139.9187689913
 31
0.0
  0
LINE
  5
3CB
330
221
100
AcDbEntity
  8
02___PRT_ALL_AXES
  6
Continuous
 62
     7
100
AcDbLine
 10
347.508464158
 20
89.1349265726
 30
0.0
 11
347.5084535926
 21
89.1534253298
 31
0.0
  0
LINE
  5
3CC
330
221
100
AcDbEntity
  8
02___PRT_ALL_AXES
  6
Continuous
 62
     7
100
AcDbLine
 10
348.0180871109
 20
91.000191751
 30
0.0
 11
348.0186089452
 21
90.0865192729
 31
0.0
  0
LINE
  5
3CD
330
221
100
AcDbEntity
  8
02___PRT_ALL_AXES
  6
Continuous
 62
     7
100
AcDbLine
 10
328.8283866301
 20
110.1293656489
 30
0.0
 11
328.4777100708
 21
109.8294619951
 31
0.0
  0
LINE
  5
3CE
330
221
100
AcDbEntity
  8
7_ALL_FEATURES
  6
Continuous
 62
     7
100
AcDbLine
 10
327.7977528219
 20
107.9698440902
 30
0.0
 11
327.6924588879
 21
107.8797951984
 31
0.0
  0
LINE
  5
3CF
330
221
100
AcDbEntity
  8
7_ALL_FEATURES
  6
Continuous
 62
     7
100
AcDbLine
 10
329.1269782834
 20
107.3843393066
 30
0.0
 11
330.0477158343
 21
108.1717673463
 31
0.0
  0
LINE
  5
3D0
330
221
100
AcDbEntity
  8
7_ALL_FEATURES
  6
Continuous
 62
     7
100
AcDbLine
 10
330.1538126248
 20
106.6084622339
 30
0.0
 11
331.0745501757
 21
107.3958902736
 31
0.0
  0
LINE
  5
3D1
330
221
100
AcDbEntity
  8
7_ALL_FEATURES
  6
Continuous
 62
     7
100
AcDbLine
 10
329.605834117
 20
105.5775839862
 30
0.0
 11
329.4512716199
 21
105.4453999083
 31
0.0
  0
LINE
  5
3D2
330
221
100
AcDbEntity
  8
7_ALL_FEATURES
  6
Continuous
 62
     9
100
AcDbLine
 10
328.4777100708
 20
109.8294619951
 30
0.0
 11
328.4785249893
 21
109.8301585195
 31
0.0
  0
LINE
  5
3D3
330
221
100
AcDbEntity
  8
7_ALL_FEATURES
  6
Continuous
 62
     7
100
AcDbLine
 10
333.378214333
 20
107.6974333111
 30
0.0
 11
332.6064138511
 21
107.0373784019
 31
0.0
  0
LINE
  5
3D4
330
221
100
AcDbEntity
  8
7_ALL_FEATURES
  6
Continuous
 62
     7
100
AcDbLine
 10
330.961010727
 20
105.4104905418
 30
0.0
 11
330.7429120346
 21
105.2239693928
 31
0.0
  0
LINE
  5
3D5
330
221
100
AcDbEntity
  8
02___PRT_ALL_AXES
  6
Continuous
 62
     7
100
AcDbLine
 10
332.254907381
 20
106.1517017897
 30
0.0
 11
331.8899271718
 21
105.8395654481
 31
0.0
  0
LINE
  5
3D6
330
221
100
AcDbEntity
  8
7_ALL_FEATURES
  6
Continuous
 62
     7
100
AcDbLine
 10
330.1524421144
 20
109.0080700067
 30
0.0
 11
329.1262930282
 21
108.584143193
 31
0.0
  0
LINE
  5
3D7
330
221
100
AcDbEntity
  8
7_ALL_FEATURES
  6
Continuous
 62
     7
100
AcDbLine
 10
331.0745501757
 20
107.3958902736
 30
0.0
 11
331.1797292839
 21
107.4393422874
 31
0.0
  0
LINE
  5
3D8
330
221
100
AcDbEntity
  8
7_ALL_FEATURES
  6
Continuous
 62
     7
100
AcDbLine
 10
330.1538126248
 20
106.6084622339
 30
0.0
 11
331.179961711
 21
107.0323890476
 31
0.0
  0
LINE
  5
3D9
330
221
100
AcDbEntity
  8
7_ALL_FEATURES
  6
Continuous
 62
     7
100
AcDbLine
 10
366.5502770776
 20
125.4848103129
 30
0.0
 11
366.5514639745
 21
123.4066890225
 31
0.0
  0
LINE
  5
3DA
330
221
100
AcDbEntity
  8
7_ALL_FEATURES
  6
Continuous
 62
     7
100
AcDbLine
 10
366.5528486875
 20
120.9822141838
 30
0.0
 11
366.5540355844
 21
118.9040928934
 31
0.0
  0
LINE
  5
3DB
330
221
100
AcDbEntity
  8
7_ALL_FEATURES
  6
Continuous
 62
     7
100
AcDbLine
 10
366.5554202974
 20
116.4796180547
 30
0.0
 11
366.5566071942
 21
114.4014967643
 31
0.0
  0
LINE
  5
3DC
330
221
100
AcDbEntity
  8
7_ALL_FEATURES
  6
Continuous
 62
     7
100
AcDbLine
 10
366.5579919073
 20
111.9770219256
 30
0.0
 11
366.5591788041
 21
109.8989006352
 31
0.0
  0
LINE
  5
3DD
330
221
100
AcDbEntity
  8
7_ALL_FEATURES
  6
Continuous
 62
     7
100
AcDbLine
 10
366.5605635172
 20
107.4744257965
 30
0.0
 11
366.561750414
 21
105.3963045061
 31
0.0
  0
LINE
  5
3DE
330
221
100
AcDbEntity
  8
7_ALL_FEATURES
  6
Continuous
 62
     7
100
AcDbLine
 10
366.563135127
 20
102.9718296674
 30
0.0
 11
366.5643220209
 21
100.8937137066
 31
0.0
  0
LINE
  5
3DF
330
221
100
AcDbEntity
  8
7_ALL_FEATURES
  6
Continuous
 62
     7
100
AcDbLine
 10
364.2986356606
 20
96.8315021693
 30
0.0
 11
364.233319194
 21
96.7761010407
 31
0.0
  0
LINE
  5
3E0
330
221
100
AcDbEntity
  8
7_ALL_FEATURES
  6
Continuous
 62
     7
100
AcDbLine
 10
363.5508142804
 20
96.201910305
 30
0.0
 11
364.2328410122
 21
96.7756841192
 31
0.0
  0
LINE
  5
3E1
330
221
100
AcDbEntity
  8
7_ALL_FEATURES
  6
Continuous
 62
     7
100
AcDbLine
 10
365.8358440249
 20
171.0710376854
 30
0.0
 11
284.529964283
 21
159.1644384036
 31
0.0
  0
LINE
  5
3E2
330
221
100
AcDbEntity
  8
7_ALL_FEATURES
  6
Continuous
 62
     7
100
AcDbLine
 10
398.7294644707
 20
138.2015329114
 30
0.0
 11
396.7931018684
 21
139.9187689913
 31
0.0
  0
LINE
  5
3E3
330
221
100
AcDbEntity
  8
7_ALL_FEATURES
  6
Continuous
 62
     7
100
AcDbLine
 10
396.7931018684
 20
139.9187689913
 30
0.0
 11
365.8358440249
 21
171.0710376854
 31
0.0
  0
LINE
  5
3E4
330
221
100
AcDbEntity
  8
7_ALL_FEATURES
  6
Continuous
 62
     7
100
AcDbLine
 10
398.7294644707
 20
138.2015329114
 30
0.0
 11
366.7047149774
 21
170.4280177673
 31
0.0
  0
LINE
  5
3E5
330
221
100
AcDbEntity
  8
7_ALL_FEATURES
  6
Continuous
 62
     7
100
AcDbLine
 10
366.7047149774
 20
170.4280177673
 30
0.0
 11
365.8358440249
 21
171.0710376854
 31
0.0
  0
LINE
  5
3E6
330
221
100
AcDbEntity
  8
7_ALL_FEATURES
  6
Continuous
 62
     7
100
AcDbLine
 10
398.729860103
 20
137.5088258146
 30
0.0
 11
398.7294644707
 21
138.2015329114
 31
0.0
  0
CIRCLE
  5
3E7
330
221
100
AcDbEntity
  8
7_ALL_FEATURES
  6
Continuous
 62
     7
100
AcDbCircle
 10
83.46265984493337
 20
86.04450468455832
 30
0.0
 40
31.87500331093333
  0
CIRCLE
  5
3E8
330
221
100
AcDbEntity
  8
7_ALL_FEATURES
  6
Continuous
 62
     7
100
AcDbCircle
 10
83.46265984493337
 20
86.04450468455832
 30
0.0
 40
31.375
  0
CIRCLE
  5
3E9
330
221
100
AcDbEntity
  8
7_ALL_FEATURES
  6
Continuous
 62
     7
100
AcDbCircle
 10
83.46265984493337
 20
86.04450468455832
 30
0.0
 40
31.0
  0
CIRCLE
  5
3EA
330
221
100
AcDbEntity
  8
7_ALL_FEATURES
  6
Continuous
 62
     7
100
AcDbCircle
 10
83.46265984493337
 20
86.04450468455832
 30
0.0
 40
30.50000026533333
  0
CIRCLE
  5
3EB
330
221
100
AcDbEntity
  8
02___PRT_ALL_AXES
  6
Continuous
 62
     7
100
AcDbCircle
 10
125.4626598449334
 20
86.04450468455832
 30
0.0
 40
5.0
  0
CIRCLE
  5
3EC
330
221
100
AcDbEntity
  8
02___PRT_ALL_AXES
  6
Continuous
 62
     7
100
AcDbCircle
 10
41.46265984493336
 20
86.04450468455832
 30
0.0
 40
5.0
  0
CIRCLE
  5
3ED
330
221
100
AcDbEntity
  8
02___PRT_ALL_AXES
  6
Continuous
 62
     7
100
AcDbCircle
 10
41.46265984493336
 20
86.04450468455832
 30
0.0
 40
3.5
  0
CIRCLE
  5
3EE
330
221
100
AcDbEntity
  8
02___PRT_ALL_AXES
  6
Continuous
 62
     7
100
AcDbCircle
 10
125.4626598449334
 20
86.04450468455832
 30
0.0
 40
3.5
  0
ARC
  5
3EF
330
221
100
AcDbEntity
  8
7_ALL_FEATURES
  6
Continuous
 62
     7
100
AcDbCircle
 10
40.94461310200001
 20
276.1373933567
 30
0.0
 40
24.9066501596
100
AcDbArc
 50
309.6469794605999
 51
311.4169524340999
  0
ARC
  5
3F0
330
221
100
AcDbEntity
  8
7_ALL_FEATURES
  6
Continuous
 62
     7
100
AcDbCircle
 10
125.9677777850667
 20
276.1222727639
 30
0.0
 40
24.88675815693333
100
AcDbArc
 50
228.5823401392001
 51
230.353727966
  0
ARC
  5
3F1
330
221
100
AcDbEntity
  8
7_ALL_FEATURES
  6
Continuous
 62
     7
100
AcDbCircle
 10
55.04411973506668
 20
252.7393273807
 30
0.0
 40
11.59181869506667
100
AcDbArc
 50
155.9709487715002
 51
158.6498905904001
  0
ARC
  5
3F2
330
221
100
AcDbEntity
  8
7_ALL_FEATURES
  6
Continuous
 62
     7
100
AcDbCircle
 10
112.208650392
 20
252.8762329016333
 30
0.0
 40
11.23700056746667
100
AcDbArc
 50
21.30780636729995
 51
24.07135427069982
  0
ARC
  5
3F3
330
221
100
AcDbEntity
  8
02___PRT_ALL_AXES
  6
Continuous
 62
     7
100
AcDbCircle
 10
88.3043194416
 20
173.4659699565667
 30
0.0
 40
4.256456385466667
100
AcDbArc
 50
270.0
 51
338.4246501717
  0
ARC
  5
3F4
330
221
100
AcDbEntity
  8
02___PRT_ALL_AXES
  6
Continuous
 62
     7
100
AcDbCircle
 10
78.62100024813336
 20
173.4659699565667
 30
0.0
 40
4.256456385466667
100
AcDbArc
 50
201.5753498283
 51
270.0
  0
ARC
  5
3F5
330
221
100
AcDbEntity
  8
7_ALL_FEATURES
  6
Continuous
 62
     7
100
AcDbCircle
 10
262.0762854590666
 20
276.1351707763
 30
0.0
 40
24.90372622813333
100
AcDbArc
 50
228.5829436519001
 51
230.3531244533999
  0
ARC
  5
3F6
330
221
100
AcDbEntity
  8
7_ALL_FEATURES
  6
Continuous
 62
     7
100
AcDbCircle
 10
177.0554940445333
 20
276.1217197409666
 30
0.0
 40
24.88603062373333
100
AcDbArc
 50
309.6462461390001
 51
311.4176857557999
  0
ARC
  5
3F7
330
221
100
AcDbEntity
  8
7_ALL_FEATURES
  6
Continuous
 62
     7
100
AcDbCircle
 10
191.1473192712
 20
252.7369357678999
 30
0.0
 40
11.59801709413333
100
AcDbArc
 50
155.9716647635001
 51
158.6491745984999
  0
ARC
  5
3F8
330
221
100
AcDbEntity
  8
7_ALL_FEATURES
  6
Continuous
 62
     7
100
AcDbCircle
 10
248.3120623384
 20
252.8787133222999
 30
0.0
 40
11.230572118
100
AcDbArc
 50
21.30701527779993
 51
24.07214536030008
  0
ARC
  5
3F9
330
221
100
AcDbEntity
  8
02___PRT_ALL_AXES
  6
Continuous
 62
     7
100
AcDbCircle
 10
224.4017987213334
 20
173.4659699565666
 30
0.0
 40
4.256456385466667
100
AcDbArc
 50
270.0
 51
338.6298099800997
  0
ARC
  5
3FA
330
221
100
AcDbEntity
  8
02___PRT_ALL_AXES
  6
Continuous
 62
     7
100
AcDbCircle
 10
214.7184795278667
 20
173.4659699565666
 30
0.0
 40
4.256456385466667
100
AcDbArc
 50
201.3701900198996
 51
270.0
  0
ARC
  5
3FB
330
221
100
AcDbEntity
  8
7_ALL_FEATURES
  6
Continuous
 62
     7
100
AcDbCircle
 10
318.1256238707
 20
142.2061786124
 30
0.0
 40
15.239728608
100
AcDbArc
 50
229.9954789245
 51
231.6570160856
  0
ARC
  5
3FC
330
221
100
AcDbEntity
  8
02___PRT_ALL_AXES
  6
Continuous
 62
     9
100
AcDbCircle
 10
340.44672069
 20
101.7667947822
 30
0.0
 40
15.090107474
100
AcDbArc
 50
260.29779285
 51
264.2103816191
  0
ARC
  5
3FD
330
221
100
AcDbEntity
  8
02___PRT_ALL_AXES
  6
Continuous
 62
     7
100
AcDbCircle
 10
338.3229604203
 20
94.6832318278
 30
0.0
 40
10.7215691353
100
AcDbArc
 50
328.9514201307
 51
329.5797563088
  0
ARC
  5
3FE
330
221
100
AcDbEntity
  8
7_ALL_FEATURES
  6
Continuous
 62
     9
100
AcDbCircle
 10
329.5232504573
 20
107.2778137525
 30
0.0
 40
2.9718163495
100
AcDbArc
 50
49.77777623199998
 51
50.69417986180002
  0
ARC
  5
3FF
330
221
100
AcDbEntity
  8
7_ALL_FEATURES
  6
Continuous
 62
     7
100
AcDbCircle
 10
330.6783160519
 20
108.1378863521
 30
0.0
 40
2.7816504345
100
AcDbArc
 50
245.3264230437
 51
247.2888620726
  0
ARC
  5
400
330
221
100
AcDbEntity
  8
7_ALL_FEATURES
  6
Continuous
 62
     7
100
AcDbCircle
 10
330.3752096834
 20
109.0758729109
 30
0.0
 40
1.9021946752
100
AcDbArc
 50
146.8067996884
 51
148.5771216288
  0
ARC
  5
401
330
221
100
AcDbEntity
  8
7_ALL_FEATURES
  6
Continuous
 62
     7
100
AcDbCircle
 10
330.6653366156
 20
107.2715179338
 30
0.0
 40
1.884173546
100
AcDbArc
 50
308.2522019362
 51
310.5367102349
  0
ARC
  5
402
330
221
100
AcDbEntity
  8
7_ALL_FEATURES
  6
Continuous
 62
     9
100
AcDbCircle
 10
329.6928195218
 20
108.4084498524
 30
0.0
 40
1.8696942856
100
AcDbArc
 50
120.1791725342
 51
130.500946506
  0
ARC
  5
403
330
221
100
AcDbEntity
  8
7_ALL_FEATURES
  6
Continuous
 62
     9
100
AcDbCircle
 10
330.6299838904
 20
107.2510665
 30
0.0
 40
1.8166093097
100
AcDbArc
 50
302.4508083971
 51
309.2967709474
  0
ARC
  5
404
330
221
100
AcDbEntity
  8
02___PRT_ALL_AXES
  6
Continuous
 62
     9
100
AcDbCircle
 10
335.4315796629
 20
89.5280934567
 30
0.0
 40
1.6189067453
100
AcDbArc
 50
214.2729710902
 51
214.8753218578
  0
ARC
  5
405
330
221
100
AcDbEntity
  8
02___PRT_ALL_AXES
  6
Continuous
 62
     9
100
AcDbCircle
 10
335.3935464471
 20
89.5023165382
 30
0.0
 40
1.5729615497
100
AcDbArc
 50
212.767682961
 51
214.2772243085
  0
ARC
  5
406
330
221
100
AcDbEntity
  8
7_ALL_FEATURES
  6
Continuous
 62
     7
100
AcDbCircle
 10
338.5495501795
 20
196.2610915261
 30
0.0
 40
73.5530326836
100
AcDbArc
 50
260.2722211213
 51
260.4108816956
  0
ARC
  5
407
330
221
100
AcDbEntity
  8
7_ALL_FEATURES
  6
Continuous
 62
     7
100
AcDbCircle
 10
338.4981575159
 20
194.8499144398
 30
0.0
 40
72.339522328
100
AcDbArc
 50
260.1153031339
 51
260.2722237064
  0
ARC
  5
408
330
221
100
AcDbEntity
  8
7_ALL_FEATURES
  6
Continuous
 62
     7
100
AcDbCircle
 10
340.3825112888
 20
167.4388914835
 30
0.0
 40
62.9621463777
100
AcDbArc
 50
264.36378403
 51
265.2915183587999
  0
ARC
  5
409
330
221
100
AcDbEntity
  8
7_ALL_FEATURES
  6
Continuous
 62
     7
100
AcDbCircle
 10
340.2865201062
 20
170.9669737171
 30
0.0
 40
61.9831621174
100
AcDbArc
 50
264.1484066659
 51
264.3408578877
  0
ARC
  5
40A
330
221
100
AcDbEntity
  8
7_ALL_FEATURES
  6
Continuous
 62
     7
100
AcDbCircle
 10
340.2418629673
 20
168.0101902943
 30
0.0
 40
61.4490347628
100
AcDbArc
 50
262.8621716691
 51
265.5634460843
  0
ARC
  5
40B
330
221
100
AcDbEntity
  8
7_ALL_FEATURES
  6
Continuous
 62
     7
100
AcDbCircle
 10
340.2038432574
 20
170.1728034882
 30
0.0
 40
61.1847009992
100
AcDbArc
 50
263.4324327189
 51
264.1496040976
  0
ARC
  5
40C
330
221
100
AcDbEntity
  8
7_ALL_FEATURES
  6
Continuous
 62
     7
100
AcDbCircle
 10
340.0317761215
 20
164.0090273685
 30
0.0
 40
59.5144187339
100
AcDbArc
 50
261.0207046059
 51
264.3755156491
  0
ARC
  5
40D
330
221
100
AcDbEntity
  8
7_ALL_FEATURES
  6
Continuous
 62
     7
100
AcDbCircle
 10
339.9966236141
 20
170.4821956688
 30
0.0
 40
59.4040187551
100
AcDbArc
 50
262.4109076876
 51
263.2939253905001
  0
ARC
  5
40E
330
221
100
AcDbEntity
  8
7_ALL_FEATURES
  6
Continuous
 62
     7
100
AcDbCircle
 10
339.9552222413
 20
168.0393779049
 30
0.0
 40
59.0368397537
100
AcDbArc
 50
261.7672851197
 51
263.4353241591
  0
ARC
  5
40F
330
221
100
AcDbEntity
  8
7_ALL_FEATURES
  6
Continuous
 62
     7
100
AcDbCircle
 10
332.3571391374
 20
170.0471383131
 30
0.0
 40
46.7659572965
100
AcDbArc
 50
251.7426484719
 51
251.9057424182
  0
ARC
  5
410
330
221
100
AcDbEntity
  8
7_ALL_FEATURES
  6
Continuous
 62
     7
100
AcDbCircle
 10
325.066875001
 20
153.0600548716
 30
0.0
 40
9.5735249458
100
AcDbArc
 50
227.8854256829
 51
229.99723539
  0
ARC
  5
411
330
221
100
AcDbEntity
  8
7_ALL_FEATURES
  6
Continuous
 62
     7
100
AcDbCircle
 10
325.5682125389
 20
145.3564559826
 30
0.0
 40
8.8920745757
100
AcDbArc
 50
130.5268119442
 51
133.0371692541
  0
ARC
  5
412
330
221
100
AcDbEntity
  8
7_ALL_FEATURES
  6
Continuous
 62
     7
100
AcDbCircle
 10
324.4159818445
 20
152.3380101595
 30
0.0
 40
8.6014095447
100
AcDbArc
 50
224.8686436839
 51
227.8762447078
  0
ARC
  5
413
330
221
100
AcDbEntity
  8
7_ALL_FEATURES
  6
Continuous
 62
     7
100
AcDbCircle
 10
324.5700697078
 20
151.8432507701
 30
0.0
 40
8.3211939259
100
AcDbArc
 50
224.8488296487
 51
227.1799400878
  0
ARC
  5
414
330
221
100
AcDbEntity
  8
7_ALL_FEATURES
  6
Continuous
 62
     7
100
AcDbCircle
 10
325.1521504121
 20
145.808805078
 30
0.0
 40
8.2774978489
100
AcDbArc
 50
133.0690891795
 51
133.6242860728
  0
ARC
  5
415
330
221
100
AcDbEntity
  8
7_ALL_FEATURES
  6
Continuous
 62
     7
100
AcDbCircle
 10
323.9462416364
 20
151.2211022756
 30
0.0
 40
7.4401554669
100
AcDbArc
 50
221.1738473589
 51
224.8400744275
  0
ARC
  5
416
330
221
100
AcDbEntity
  8
7_ALL_FEATURES
  6
Continuous
 62
     7
100
AcDbCircle
 10
324.2140237373
 20
150.3244716137
 30
0.0
 40
6.9632177777
100
AcDbArc
 50
220.7199802681
 51
224.2661978965
  0
ARC
  5
417
330
221
100
AcDbEntity
  8
7_ALL_FEATURES
  6
Continuous
 62
     7
100
AcDbCircle
 10
323.6661435592
 20
149.8549767328
 30
0.0
 40
6.241694849
100
AcDbArc
 50
217.8870309856
 51
220.7345133844
  0
ARC
  5
418
330
221
100
AcDbEntity
  8
7_ALL_FEATURES
  6
Continuous
 62
     7
100
AcDbCircle
 10
321.600971848
 20
150.023218466
 30
0.0
 40
4.9438602047
100
AcDbArc
 50
209.1063408705
 51
209.5592406266
  0
ARC
  5
419
330
221
100
AcDbEntity
  8
02___PRT_ALL_AXES
  6
Continuous
 62
     7
100
AcDbCircle
 10
321.5118863182
 20
147.168634923
 30
0.0
 40
4.4278743233
100
AcDbArc
 50
153.806834368
 51
156.2062876889
  0
ARC
  5
41A
330
221
100
AcDbEntity
  8
02___PRT_ALL_AXES
  6
Continuous
 62
     7
100
AcDbCircle
 10
321.3754606278
 20
147.2294844553
 30
0.0
 40
4.2784948929
100
AcDbArc
 50
156.2148223426
 51
157.2002286746
  0
ARC
  5
41B
330
221
100
AcDbEntity
  8
7_ALL_FEATURES
  6
Continuous
 62
     7
100
AcDbCircle
 10
320.8538711323
 20
148.1804692474
 30
0.0
 40
3.4415633965
100
AcDbArc
 50
180.0481574425
 51
187.3291019926
  0
ARC
  5
41C
330
221
100
AcDbEntity
  8
7_ALL_FEATURES
  6
Continuous
 62
     7
100
AcDbCircle
 10
363.0863129326
 20
142.3784970461
 30
0.0
 40
15.4288084647
100
AcDbArc
 50
308.4390594645
 51
310.058649385
  0
ARC
  5
41D
330
221
100
AcDbEntity
  8
7_ALL_FEATURES
  6
Continuous
 62
     7
100
AcDbCircle
 10
356.005640799
 20
128.3860656213
 30
0.0
 40
8.5372314892
100
AcDbArc
 50
310.4748539228
 51
314.059080435
  0
ARC
  5
41E
330
221
100
AcDbEntity
  8
7_ALL_FEATURES
  6
Continuous
 62
     7
100
AcDbCircle
 10
356.0082124088
 20
123.8834694922
 30
0.0
 40
8.5372314893
100
AcDbArc
 50
310.4748539228
 51
314.059080435
  0
ARC
  5
41F
330
221
100
AcDbEntity
  8
7_ALL_FEATURES
  6
Continuous
 62
     7
100
AcDbCircle
 10
362.3013658712
 20
125.3918077227
 30
0.0
 40
4.2591149177
100
AcDbArc
 50
16.6847075218
 51
17.2497555517
  0
ARC
  5
420
330
221
100
AcDbEntity
  8
02___PRT_ALL_AXES
  6
Continuous
 62
     9
100
AcDbCircle
 10
346.4934019924
 20
89.2859580104
 30
0.0
 40
1.0262366662
100
AcDbArc
 50
351.5370300587001
 51
352.5728618822999
  0
ARC
  5
421
330
221
100
AcDbEntity
  8
7_ALL_FEATURES
  6
Continuous
 62
     7
100
AcDbCircle
 10
340.6502814171
 20
171.3515427208
 30
0.0
 40
66.8835956192
100
AcDbArc
 50
265.3380409144
 51
274.5014060292
  0
ARC
  5
422
330
221
100
AcDbEntity
  8
7_ALL_FEATURES
  6
Continuous
 62
     7
100
AcDbCircle
 10
340.8530794876
 20
168.2282373121
 30
0.0
 40
63.7540224897
100
AcDbArc
 50
274.5400102617
 51
274.7750711523
  0
ARC
  5
423
330
221
100
AcDbEntity
  8
7_ALL_FEATURES
  6
Continuous
 62
     7
100
AcDbCircle
 10
355.8047357621
 20
145.4254259599
 30
0.0
 40
8.8234831831
100
AcDbArc
 50
46.99488198620001
 51
50.0397988498
  0
ARC
  5
424
330
221
100
AcDbEntity
  8
7_ALL_FEATURES
  6
Continuous
 62
     7
100
AcDbCircle
 10
356.9860917664
 20
150.4544317411
 30
0.0
 40
7.1281927024
100
AcDbArc
 50
315.7908001318
 51
319.3066710934999
  0
ARC
  5
425
330
221
100
AcDbEntity
  8
02___PRT_ALL_AXES
  6
Continuous
 62
     7
100
AcDbCircle
 10
360.5385786027
 20
147.4469092047
 30
0.0
 40
3.6576087227
100
AcDbArc
 50
11.5410832797
 51
12.3809725238
  0
ARC
  5
426
330
221
100
AcDbEntity
  8
7_ALL_FEATURES
  6
Continuous
 62
     7
100
AcDbCircle
 10
360.4732497018
 20
148.2031081165
 30
0.0
 40
3.4390506019
100
AcDbArc
 50
353.2315778173
 51
0.0159394741
  0
SPLINE
  5
427
330
221
100
AcDbEntity
  8
02___PRT_ALL_AXES
  6
Continuous
 62
     7
100
AcDbSpline
210
0.0
220
0.0
230
1.0
 70
     8
 71
     3
 72
    11
 73
     7
 74
     0
 42
0.000000001
 43
0.0000001
 40
0.0
 40
0.0
 40
0.0
 40
0.0
 40
0.2966417642
 40
0.5690549749
 40
0.8041883655
 40
1.0
 40
1.0
 40
1.0
 40
1.0
 10
92.51272524786665
 20
173.4659699565667
 30
0.0
 10
92.51272524786665
 20
173.3084403528333
 30
0.0
 10
92.50067358386667
 20
173.0060956649667
 30
0.0
 10
92.44880021413334
 20
172.5816885743
 30
0.0
 10
92.37084486893335
 20
172.2158942764333
 30
0.0
 10
92.30077331786666
 20
171.9974433053667
 30
0.0
 10
92.2625372716
 20
171.9007439280333
 30
0.0
  0
SPLINE
  5
428
330
221
100
AcDbEntity
  8
02___PRT_ALL_AXES
  6
Continuous
 62
     7
100
AcDbSpline
210
0.0
220
0.0
230
1.0
 70
     8
 71
     3
 72
     9
 73
     5
 74
     0
 42
0.000000001
 43
0.0000001
 40
0.0
 40
0.0
 40
0.0
 40
0.0
 40
0.5240182247
 40
1.0
 40
1.0
 40
1.0
 40
1.0
 10
92.94317795399999
 20
174.2095135711
 30
0.0
 10
92.87599214440002
 20
174.0797205539
 30
0.0
 10
92.74187633560001
 20
173.8350241623
 30
0.0
 10
92.59070419293334
 20
173.6001123667
 30
0.0
 10
92.51272524786665
 20
173.4926749771
 30
0.0
  0
SPLINE
  5
429
330
221
100
AcDbEntity
  8
02___PRT_ALL_AXES
  6
Continuous
 62
     7
100
AcDbSpline
210
0.0
220
0.0
230
1.0
 70
     8
 71
     3
 72
     9
 73
     5
 74
     0
 42
0.000000001
 43
0.0000001
 40
0.0
 40
0.0
 40
0.0
 40
0.0
 40
0.5240182247
 40
1.0
 40
1.0
 40
1.0
 40
1.0
 10
73.98214173586669
 20
174.2095135711
 30
0.0
 10
74.04932754546667
 20
174.0797205539
 30
0.0
 10
74.18344335426667
 20
173.8350241623
 30
0.0
 10
74.33461549680001
 20
173.6001123667
 30
0.0
 10
74.412594442
 20
173.4926749771
 30
0.0
  0
SPLINE
  5
42A
330
221
100
AcDbEntity
  8
02___PRT_ALL_AXES
  6
Continuous
 62
     7
100
AcDbSpline
210
0.0
220
0.0
230
1.0
 70
     8
 71
     3
 72
    11
 73
     7
 74
     0
 42
0.000000001
 43
0.0000001
 40
0.0
 40
0.0
 40
0.0
 40
0.0
 40
0.2966417642
 40
0.5690549749
 40
0.8041883655
 40
1.0
 40
1.0
 40
1.0
 40
1.0
 10
74.412594442
 20
173.4659699565667
 30
0.0
 10
74.412594442
 20
173.3084403528333
 30
0.0
 10
74.42464610600001
 20
173.0060956649667
 30
0.0
 10
74.47651947573334
 20
172.5816885743
 30
0.0
 10
74.55447482080001
 20
172.2158942764333
 30
0.0
 10
74.62454637186667
 20
171.9974433053667
 30
0.0
 10
74.66278241813333
 20
171.9007439280333
 30
0.0
  0
SPLINE
  5
42B
330
221
100
AcDbEntity
  8
02___PRT_ALL_AXES
  6
Continuous
 62
     7
100
AcDbSpline
210
0.0
220
0.0
230
1.0
 70
     8
 71
     3
 72
     9
 73
     5
 74
     0
 42
0.000000001
 43
0.0000001
 40
0.0
 40
0.0
 40
0.0
 40
0.0
 40
0.2503519107
 40
1.0
 40
1.0
 40
1.0
 40
1.0
 10
76.52243890706669
 20
174.2095135711
 30
0.0
 10
76.65285392333334
 20
174.1420057911
 30
0.0
 10
77.17712295480001
 20
173.8789679260333
 30
0.0
 10
77.71639443040002
 20
173.6449649047
 30
0.0
 10
78.1289102764
 20
173.4926749771
 30
0.0
  0
SPLINE
  5
42C
330
221
100
AcDbEntity
  8
02___PRT_ALL_AXES
  6
Continuous
 62
     7
100
AcDbSpline
210
0.0
220
0.0
230
1.0
 70
     8
 71
     3
 72
    21
 73
    17
 74
     0
 42
0.000000001
 43
0.0000001
 40
0.0
 40
0.0
 40
0.0
 40
0.0
 40
0.0757978139
 40
0.1477199372
 40
0.2143827427
 40
0.2763840284
 40
0.3349392434
 40
0.3911975693
 40
0.5000056115
 40
0.6088138995
 40
0.6650727281
 40
0.7236285732
 40
0.7856285468
 40
0.8522892775
 40
0.9242080782
 40
1.0
 40
1.0
 40
1.0
 40
1.0
 10
87.17897567933335
 20
173.4659699565667
 30
0.0
 10
87.17897567933335
 20
173.2885011060333
 30
0.0
 10
87.22228676613335
 20
172.9410553648333
 30
0.0
 10
87.40450092813333
 20
172.4684721215
 30
0.0
 10
87.67124877373334
 20
172.0771880329667
 30
0.0
 10
87.9911620748
 20
171.7731909523
 30
0.0
 10
88.34248052186669
 20
171.5497036667
 30
0.0
 10
88.828548332
 20
171.3493692440333
 30
0.0
 10
89.47310801720002
 20
171.2511920020333
 30
0.0
 10
90.11766540880001
 20
171.3493923628333
 30
0.0
 10
90.60372914839999
 20
171.5497446781667
 30
0.0
 10
90.95504083266667
 20
171.7732422332333
 30
0.0
 10
91.27493614306667
 20
172.0772489783
 30
0.0
 10
91.54166149413334
 20
172.4685286479
 30
0.0
 10
91.72385476426669
 20
172.9410910343
 30
0.0
 10
91.76715929066668
 20
173.2885149016333
 30
0.0
 10
91.76715929066668
 20
173.4659699565667
 30
0.0
  0
SPLINE
  5
42D
330
221
100
AcDbEntity
  8
02___PRT_ALL_AXES
  6
Continuous
 62
     7
100
AcDbSpline
210
0.0
220
0.0
230
1.0
 70
     8
 71
     3
 72
     9
 73
     5
 74
     0
 42
0.000000001
 43
0.0000001
 40
0.0
 40
0.0
 40
0.0
 40
0.0
 40
0.4759818969
 40
1.0
 40
1.0
 40
1.0
 40
1.0
 10
76.09198620093335
 20
173.4926749771
 30
0.0
 10
76.169965166
 20
173.6001123941666
 30
0.0
 10
76.32113731146669
 20
173.8350241884334
 30
0.0
 10
76.45525311306668
 20
174.0797205840333
 30
0.0
 10
76.52243890706669
 20
174.2095135711
 30
0.0
  0
SPLINE
  5
42E
330
221
100
AcDbEntity
  8
02___PRT_ALL_AXES
  6
Continuous
 62
     7
100
AcDbSpline
210
0.0
220
0.0
230
1.0
 70
     8
 71
     3
 72
     9
 73
     5
 74
     0
 42
0.000000001
 43
0.0000001
 40
0.0
 40
0.0
 40
0.0
 40
0.0
 40
0.2535842523
 40
1.0
 40
1.0
 40
1.0
 40
1.0
 10
86.00295701600001
 20
174.2095135711
 30
0.0
 10
86.09805725013334
 20
174.1422675507
 30
0.0
 10
86.47686413493332
 20
173.8825958467
 30
0.0
 10
86.87286269946668
 20
173.6470478780333
 30
0.0
 10
87.17897567933335
 20
173.4926749771
 30
0.0
  0
SPLINE
  5
42F
330
221
100
AcDbEntity
  8
02___PRT_ALL_AXES
  6
Continuous
 62
     7
100
AcDbSpline
210
0.0
220
0.0
230
1.0
 70
     8
 71
     3
 72
    22
 73
    18
 74
     0
 42
0.000000001
 43
0.0000001
 40
0.0
 40
0.0
 40
0.0
 40
0.0
 40
0.0666700745
 40
0.1222050592
 40
0.1684950687
 40
0.207582743
 40
0.2417963325
 40
0.2738751254
 40
0.3068349149
 40
0.3435677081
 40
0.3865707126
 40
0.4379875692
 40
0.499762231
 40
0.5737022184
 40
0.6613023932
 40
0.7631493848
 40
1.0
 40
1.0
 40
1.0
 40
1.0
 10
74.66278241813333
 20
171.9007439280333
 30
0.0
 10
74.69042932720001
 20
171.8308245943
 30
0.0
 10
74.74733129373334
 20
171.7049117489667
 30
0.0
 10
74.847368706
 20
171.5426309896333
 30
0.0
 10
74.95187199200001
 20
171.4217727076334
 30
0.0
 10
75.06005404333334
 20
171.3392267957666
 30
0.0
 10
75.17164233759999
 20
171.2936449112333
 30
0.0
 10
75.28531572120002
 20
171.2856575592333
 30
0.0
 10
75.39806016533333
 20
171.3155877201667
 30
0.0
 10
75.50771547586666
 20
171.3825773349666
 30
0.0
 10
75.61381096279999
 20
171.4870412599
 30
0.0
 10
75.71587584306667
 20
171.6314831512333
 30
0.0
 10
75.8126311924
 20
171.8196507331
 30
0.0
 10
75.90177901373335
 20
172.0556610139
 30
0.0
 10
75.97985606466668
 20
172.3426732687
 30
0.0
 10
76.06688172
 20
172.8158760304333
 30
0.0
 10
76.09198620093335
 20
173.1988627785666
 30
0.0
 10
76.09198620093335
 20
173.4659699565667
 30
0.0
  0
SPLINE
  5
430
330
221
100
AcDbEntity
  8
02___PRT_ALL_AXES
  6
Continuous
 62
     7
100
AcDbSpline
210
0.0
220
0.0
230
1.0
 70
     8
 71
     3
 72
     9
 73
     5
 74
     0
 42
0.000000001
 43
0.0000001
 40
0.0
 40
0.0
 40
0.0
 40
0.0
 40
0.2464701132
 40
1.0
 40
1.0
 40
1.0
 40
1.0
 10
91.76715929066668
 20
173.4926749771
 30
0.0
 10
91.86824689146667
 20
173.5436534955
 30
0.0
 10
92.27358366933333
 20
173.7600179345667
 30
0.0
 10
92.66056474199999
 20
174.0096758524333
 30
0.0
 10
92.94317795399999
 20
174.2095135711
 30
0.0
  0
SPLINE
  5
431
330
221
100
AcDbEntity
  8
02___PRT_ALL_AXES
  6
Continuous
 62
     7
100
AcDbSpline
210
0.0
220
0.0
230
1.0
 70
     8
 71
     3
 72
     9
 73
     5
 74
     0
 42
0.000000001
 43
0.0000001
 40
0.0
 40
0.0
 40
0.0
 40
0.0
 40
0.2497571678
 40
1.0
 40
1.0
 40
1.0
 40
1.0
 10
84.39648564666666
 20
173.4926749771
 30
0.0
 10
84.53392824133334
 20
173.5434151437667
 30
0.0
 10
85.08043599093335
 20
173.7568475847
 30
0.0
 10
85.61211726186667
 20
174.0072000272333
 30
0.0
 10
86.00295701600001
 20
174.2095135711
 30
0.0
  0
SPLINE
  5
432
330
221
100
AcDbEntity
  8
02___PRT_ALL_AXES
  6
Continuous
 62
     7
100
AcDbSpline
210
0.0
220
0.0
230
1.0
 70
     8
 71
     3
 72
    19
 73
    15
 74
     0
 42
0.000000001
 43
0.0000001
 40
0.0
 40
0.0
 40
0.0
 40
0.0
 40
0.0637445686
 40
0.1271127482
 40
0.1899898845
 40
0.2524574515
 40
0.3763216056
 40
0.4998556008
 40
0.6234243596
 40
0.7473509561
 40
0.8098660446
 40
0.8727998324
 40
0.9362155993
 40
1.0
 40
1.0
 40
1.0
 40
1.0
 10
78.1289102764
 20
173.4659699565667
 30
0.0
 10
78.1289102764
 20
173.2873971811
 30
0.0
 10
78.19164236573334
 20
172.9286514701666
 30
0.0
 10
78.44766700653335
 20
172.4537490928333
 30
0.0
 10
78.81452559306669
 20
172.0661958947
 30
0.0
 10
79.39302351506669
 20
171.6685879537666
 30
0.0
 10
80.2205969124
 20
171.3655385993667
 30
0.0
 10
81.26156304266667
 20
171.2527107115
 30
0.0
 10
82.302773266
 20
171.3650117301667
 30
0.0
 10
83.13086444613336
 20
171.6678287427
 30
0.0
 10
83.70996708026667
 20
172.0653880423
 30
0.0
 10
84.07727822946666
 20
172.4531104293667
 30
0.0
 10
84.33366438253333
 20
172.9282891536333
 30
0.0
 10
84.39648564666666
 20
173.2872855961667
 30
0.0
 10
84.39648564666666
 20
173.4659699565667
 30
0.0
  0
SPLINE
  5
433
330
221
100
AcDbEntity
  8
02___PRT_ALL_AXES
  6
Continuous
 62
     7
100
AcDbSpline
210
0.0
220
0.0
230
1.0
 70
     8
 71
     3
 72
    11
 73
     7
 74
     0
 42
0.000000001
 43
0.0000001
 40
0.0
 40
0.0
 40
0.0
 40
0.0
 40
0.1965153749
 40
0.431970596
 40
0.7041013179
 40
1.0
 40
1.0
 40
1.0
 40
1.0
 10
228.3637987588
 20
171.9103552658999
 30
0.0
 10
228.4014951748
 20
172.0069424221666
 30
0.0
 10
228.4705457421333
 20
172.2247127918999
 30
0.0
 10
228.5473243432
 20
172.5886721025666
 30
0.0
 10
228.5983614252
 20
173.0100081473666
 30
0.0
 10
228.6102045276
 20
173.3098520497666
 30
0.0
 10
228.6102045276
 20
173.4659699565666
 30
0.0
  0
SPLINE
  5
434
330
221
100
AcDbEntity
  8
02___PRT_ALL_AXES
  6
Continuous
 62
     7
100
AcDbSpline
210
0.0
220
0.0
230
1.0
 70
     8
 71
     3
 72
    11
 73
     7
 74
     0
 42
0.000000001
 43
0.0000001
 40
0.0
 40
0.0
 40
0.0
 40
0.0
 40
0.1965153749
 40
0.431970596
 40
0.7041013179
 40
1.0
 40
1.0
 40
1.0
 40
1.0
 10
210.7564794905333
 20
171.9103552658999
 30
0.0
 10
210.7187830744
 20
172.0069424221666
 30
0.0
 10
210.6497325070667
 20
172.2247127918999
 30
0.0
 10
210.572953906
 20
172.5886721025666
 30
0.0
 10
210.521916824
 20
173.0100081473666
 30
0.0
 10
210.5100737217334
 20
173.3098520497666
 30
0.0
 10
210.5100737217334
 20
173.4659699565666
 30
0.0
  0
SPLINE
  5
435
330
221
100
AcDbEntity
  8
02___PRT_ALL_AXES
  6
Continuous
 62
     7
100
AcDbSpline
210
0.0
220
0.0
230
1.0
 70
     8
 71
     3
 72
     9
 73
     5
 74
     0
 42
0.000000001
 43
0.0000001
 40
0.0
 40
0.0
 40
0.0
 40
0.0
 40
0.4759818969
 40
1.0
 40
1.0
 40
1.0
 40
1.0
 10
228.6102045276
 20
173.4926749770999
 30
0.0
 10
228.6881834926667
 20
173.6001123941666
 30
0.0
 10
228.839355638
 20
173.8350241884333
 30
0.0
 10
228.9734714397333
 20
174.0797205840332
 30
0.0
 10
229.0406572336
 20
174.2095135710999
 30
0.0
  0
SPLINE
  5
436
330
221
100
AcDbEntity
  8
02___PRT_ALL_AXES
  6
Continuous
 62
     7
100
AcDbSpline
210
0.0
220
0.0
230
1.0
 70
     8
 71
     3
 72
     9
 73
     5
 74
     0
 42
0.000000001
 43
0.0000001
 40
0.0
 40
0.0
 40
0.0
 40
0.0
 40
0.4759818969
 40
1.0
 40
1.0
 40
1.0
 40
1.0
 10
210.5100737217334
 20
173.4926749770999
 30
0.0
 10
210.4320947566667
 20
173.6001123941666
 30
0.0
 10
210.2809226112
 20
173.8350241884333
 30
0.0
 10
210.1468068096
 20
174.0797205840332
 30
0.0
 10
210.0796210156
 20
174.2095135710999
 30
0.0
  0
SPLINE
  5
437
330
221
100
AcDbEntity
  8
02___PRT_ALL_AXES
  6
Continuous
 62
     7
100
AcDbSpline
210
0.0
220
0.0
230
1.0
 70
     8
 71
     3
 72
     9
 73
     5
 74
     0
 42
0.000000001
 43
0.0000001
 40
0.0
 40
0.0
 40
0.0
 40
0.0
 40
0.5240182247
 40
1.0
 40
1.0
 40
1.0
 40
1.0
 10
226.5003600625334
 20
174.2095135710999
 30
0.0
 10
226.567545872
 20
174.0797205538999
 30
0.0
 10
226.7016616808
 20
173.8350241622999
 30
0.0
 10
226.8528338234667
 20
173.6001123666999
 30
0.0
 10
226.9308127685333
 20
173.4926749770999
 30
0.0
  0
SPLINE
  5
438
330
221
100
AcDbEntity
  8
02___PRT_ALL_AXES
  6
Continuous
 62
     7
100
AcDbSpline
210
0.0
220
0.0
230
1.0
 70
     8
 71
     3
 72
     9
 73
     5
 74
     0
 42
0.000000001
 43
0.0000001
 40
0.0
 40
0.0
 40
0.0
 40
0.0
 40
0.2503519107
 40
1.0
 40
1.0
 40
1.0
 40
1.0
 10
217.0198419534667
 20
174.2095135710999
 30
0.0
 10
217.1502569698667
 20
174.1420057910999
 30
0.0
 10
217.6745260012
 20
173.8789679260333
 30
0.0
 10
218.2137974768
 20
173.6449649046999
 30
0.0
 10
218.6263133228
 20
173.4926749770999
 30
0.0
  0
SPLINE
  5
439
330
221
100
AcDbEntity
  8
02___PRT_ALL_AXES
  6
Continuous
 62
     7
100
AcDbSpline
210
0.0
220
0.0
230
1.0
 70
     8
 71
     3
 72
     9
 73
     5
 74
     0
 42
0.000000001
 43
0.0000001
 40
0.0
 40
0.0
 40
0.0
 40
0.0
 40
0.2497571678
 40
1.0
 40
1.0
 40
1.0
 40
1.0
 10
224.8938886932
 20
173.4926749770999
 30
0.0
 10
225.0313312877334
 20
173.5434151437666
 30
0.0
 10
225.5778390374667
 20
173.7568475846999
 30
0.0
 10
226.1095203084
 20
174.0072000272332
 30
0.0
 10
226.5003600625334
 20
174.2095135710999
 30
0.0
  0
SPLINE
  5
43A
330
221
100
AcDbEntity
  8
02___PRT_ALL_AXES
  6
Continuous
 62
     7
100
AcDbSpline
210
0.0
220
0.0
230
1.0
 70
     8
 71
     3
 72
    20
 73
    16
 74
     0
 42
0.000000001
 43
0.0000001
 40
0.0
 40
0.0
 40
0.0
 40
0.0
 40
0.0320135405
 40
0.0639703746
 40
0.1273407445
 40
0.1902217611
 40
0.2526934217
 40
0.3765655995
 40
0.5001025754
 40
0.6236356537
 40
0.7475089911
 40
0.8099832605
 40
0.8728683607
 40
0.9362454255
 40
1.0
 40
1.0
 40
1.0
 40
1.0
 10
218.6263133228
 20
173.4659699565666
 30
0.0
 10
218.6263133228
 20
173.3762677109666
 30
0.0
 10
218.6418300836
 20
173.1966332854999
 30
0.0
 10
218.7319439542667
 20
172.8499568334999
 30
0.0
 10
218.9452232257334
 20
172.4532111292333
 30
0.0
 10
219.3122481844
 20
172.0659909277666
 30
0.0
 10
219.8909873744
 20
171.6682515440333
 30
0.0
 10
220.7188464088
 20
171.3653408780333
 30
0.0
 10
221.7600074653333
 20
171.2526959692333
 30
0.0
 10
222.8011750170667
 20
171.3652861698999
 30
0.0
 10
223.6290488442667
 20
171.6682118094999
 30
0.0
 10
224.207829316
 20
172.0658062837666
 30
0.0
 10
224.5749056386667
 20
172.4534121144332
 30
0.0
 10
224.831106736
 20
172.9284480057666
 30
0.0
 10
224.8938886932
 20
173.2873290313666
 30
0.0
 10
224.8938886932
 20
173.4659699565666
 30
0.0
  0
SPLINE
  5
43B
330
221
100
AcDbEntity
  8
02___PRT_ALL_AXES
  6
Continuous
 62
     7
100
AcDbSpline
210
0.0
220
0.0
230
1.0
 70
     8
 71
     3
 72
     9
 73
     5
 74
     0
 42
0.000000001
 43
0.0000001
 40
0.0
 40
0.0
 40
0.0
 40
0.0
 40
0.2535842523
 40
1.0
 40
1.0
 40
1.0
 40
1.0
 10
210.0796210156
 20
174.2095135710999
 30
0.0
 10
210.1747212496
 20
174.1422675506999
 30
0.0
 10
210.5535281345333
 20
173.8825958466999
 30
0.0
 10
210.9495266989333
 20
173.6470478780332
 30
0.0
 10
211.2556396788
 20
173.4926749770999
 30
0.0
  0
SPLINE
  5
43C
330
221
100
AcDbEntity
  8
02___PRT_ALL_AXES
  6
Continuous
 62
     7
100
AcDbSpline
210
0.0
220
0.0
230
1.0
 70
     8
 71
     3
 72
     9
 73
     5
 74
     0
 42
0.000000001
 43
0.0000001
 40
0.0
 40
0.0
 40
0.0
 40
0.0
 40
0.2464701132
 40
1.0
 40
1.0
 40
1.0
 40
1.0
 10
215.8438232902667
 20
173.4926749770999
 30
0.0
 10
215.9449108910667
 20
173.5436534954999
 30
0.0
 10
216.3502476689333
 20
173.7600179345666
 30
0.0
 10
216.7372287414667
 20
174.0096758524332
 30
0.0
 10
217.0198419534667
 20
174.2095135710999
 30
0.0
  0
SPLINE
  5
43D
330
221
100
AcDbEntity
  8
02___PRT_ALL_AXES
  6
Continuous
 62
     7
100
AcDbSpline
210
0.0
220
0.0
230
1.0
 70
     8
 71
     3
 72
    21
 73
    17
 74
     0
 42
0.000000001
 43
0.0000001
 40
0.0
 40
0.0
 40
0.0
 40
0.0
 40
0.0757978139
 40
0.1477199372
 40
0.2143827427
 40
0.2763840284
 40
0.3349392434
 40
0.3911975693
 40
0.5000056115
 40
0.6088138995
 40
0.6650727281
 40
0.7236285732
 40
0.7856285468
 40
0.8522892775
 40
0.9242080782
 40
1.0
 40
1.0
 40
1.0
 40
1.0
 10
211.2556396788
 20
173.4659699565666
 30
0.0
 10
211.2556396788
 20
173.2885011060333
 30
0.0
 10
211.2989507657333
 20
172.9410553648332
 30
0.0
 10
211.4811649277333
 20
172.4684721214999
 30
0.0
 10
211.7479127732
 20
172.0771880329666
 30
0.0
 10
212.0678260744
 20
171.7731909522999
 30
0.0
 10
212.4191445214667
 20
171.5497036666999
 30
0.0
 10
212.9052123316
 20
171.3493692440333
 30
0.0
 10
213.5497720168
 20
171.2511920020332
 30
0.0
 10
214.1943294082667
 20
171.3493923628333
 30
0.0
 10
214.680393148
 20
171.5497446781666
 30
0.0
 10
215.0317048321334
 20
171.7732422332332
 30
0.0
 10
215.3516001425333
 20
172.0772489782999
 30
0.0
 10
215.6183254937334
 20
172.4685286478999
 30
0.0
 10
215.8005187637334
 20
172.9410910342999
 30
0.0
 10
215.8438232902667
 20
173.2885149016333
 30
0.0
 10
215.8438232902667
 20
173.4659699565666
 30
0.0
  0
SPLINE
  5
43E
330
221
100
AcDbEntity
  8
02___PRT_ALL_AXES
  6
Continuous
 62
     7
100
AcDbSpline
210
0.0
220
0.0
230
1.0
 70
     8
 71
     3
 72
    22
 73
    18
 74
     0
 42
0.000000001
 43
0.0000001
 40
0.0
 40
0.0
 40
0.0
 40
0.0
 40
0.2366441222
 40
0.3383397042
 40
0.4257643556
 40
0.4995186534
 40
0.5611073128
 40
0.6123474549
 40
0.6551931783
 40
0.691801998
 40
0.7246917625
 40
0.7567756055
 40
0.7910814255
 40
0.8303520388
 40
0.8769240975
 40
0.9328352486
 40
1.0
 40
1.0
 40
1.0
 40
1.0
 10
226.9308127685333
 20
173.4659699565666
 30
0.0
 10
226.9308127685333
 20
173.1982823050999
 30
0.0
 10
226.9560165158667
 20
172.8145280769666
 30
0.0
 10
227.0434120944
 20
172.3405140413666
 30
0.0
 10
227.1217802348
 20
172.0532405229666
 30
0.0
 10
227.2112364178667
 20
171.8171838448332
 30
0.0
 10
227.3083068146667
 20
171.6291465798999
 30
0.0
 10
227.4106905517334
 20
171.4849834486999
 30
0.0
 10
227.5171190237333
 20
171.3809349632332
 30
0.0
 10
227.6271362028
 20
171.3145211042999
 30
0.0
 10
227.7402459424
 20
171.2853601296333
 30
0.0
 10
227.8542345184
 20
171.2943487789666
 30
0.0
 10
227.9660535014667
 20
171.3411451613666
 30
0.0
 10
228.0744759356
 20
171.4250821841666
 30
0.0
 10
228.1791202302667
 20
171.5477140761666
 30
0.0
 10
228.279293162
 20
171.7121147377666
 30
0.0
 10
228.336175948
 20
171.8395790752332
 30
0.0
 10
228.3637987588
 20
171.9103552658999
 30
0.0
  0
SPLINE
  5
43F
330
221
100
AcDbEntity
  8
7_ALL_FEATURES
  6
Continuous
 62
     7
100
AcDbSpline
 70
     0
 71
     3
 72
     9
 73
     5
 74
     0
 42
0.000000001
 43
0.0000001
 40
0.0
 40
0.0
 40
0.0
 40
0.0
 40
0.5065884535
 40
1.0
 40
1.0
 40
1.0
 40
1.0
 10
330.1724911266
 20
105.4053879848
 30
0.0
 10
330.3045066518
 20
105.3827560933
 30
0.0
 10
330.5692589445
 20
105.3591808855
 30
0.0
 10
330.8342992939
 20
105.3819796536
 30
0.0
 10
330.9626793938
 20
105.4051679375
 30
0.0
  0
SPLINE
  5
440
330
221
100
AcDbEntity
  8
7_ALL_FEATURES
  6
Continuous
 62
     7
100
AcDbSpline
 70
     0
 71
     3
 72
     9
 73
     5
 74
     0
 42
0.000000001
 43
0.0000001
 40
0.0
 40
0.0
 40
0.0
 40
0.0
 40
0.5044958774
 40
1.0
 40
1.0
 40
1.0
 40
1.0
 10
330.9626793938
 20
105.4051679375
 30
0.0
 10
331.121306497
 20
105.4338194989
 30
0.0
 10
331.4304636146
 20
105.5272538503
 30
0.0
 10
331.7075466429
 20
105.6938677878
 30
0.0
 10
331.8318739219
 20
105.7918893776
 30
0.0
  0
SPLINE
  5
441
330
221
100
AcDbEntity
  8
7_ALL_FEATURES
  6
Continuous
 62
     7
100
AcDbSpline
 70
     0
 71
     3
 72
    18
 73
    14
 74
     0
 42
0.000000001
 43
0.0000001
 40
0.0
 40
0.0
 40
0.0
 40
0.0
 40
0.0566362217
 40
0.1136218875
 40
0.1712665776
 40
0.2298415882
 40
0.2895399715
 40
0.350475983
 40
0.4758496092
 40
0.6054857258
 40
0.7376161859
 40
0.8699099576
 40
1.0
 40
1.0
 40
1.0
 40
1.0
 10
328.4777100708
 20
109.8294619951
 30
0.0
 10
328.4045050726
 20
109.7668560243
 30
0.0
 10
328.2670783163
 20
109.6297291422
 30
0.0
 10
328.0939446121
 20
109.3941669573
 30
0.0
 10
327.9563121803
 20
109.1324871473
 30
0.0
 10
327.856452626
 20
108.8493848908
 30
0.0
 10
327.7958823525
 20
108.5496727381
 30
0.0
 10
327.7682893069
 20
108.1311340212
 30
0.0
 10
327.8374153945
 20
107.5922224359
 30
0.0
 10
328.0730726441
 20
106.9715225595
 30
0.0
 10
328.4458802034
 20
106.4080137723
 30
0.0
 10
328.931404091
 20
105.9376431377
 30
0.0
 10
329.3160656226
 20
105.7025521072
 30
0.0
 10
329.5171214926
 20
105.6101984095
 30
0.0
  0
SPLINE
  5
442
330
221
100
AcDbEntity
  8
7_ALL_FEATURES
  6
Continuous
 62
     7
100
AcDbSpline
 70
     0
 71
     3
 72
     9
 73
     5
 74
     0
 42
0.000000001
 43
0.0000001
 40
0.0
 40
0.0
 40
0.0
 40
0.0
 40
0.2534648133
 40
1.0
 40
1.0
 40
1.0
 40
1.0
 10
329.6043615135
 20
105.5719165961
 30
0.0
 10
329.6505587592
 20
105.5525835398
 30
0.0
 10
329.8348453275
 20
105.4812696697
 30
0.0
 10
330.0271118832
 20
105.4303108662
 30
0.0
 10
330.1724911266
 20
105.4053879848
 30
0.0
  0
SPLINE
  5
443
330
221
100
AcDbEntity
  8
7_ALL_FEATURES
  6
Continuous
 62
     9
100
AcDbSpline
 70
     0
 71
     3
 72
    11
 73
     7
 74
     0
 42
0.000000001
 43
0.0000001
 40
0.0
 40
0.0
 40
0.0
 40
0.0
 40
0.2447879867
 40
0.4924349963
 40
0.7439257861
 40
1.0
 40
1.0
 40
1.0
 40
1.0
 10
328.7529134673
 20
110.0247212808
 30
0.0
 10
328.8274342119
 20
110.0680924089
 30
0.0
 10
328.9835277001
 20
110.1451537034
 30
0.0
 10
329.2325864092
 20
110.2289289601
 30
0.0
 10
329.4942888264
 20
110.2804202811
 30
0.0
 10
329.673184707
 20
110.2926689826
 30
0.0
 10
329.7633798315
 20
110.2934318758
 30
0.0
  0
SPLINE
  5
444
330
221
100
AcDbEntity
  8
7_ALL_FEATURES
  6
Continuous
 62
     9
100
AcDbSpline
 70
     0
 71
     3
 72
     9
 73
     5
 74
     0
 42
0.000000001
 43
0.0000001
 40
0.0
 40
0.0
 40
0.0
 40
0.0
 40
0.246783556
 40
1.0
 40
1.0
 40
1.0
 40
1.0
 10
330.1544725194
 20
105.4530619912
 30
0.0
 10
330.1106061743
 20
105.4605821549
 30
0.0
 10
329.9337233623
 20
105.495984887
 30
0.0
 10
329.7608176774
 20
105.5508132707
 30
0.0
 10
329.6348374348
 20
105.6016192473
 30
0.0
  0
SPLINE
  5
445
330
221
100
AcDbEntity
  8
7_ALL_FEATURES
  6
Continuous
 62
     9
100
AcDbSpline
 70
     0
 71
     3
 72
    19
 73
    15
 74
     0
 42
0.000000001
 43
0.0000001
 40
0.0
 40
0.0
 40
0.0
 40
0.0
 40
0.1306919791
 40
0.2642458046
 40
0.397594911
 40
0.527736659
 40
0.5910293726
 40
0.6528385125
 40
0.7131476518
 40
0.7720662321
 40
0.8298289065
 40
0.886781099
 40
0.9433498015
 40
1.0
 40
1.0
 40
1.0
 40
1.0
 10
329.6348374348
 20
105.6016192473
 30
0.0
 10
329.4149596111
 20
105.6902927355
 30
0.0
 10
328.9927019588
 20
105.9297580788
 30
0.0
 10
328.4653957191
 20
106.4315584061
 30
0.0
 10
328.0720424434
 20
107.0431407584
 30
0.0
 10
327.880356423
 20
107.6115998822
 30
0.0
 10
327.8223774093
 20
108.0722344697
 30
0.0
 10
327.8269179052
 20
108.4097220337
 30
0.0
 10
327.8792194368
 20
108.7351774475
 30
0.0
 10
327.9783523805
 20
109.0419523863
 30
0.0
 10
328.1224262834
 20
109.3236264291
 30
0.0
 10
328.3085901051
 20
109.5742563698
 30
0.0
 10
328.5328953723
 20
109.7884296774
 30
0.0
 10
328.7043527984
 20
109.9036088641
 30
0.0
 10
328.7941594995
 20
109.9535682868
 30
0.0
  0
SPLINE
  5
446
330
221
100
AcDbEntity
  8
7_ALL_FEATURES
  6
Continuous
 62
     9
100
AcDbSpline
 70
     0
 71
     3
 72
    11
 73
     7
 74
     0
 42
0.000000001
 43
0.0000001
 40
0.0
 40
0.0
 40
0.0
 40
0.0
 40
0.2420240254
 40
0.4884951523
 40
0.7408817558
 40
1.0
 40
1.0
 40
1.0
 40
1.0
 10
328.7941594995
 20
109.9535682868
 30
0.0
 10
328.8927766887
 20
110.0084289797
 30
0.0
 10
329.1025099525
 20
110.1009732346
 30
0.0
 10
329.439910225
 20
110.1825973231
 30
0.0
 10
329.794113588
 20
110.2064677136
 30
0.0
 10
330.0326991819
 20
110.1838850785
 30
0.0
 10
330.1517822198
 20
110.1634702493
 30
0.0
  0
SPLINE
  5
447
330
221
100
AcDbEntity
  8
7_ALL_FEATURES
  6
Continuous
 62
     9
100
AcDbSpline
 70
     0
 71
     3
 72
    17
 73
    13
 74
     0
 42
0.000000001
 43
0.0000001
 40
0.0
 40
0.0
 40
0.0
 40
0.0
 40
0.1341015256
 40
0.2679028639
 40
0.3996122672
 40
0.5277673821
 40
0.651489049
 40
0.7706872805
 40
0.828917447
 40
0.8863909764
 40
0.9433328302
 40
1.0
 40
1.0
 40
1.0
 40
1.0
 10
331.5267818789
 20
109.6108094229
 30
0.0
 10
331.671970987
 20
109.4863191844
 30
0.0
 10
331.9394337925
 20
109.2098782488
 30
0.0
 10
332.2558495845
 20
108.732143087
 30
0.0
 10
332.4747863734
 20
108.2114076039
 30
0.0
 10
332.5854140245
 20
107.6718262416
 30
0.0
 10
332.5819950975
 20
107.1385785294
 30
0.0
 10
332.4820610929
 20
106.7163969613
 30
0.0
 10
332.3464357519
 20
106.4092625888
 30
0.0
 10
332.219367369
 20
106.1975596801
 30
0.0
 10
332.0677534691
 20
106.0055741995
 30
0.0
 10
331.9513460942
 20
105.892093549
 30
0.0
 10
331.8899254408
 20
105.8395674722
 30
0.0
  0
SPLINE
  5
448
330
221
100
AcDbEntity
  8
7_ALL_FEATURES
  6
Continuous
 62
     9
100
AcDbSpline
 70
     0
 71
     3
 72
     9
 73
     5
 74
     0
 42
0.000000001
 43
0.0000001
 40
0.0
 40
0.0
 40
0.0
 40
0.0
 40
0.4908135338
 40
1.0
 40
1.0
 40
1.0
 40
1.0
 10
330.1517822198
 20
110.1634702493
 30
0.0
 10
330.3768436316
 20
110.1248871701
 30
0.0
 10
330.82570204
 20
109.9802400229
 30
0.0
 10
331.2224731478
 20
109.7273942199
 30
0.0
 10
331.4057756862
 20
109.5773335235
 30
0.0
  0
SPLINE
  5
449
330
221
100
AcDbEntity
  8
7_ALL_FEATURES
  6
Continuous
 62
     9
100
AcDbSpline
 70
     0
 71
     3
 72
    17
 73
    13
 74
     0
 42
0.000000001
 43
0.0000001
 40
0.0
 40
0.0
 40
0.0
 40
0.0
 40
0.1341692129
 40
0.2680744474
 40
0.3998666918
 40
0.5280397326
 40
0.6516993738
 40
0.7707806003
 40
0.828954978
 40
0.8863865497
 40
0.9433121396
 40
1.0
 40
1.0
 40
1.0
 40
1.0
 10
331.4423124514
 20
109.546931087
 30
0.0
 10
331.5862586677
 20
109.4251927453
 30
0.0
 10
331.8514347451
 20
109.1540080038
 30
0.0
 10
332.1646510736
 20
108.683772343
 30
0.0
 10
332.3804500736
 20
108.170346353
 30
0.0
 10
332.4878304073
 20
107.6382325288
 30
0.0
 10
332.4810285184
 20
107.1129846717
 30
0.0
 10
332.3782017308
 20
106.6982785975
 30
0.0
 10
332.2404652755
 20
106.3978352084
 30
0.0
 10
332.1119693862
 20
106.1914403823
 30
0.0
 10
331.9591385011
 20
106.0051130369
 30
0.0
 10
331.8421479755
 20
105.8956877006
 30
0.0
 10
331.7805102528
 20
105.8452363276
 30
0.0
  0
SPLINE
  5
44A
330
221
100
AcDbEntity
  8
7_ALL_FEATURES
  6
Continuous
 62
     9
100
AcDbSpline
 70
     0
 71
     3
 72
    11
 73
     7
 74
     0
 42
0.000000001
 43
0.0000001
 40
0.0
 40
0.0
 40
0.0
 40
0.0
 40
0.2418366885
 40
0.4880136444
 40
0.7403847743
 40
1.0
 40
1.0
 40
1.0
 40
1.0
 10
331.6047315977
 20
105.7181163079
 30
0.0
 10
331.5022767042
 20
105.652960598
 30
0.0
 10
331.281762662
 20
105.5419308497
 30
0.0
 10
330.9216504131
 20
105.4414408099
 30
0.0
 10
330.5404345477
 20
105.4082062816
 30
0.0
 10
330.2829421034
 20
105.431037993
 30
0.0
 10
330.1544725194
 20
105.4530619912
 30
0.0
  0
SPLINE
  5
44B
330
221
100
AcDbEntity
  8
02___PRT_ALL_AXES
  6
Continuous
 62
     7
100
AcDbSpline
 70
     0
 71
     3
 72
     9
 73
     5
 74
     0
 42
0.000000001
 43
0.0000001
 40
0.0
 40
0.0
 40
0.0
 40
0.0
 40
0.2553406422
 40
1.0
 40
1.0
 40
1.0
 40
1.0
 10
333.3727037764
 20
89.5047139268
 30
0.0
 10
333.4317054437
 20
89.4269391199
 30
0.0
 10
333.6654688908
 20
89.1244310349
 30
0.0
 10
333.9111695641
 20
88.8308973869
 30
0.0
 10
334.1034208667
 20
88.6209133674
 30
0.0
  0
SPLINE
  5
44C
330
221
100
AcDbEntity
  8
02___PRT_ALL_AXES
  6
Continuous
 62
     7
100
AcDbSpline
 70
     0
 71
     3
 72
    14
 73
    10
 74
     0
 42
0.000000001
 43
0.0000001
 40
0.0
 40
0.0
 40
0.0
 40
0.0
 40
0.1285251458
 40
0.2557231267
 40
0.3807291684
 40
0.5032729858
 40
0.7457376342
 40
0.8707663008
 40
1.0
 40
1.0
 40
1.0
 40
1.0
 10
333.898584232
 20
88.8373788837
 30
0.0
 10
333.9324003408
 20
88.5536702578
 30
0.0
 10
334.0654089424
 20
87.9949074785
 30
0.0
 10
334.442831397
 20
87.2301449858
 30
0.0
 10
334.9633606399
 20
86.5722871669
 30
0.0
 10
335.7923415661
 20
85.8574299328
 30
0.0
 10
336.7790120373
 20
85.3588498709
 30
0.0
 10
337.8335707546
 20
85.0298779378
 30
0.0
 10
338.3874178753
 20
84.9118414845
 30
0.0
 10
338.6705790149
 20
84.8632981621
 30
0.0
  0
SPLINE
  5
44D
330
221
100
AcDbEntity
  8
02___PRT_ALL_AXES
  6
Continuous
 62
     7
100
AcDbSpline
 70
     0
 71
     3
 72
     9
 73
     5
 74
     0
 42
0.000000001
 43
0.0000001
 40
0.0
 40
0.0
 40
0.0
 40
0.0
 40
0.4784021037
 40
1.0
 40
1.0
 40
1.0
 40
1.0
 10
347.1688123922
 20
87.6990545534
 30
0.0
 10
347.2265677065
 20
87.8239317202
 30
0.0
 10
347.3329754272
 20
88.0917529295
 30
0.0
 10
347.409377236
 20
88.3698201658
 30
0.0
 10
347.4401200567
 20
88.5166453538
 30
0.0
  0
SPLINE
  5
44E
330
221
100
AcDbEntity
  8
02___PRT_ALL_AXES
  6
Continuous
 62
     7
100
AcDbSpline
 70
     0
 71
     3
 72
    17
 73
    13
 74
     0
 42
0.000000001
 43
0.0000001
 40
0.0
 40
0.0
 40
0.0
 40
0.0
 40
0.1301020872
 40
0.2627211708
 40
0.3938077732
 40
0.5200140509
 40
0.6406101046
 40
0.758296161
 40
0.8175288379
 40
0.8775158594
 40
0.9383704079
 40
1.0
 40
1.0
 40
1.0
 40
1.0
 10
338.6705790149
 20
84.8632981621
 30
0.0
 10
339.0788794061
 20
84.7933017722
 30
0.0
 10
339.9119977032
 20
84.6992186477
 30
0.0
 10
341.167725911
 20
84.6843427167
 30
0.0
 10
342.4066795347
 20
84.7928829843
 30
0.0
 10
343.5896802262
 20
85.0273028865
 30
0.0
 10
344.6931015585
 20
85.3990034667
 30
0.0
 10
345.5334272026
 20
85.8504659911
 30
0.0
 10
346.1318605986
 20
86.312281097
 30
0.0
 10
346.540490701
 20
86.7168536848
 30
0.0
 10
346.8954834404
 20
87.1790817123
 30
0.0
 10
347.0865021129
 20
87.5210913764
 30
0.0
 10
347.1688718278
 20
87.6992011426
 30
0.0
  0
SPLINE
  5
44F
330
221
100
AcDbEntity
  8
02___PRT_ALL_AXES
  6
Continuous
 62
     7
100
AcDbSpline
 70
     0
 71
     3
 72
     9
 73
     5
 74
     0
 42
0.000000001
 43
0.0000001
 40
0.0
 40
0.0
 40
0.0
 40
0.0
 40
0.2430257638
 40
1.0
 40
1.0
 40
1.0
 40
1.0
 10
347.5685428536
 20
89.2544888617
 30
0.0
 10
347.607352628
 20
89.3205741394
 30
0.0
 10
347.7642376541
 20
89.5941509874
 30
0.0
 10
347.9112095051
 20
89.873331076
 30
0.0
 10
348.0186089452
 20
90.0865192729
 30
0.0
  0
SPLINE
  5
450
330
221
100
AcDbEntity
  8
02___PRT_ALL_AXES
  6
Continuous
 62
     7
100
AcDbSpline
 70
     0
 71
     3
 72
     9
 73
     5
 74
     0
 42
0.000000001
 43
0.0000001
 40
0.0
 40
0.0
 40
0.0
 40
0.0
 40
0.2523194177
 40
1.0
 40
1.0
 40
1.0
 40
1.0
 10
336.9531740666
 20
87.1101086494
 30
0.0
 10
337.0153119481
 20
87.1121152525
 30
0.0
 10
337.2613178822
 20
87.1279657451
 30
0.0
 10
337.5049656627
 20
87.1733057908
 30
0.0
 10
337.6833239479
 20
87.2194264525
 30
0.0
  0
SPLINE
  5
451
330
221
100
AcDbEntity
  8
02___PRT_ALL_AXES
  6
Continuous
 62
     9
100
AcDbSpline
 70
     0
 71
     3
 72
     9
 73
     5
 74
     0
 42
0.000000001
 43
0.0000001
 40
0.0
 40
0.0
 40
0.0
 40
0.0
 40
0.2565171183
 40
1.0
 40
1.0
 40
1.0
 40
1.0
 10
337.9036248549
 20
86.8925214503
 30
0.0
 10
337.8217760215
 20
86.9065530873
 30
0.0
 10
337.5031930818
 20
86.964071126
 30
0.0
 10
337.1866339305
 20
87.0330196615
 30
0.0
 10
336.953184632
 20
87.0916098922
 30
0.0
  0
SPLINE
  5
452
330
221
100
AcDbEntity
  8
02___PRT_ALL_AXES
  6
Continuous
 62
     7
100
AcDbSpline
 70
     0
 71
     3
 72
     9
 73
     5
 74
     0
 42
0.000000001
 43
0.0000001
 40
0.0
 40
0.0
 40
0.0
 40
0.0
 40
0.498217686
 40
1.0
 40
1.0
 40
1.0
 40
1.0
 10
345.0062765323
 20
87.5103291256
 30
0.0
 10
345.0889213405
 20
87.4877572937
 30
0.0
 10
345.2580043023
 20
87.4531206695
 30
0.0
 10
345.4308235353
 20
87.445965625
 30
0.0
 10
345.5169990939
 20
87.450304706
 30
0.0
  0
SPLINE
  5
453
330
221
100
AcDbEntity
  8
02___PRT_ALL_AXES
  6
Continuous
 62
     7
100
AcDbSpline
 70
     0
 71
     3
 72
    20
 73
    16
 74
     0
 42
0.000000001
 43
0.0000001
 40
0.0
 40
0.0
 40
0.0
 40
0.0
 40
0.0806586575
 40
0.1639445507
 40
0.3207081707
 40
0.4576476759
 40
0.5762820958
 40
0.6297409987
 40
0.6796975898
 40
0.7267246198
 40
0.7719920416
 40
0.8178765881
 40
0.8683933233
 40
0.9282893118
 40
1.0
 40
1.0
 40
1.0
 40
1.0
 10
334.1034314321
 20
88.6024146101
 30
0.0
 10
334.1035056475
 20
88.4724718109
 30
0.0
 10
334.1342903762
 20
88.2079741238
 30
0.0
 10
334.2824701068
 20
87.7112688146
 30
0.0
 10
334.5771815493
 20
87.1716064016
 30
0.0
 10
335.0224405102
 20
86.6725033992
 30
0.0
 10
335.4306840899
 20
86.3785696562
 30
0.0
 10
335.7575472808
 20
86.2305852772
 30
0.0
 10
335.992176784
 20
86.16531583
 30
0.0
 10
336.2223668962
 20
86.1468609907
 30
0.0
 10
336.4447424554
 20
86.1844704746
 30
0.0
 10
336.6507178541
 20
86.2928789205
 30
0.0
 10
336.8209669115
 20
86.4857799782
 30
0.0
 10
336.9315881248
 20
86.762626614
 30
0.0
 10
336.9532506142
 20
86.9760824603
 30
0.0
 10
336.953184632
 20
87.0916098922
 30
0.0
  0
SPLINE
  5
454
330
221
100
AcDbEntity
  8
02___PRT_ALL_AXES
  6
Continuous
 62
     7
100
AcDbSpline
 70
     0
 71
     3
 72
    20
 73
    16
 74
     0
 42
0.000000001
 43
0.0000001
 40
0.0
 40
0.0
 40
0.0
 40
0.0
 40
0.0942345126
 40
0.1742113812
 40
0.2393950792
 40
0.2922851611
 40
0.3370777731
 40
0.3783334336
 40
0.4198372797
 40
0.4640468903
 40
0.5122991883
 40
0.5652732446
 40
0.6866458922
 40
0.8307043429
 40
1.0
 40
1.0
 40
1.0
 40
1.0
 10
345.5170096593
 20
87.4318059487
 30
0.0
 10
345.5170603193
 20
87.343106019
 30
0.0
 10
345.5261726704
 20
87.1788442511
 30
0.0
 10
345.5711303815
 20
86.9570527177
 30
0.0
 10
345.6417954769
 20
86.7830487735
 30
0.0
 10
345.7331382343
 20
86.6575244843
 30
0.0
 10
345.8404035871
 20
86.5786367919
 30
0.0
 10
345.9574084273
 20
86.543217706
 30
0.0
 10
346.0784380026
 20
86.5450867139
 30
0.0
 10
346.2011953394
 20
86.577782558
 30
0.0
 10
346.3252026771
 20
86.6371794004
 30
0.0
 10
346.4995882226
 20
86.7543190505
 30
0.0
 10
346.716472041
 20
86.9643317369
 30
0.0
 10
346.9608588101
 20
87.294068492
 30
0.0
 10
347.10192011
 20
87.5544216519
 30
0.0
 10
347.1688123922
 20
87.6990545534
 30
0.0
  0
SPLINE
  5
455
330
221
100
AcDbEntity
  8
02___PRT_ALL_AXES
  6
Continuous
 62
     7
100
AcDbSpline
 70
     0
 71
     3
 72
     9
 73
     5
 74
     0
 42
0.000000001
 43
0.0000001
 40
0.0
 40
0.0
 40
0.0
 40
0.0
 40
0.2491823708
 40
1.0
 40
1.0
 40
1.0
 40
1.0
 10
337.6833239479
 20
87.2194264525
 30
0.0
 10
337.7842279482
 20
87.1766047703
 30
0.0
 10
338.1912183083
 20
87.0097051191
 30
0.0
 10
338.6073777491
 20
86.8645309119
 30
0.0
 10
338.9244799953
 20
86.7721606548
 30
0.0
  0
SPLINE
  5
456
330
221
100
AcDbEntity
  8
02___PRT_ALL_AXES
  6
Continuous
 62
     7
100
AcDbSpline
 70
     0
 71
     3
 72
     9
 73
     5
 74
     0
 42
0.000000001
 43
0.0000001
 40
0.0
 40
0.0
 40
0.0
 40
0.0
 40
0.2503223248
 40
1.0
 40
1.0
 40
1.0
 40
1.0
 10
343.7656876939
 20
86.9644765607
 30
0.0
 10
343.8717559618
 20
87.0038140605
 30
0.0
 10
344.2928521707
 20
87.1680454359
 30
0.0
 10
344.7037386255
 20
87.3578269837
 30
0.0
 10
345.0062765323
 20
87.5103291256
 30
0.0
  0
SPLINE
  5
457
330
221
100
AcDbEntity
  8
02___PRT_ALL_AXES
  6
Continuous
 62
     7
100
AcDbSpline
 70
     0
 71
     3
 72
    25
 73
    21
 74
     0
 42
0.000000001
 43
0.0000001
 40
0.0
 40
0.0
 40
0.0
 40
0.0
 40
0.0296774107
 40
0.0593012912
 40
0.1187208557
 40
0.179196454
 40
0.2407698557
 40
0.3032442353
 40
0.366397723
 40
0.4300511075
 40
0.4940697173
 40
0.5583472956
 40
0.6227791369
 40
0.6872259098
 40
0.7515039325
 40
0.8153333667
 40
0.8782808352
 40
0.9398157357
 40
0.9700900706
 40
1.0
 40
1.0
 40
1.0
 40
1.0
 10
338.9244905607
 20
86.7536618976
 30
0.0
 10
338.9245259401
 20
86.6917164566
 30
0.0
 10
338.9365527162
 20
86.5676053923
 30
0.0
 10
339.0068105762
 20
86.3286597022
 30
0.0
 10
339.1743181034
 20
86.0581604803
 30
0.0
 10
339.4585303502
 20
85.8024346334
 30
0.0
 10
339.7944480979
 20
85.6095375334
 30
0.0
 10
340.1618398705
 20
85.4724957114
 30
0.0
 10
340.5479452059
 20
85.3843046552
 30
0.0
 10
340.9445220033
 20
85.3398721232
 30
0.0
 10
341.3458140635
 20
85.336059723
 30
0.0
 10
341.7471614811
 20
85.3717157222
 30
0.0
 10
342.1438552281
 20
85.4476680626
 30
0.0
 10
342.5300374879
 20
85.5666206909
 30
0.0
 10
342.8973234266
 20
85.7329192035
 30
0.0
 10
343.2327190499
 20
85.9523421279
 30
0.0
 10
343.5156379079
 20
86.2296144428
 30
0.0
 10
343.6830279322
 20
86.5123038364
 30
0.0
 10
343.7535608185
 20
86.7576118676
 30
0.0
 10
343.765733916
 20
86.8835470279
 30
0.0
 10
343.7656982593
 20
86.9459778035
 30
0.0
  0
SPLINE
  5
458
330
221
100
AcDbEntity
  8
02___PRT_ALL_AXES
  6
Continuous
 62
     7
100
AcDbSpline
 70
     0
 71
     3
 72
     9
 73
     5
 74
     0
 42
0.000000001
 43
0.0000001
 40
0.0
 40
0.0
 40
0.0
 40
0.0
 40
0.5089500017
 40
1.0
 40
1.0
 40
1.0
 40
1.0
 10
347.4401200567
 20
88.5166453538
 30
0.0
 10
347.4617756887
 20
88.6200708743
 30
0.0
 10
347.4954622356
 20
88.8252572293
 30
0.0
 10
347.5085223867
 20
89.0329746227
 30
0.0
 10
347.508464158
 20
89.1349265726
 30
0.0
  0
SPLINE
  5
459
330
221
100
AcDbEntity
  8
02___PRT_ALL_AXES
  6
Continuous
 62
     7
100
AcDbSpline
 70
     0
 71
     3
 72
     9
 73
     5
 74
     0
 42
0.000000001
 43
0.0000001
 40
0.0
 40
0.0
 40
0.0
 40
0.0
 40
0.5227452773
 40
1.0
 40
1.0
 40
1.0
 40
1.0
 10
343.7656876939
 20
86.9644765607
 30
0.0
 10
344.0768931696
 20
87.0247204735
 30
0.0
 10
344.6684356427
 20
87.1609155564
 30
0.0
 10
345.2467621167
 20
87.3467510583
 30
0.0
 10
345.5169990939
 20
87.450304706
 30
0.0
  0
SPLINE
  5
45A
330
221
100
AcDbEntity
  8
02___PRT_ALL_AXES
  6
Continuous
 62
     7
100
AcDbSpline
 70
     0
 71
     3
 72
     9
 73
     5
 74
     0
 42
0.000000001
 43
0.0000001
 40
0.0
 40
0.0
 40
0.0
 40
0.0
 40
0.4852098685
 40
1.0
 40
1.0
 40
1.0
 40
1.0
 10
336.9531740666
 20
87.1101086494
 30
0.0
 10
337.2671263221
 20
87.031314088
 30
0.0
 10
337.9211548317
 20
86.8961326078
 30
0.0
 10
338.5828497388
 20
86.8071992141
 30
0.0
 10
338.9244799953
 20
86.7721606548
 30
0.0
  0
SPLINE
  5
45B
330
221
100
AcDbEntity
  8
02___PRT_ALL_AXES
  6
Continuous
 62
     9
100
AcDbSpline
 70
     0
 71
     3
 72
     9
 73
     5
 74
     0
 42
0.000000001
 43
0.0000001
 40
0.0
 40
0.0
 40
0.0
 40
0.0
 40
0.5227452773
 40
1.0
 40
1.0
 40
1.0
 40
1.0
 10
343.7656982593
 20
86.9459778035
 30
0.0
 10
344.076903735
 20
87.0062217163
 30
0.0
 10
344.668446208
 20
87.1424167992
 30
0.0
 10
345.246772682
 20
87.328252301
 30
0.0
 10
345.5170096593
 20
87.4318059487
 30
0.0
  0
LINE
  5
45C
330
221
100
AcDbEntity
  8
02___PRT_ALL_AXES
  6
Continuous
 62
     9
100
AcDbLine
 10
347.5110285814
 20
89.1533012336
 30
0.0
 11
347.5113917206
 21
89.1561176024
 31
0.0
  0
SPLINE
  5
45D
330
221
100
AcDbEntity
  8
7_ALL_FEATURES
  6
Continuous
 62
     7
100
AcDbSpline
 70
     0
 71
     3
 72
    11
 73
     7
 74
     0
 42
0.000000001
 43
0.0000001
 40
0.0
 40
0.0
 40
0.0
 40
0.0
 40
0.2890537905
 40
0.5467106082
 40
0.7800576963
 40
1.0
 40
1.0
 40
1.0
 40
1.0
 10
319.4481424743
 20
151.8276442023
 30
0.0
 10
319.1328586963
 20
151.5580089678
 30
0.0
 10
318.5682143819
 20
151.0080231275
 30
0.0
 10
317.9099195284
 20
150.0937135408
 30
0.0
 10
317.5046437902
 20
149.146891786
 30
0.0
 10
317.41214131
 20
148.4932437021
 30
0.0
 10
317.4123089515
 20
148.1775765933
 30
0.0
  0
SPLINE
  5
45E
330
221
100
AcDbEntity
  8
7_ALL_FEATURES
  6
Continuous
 62
     7
100
AcDbSpline
 70
     0
 71
     3
 72
    11
 73
     7
 74
     0
 42
0.000000001
 43
0.0000001
 40
0.0
 40
0.0
 40
0.0
 40
0.0
 40
0.232375457
 40
0.4722619807
 40
0.726354509
 40
1.0
 40
1.0
 40
1.0
 40
1.0
 10
363.9123001706
 20
148.2040648476
 30
0.0
 10
363.9121802211
 20
148.4299288235
 30
0.0
 10
363.8656624062
 20
148.8901279967
 30
0.0
 10
363.6598218178
 20
149.5694934232
 30
0.0
 10
363.3205696738
 20
150.2377238667
 30
0.0
 10
363.0204205605
 20
150.6560985631
 30
0.0
 10
362.8522251531
 20
150.8621431962
 30
0.0
  0
SPLINE
  5
45F
330
221
100
AcDbEntity
  8
7_ALL_FEATURES
  6
Continuous
 62
     7
100
AcDbSpline
 70
     0
 71
     3
 72
     9
 73
     5
 74
     0
 42
0.000000001
 43
0.0000001
 40
0.0
 40
0.0
 40
0.0
 40
0.0
 40
0.2372820508
 40
1.0
 40
1.0
 40
1.0
 40
1.0
 10
362.8522251531
 20
150.8621431962
 30
0.0
 10
362.7786390854
 20
150.95228843
 30
0.0
 10
362.4581161866
 20
151.3236866455
 30
0.0
 10
362.0996424392
 20
151.6614579654
 30
0.0
 10
361.8131417105
 20
151.901932761
 30
0.0
  0
SPLINE
  5
460
330
221
100
AcDbEntity
  8
7_ALL_FEATURES
  6
Continuous
 62
     7
100
AcDbSpline
 70
     0
 71
     3
 72
    23
 73
    19
 74
     0
 42
0.000000001
 43
0.0000001
 40
0.0
 40
0.0
 40
0.0
 40
0.0
 40
0.043879589
 40
0.0943381412
 40
0.1510970719
 40
0.2135245544
 40
0.2807416888
 40
0.3516929769
 40
0.4251993454
 40
0.5000026378
 40
0.5748059103
 40
0.648312066
 40
0.7192628218
 40
0.7864793924
 40
0.8489061925
 40
0.9056645247
 40
0.9561204255
 40
1.0
 40
1.0
 40
1.0
 40
1.0
 10
361.4716649902
 20
152.1885442204
 30
0.0
 10
360.9837356269
 20
152.5980729535
 30
0.0
 10
359.8477190225
 20
153.3755933007
 30
0.0
 10
357.8835240886
 20
154.3616229622
 30
0.0
 10
355.5756526506
 20
155.2321781582
 30
0.0
 10
352.96922764
 20
155.9695905641
 30
0.0
 10
350.1151495674
 20
156.5591677072
 30
0.0
 10
347.0704666301
 20
156.9886866824
 30
0.0
 10
343.8963587452
 20
157.2492649928
 30
0.0
 10
340.6568846803
 20
157.3354811735
 30
0.0
 10
337.417514901
 20
157.2455433575
 30
0.0
 10
334.2437195696
 20
156.9813182449
 30
0.0
 10
331.1995515373
 20
156.548301012
 30
0.0
 10
328.3461775412
 20
155.9554511624
 30
0.0
 10
325.7406314064
 20
155.2150380282
 30
0.0
 10
323.4338151549
 20
154.3418514018
 30
0.0
 10
321.4708099641
 20
153.3535569041
 30
0.0
 10
320.3357315771
 20
152.5747418567
 30
0.0
 10
319.8482632035
 20
152.164664836
 30
0.0
  0
SPLINE
  5
461
330
221
100
AcDbEntity
  8
7_ALL_FEATURES
  6
Continuous
 62
     7
100
AcDbSpline
 70
     0
 71
     3
 72
    15
 73
    11
 74
     0
 42
0.000000001
 43
0.0000001
 40
0.0
 40
0.0
 40
0.0
 40
0.0
 40
0.1456805838
 40
0.2786942043
 40
0.4014765524
 40
0.5174767626
 40
0.6309318421
 40
0.7464285502
 40
0.8682769182
 40
1.0
 40
1.0
 40
1.0
 40
1.0
 10
319.4412858065
 20
151.8007159665
 30
0.0
 10
319.2130334097
 20
151.5831618128
 30
0.0
 10
318.799463538
 20
151.1412368308
 30
0.0
 10
318.3017313413
 20
150.4246005056
 30
0.0
 10
317.9617501583
 20
149.6899531311
 30
0.0
 10
317.7852589983
 20
148.9423626984
 30
0.0
 10
317.7762688132
 20
148.1895982226
 30
0.0
 10
317.9351846949
 20
147.4411255391
 30
0.0
 10
318.2579741542
 20
146.7052617275
 30
0.0
 10
318.565008749
 20
146.2469632064
 30
0.0
 10
318.7400537431
 20
146.0219108956
 30
0.0
  0
SPLINE
  5
462
330
221
100
AcDbEntity
  8
7_ALL_FEATURES
  6
Continuous
 62
     7
100
AcDbSpline
 70
     0
 71
     3
 72
    13
 73
     9
 74
     0
 42
0.000000001
 43
0.0000001
 40
0.0
 40
0.0
 40
0.0
 40
0.0
 40
0.2701684829
 40
0.3930147687
 40
0.5110605793
 40
0.6275618731
 40
0.745939393
 40
1.0
 40
1.0
 40
1.0
 40
1.0
 10
362.390760584
 20
145.8067779055
 30
0.0
 10
362.7062136691
 20
146.1743640684
 30
0.0
 10
363.1113439209
 20
146.7660460777
 30
0.0
 10
363.4308855548
 20
147.6288845809
 30
0.0
 10
363.5448913193
 20
148.2631537066
 30
0.0
 10
363.5385249571
 20
148.8997290226
 30
0.0
 10
363.3666097865
 20
149.7636225096
 30
0.0
 10
363.0592368009
 20
150.3731220079
 30
0.0
 10
362.8038612021
 20
150.7503083411
 30
0.0
  0
SPLINE
  5
463
330
221
100
AcDbEntity
  8
7_ALL_FEATURES
  6
Continuous
 62
     7
100
AcDbSpline
 70
     0
 71
     3
 72
     9
 73
     5
 74
     0
 42
0.000000001
 43
0.0000001
 40
0.0
 40
0.0
 40
0.0
 40
0.0
 40
0.2364740668
 40
1.0
 40
1.0
 40
1.0
 40
1.0
 10
362.8038612021
 20
150.7503083411
 30
0.0
 10
362.7377295144
 20
150.8479839565
 30
0.0
 10
362.4444409376
 20
151.2517910092
 30
0.0
 10
362.1013599847
 20
151.6181263459
 30
0.0
 10
361.8229132287
 20
151.8779754919
 30
0.0
  0
SPLINE
  5
464
330
221
100
AcDbEntity
  8
7_ALL_FEATURES
  6
Continuous
 62
     7
100
AcDbSpline
 70
     0
 71
     3
 72
    18
 73
    14
 74
     0
 42
0.000000001
 43
0.0000001
 40
0.0
 40
0.0
 40
0.0
 40
0.0
 40
0.1369088957
 40
0.2791418016
 40
0.4221102198
 40
0.5611720457
 40
0.6919114637
 40
0.7529293025
 40
0.8104585072
 40
0.8641461336
 40
0.9137207514
 40
0.9590150499
 40
1.0
 40
1.0
 40
1.0
 40
1.0
 10
326.2751497678
 20
123.550513515
 30
0.0
 10
328.4319369006
 20
123.1807678155
 30
0.0
 10
332.8645142772
 20
122.6227264952
 30
0.0
 10
339.6092417469
 20
122.2980479329
 30
0.0
 10
346.3945655526
 20
122.4739319357
 30
0.0
 10
352.9642321264
 20
123.1436447366
 30
0.0
 10
358.1705249682
 20
124.1118398331
 30
0.0
 10
362.0243932116
 20
125.1296576794
 30
0.0
 10
364.6452616073
 20
125.9769959322
 30
0.0
 10
367.0389210036
 20
126.9175196155
 30
0.0
 10
369.1833739668
 20
127.9426580345
 30
0.0
 10
371.0586142433
 20
129.0428669305
 30
0.0
 10
372.1734211024
 20
129.8607876969
 30
0.0
 10
372.6747009557
 20
130.2824979221
 30
0.0
  0
SPLINE
  5
465
330
221
100
AcDbEntity
  8
7_ALL_FEATURES
  6
Continuous
 62
     7
100
AcDbSpline
 70
     0
 71
     3
 72
     9
 73
     5
 74
     0
 42
0.000000001
 43
0.0000001
 40
0.0
 40
0.0
 40
0.0
 40
0.0
 40
0.2543437055
 40
1.0
 40
1.0
 40
1.0
 40
1.0
 10
366.3914549061
 20
108.6042358107
 30
0.0
 10
366.4193038454
 20
108.5113182673
 30
0.0
 10
366.5163344421
 20
108.1424045757
 30
0.0
 10
366.5603701775
 20
107.7593264823
 30
0.0
 10
366.5605451176
 20
107.474949311
 30
0.0
  0
SPLINE
  5
466
330
221
100
AcDbEntity
  8
7_ALL_FEATURES
  6
Continuous
 62
     7
100
AcDbSpline
 70
     0
 71
     3
 72
     9
 73
     5
 74
     0
 42
0.000000001
 43
0.0000001
 40
0.0
 40
0.0
 40
0.0
 40
0.0
 40
0.2543437055
 40
1.0
 40
1.0
 40
1.0
 40
1.0
 10
366.394026516
 20
104.1016396816
 30
0.0
 10
366.4218754553
 20
104.0087221382
 30
0.0
 10
366.518906052
 20
103.6398084466
 30
0.0
 10
366.5629417874
 20
103.2567303532
 30
0.0
 10
366.5631167275
 20
102.9723531819
 30
0.0
  0
SPLINE
  5
467
330
221
100
AcDbEntity
  8
7_ALL_FEATURES
  6
Continuous
 62
     7
100
AcDbSpline
 70
     0
 71
     3
 72
     9
 73
     5
 74
     0
 42
0.000000001
 43
0.0000001
 40
0.0
 40
0.0
 40
0.0
 40
0.0
 40
0.2543953535
 40
1.0
 40
1.0
 40
1.0
 40
1.0
 10
366.3868136666
 20
113.113716026
 30
0.0
 10
366.4150007615
 20
113.0202459513
 30
0.0
 10
366.5132027162
 20
112.6491734316
 30
0.0
 10
366.5577974856
 20
112.2636813684
 30
0.0
 10
366.5579735077
 20
111.9775454401
 30
0.0
  0
SPLINE
  5
468
330
221
100
AcDbEntity
  8
7_ALL_FEATURES
  6
Continuous
 62
     7
100
AcDbSpline
 70
     0
 71
     3
 72
     9
 73
     5
 74
     0
 42
0.000000001
 43
0.0000001
 40
0.0
 40
0.0
 40
0.0
 40
0.0
 40
0.5278692118
 40
1.0
 40
1.0
 40
1.0
 40
1.0
 10
329.4512716199
 20
105.4453999083
 30
0.0
 10
328.0383848319
 20
105.7056393745
 30
0.0
 10
325.3803863612
 20
106.3084468181
 30
0.0
 10
322.7940841669
 20
107.1796021601
 30
0.0
 10
321.6083918375
 20
107.6748234869
 30
0.0
  0
SPLINE
  5
469
330
221
100
AcDbEntity
  8
7_ALL_FEATURES
  6
Continuous
 62
     7
100
AcDbSpline
 70
     0
 71
     3
 72
    15
 73
    11
 74
     0
 42
0.000000001
 43
0.0000001
 40
0.0
 40
0.0
 40
0.0
 40
0.0
 40
0.1682342873
 40
0.2473601704
 40
0.3230924525
 40
0.5297206817
 40
0.7071519636
 40
0.8604149464
 40
0.93115125
 40
1.0
 40
1.0
 40
1.0
 40
1.0
 10
321.6083918375
 20
107.6748234869
 30
0.0
 10
321.0882917675
 20
107.8920507054
 30
0.0
 10
320.3331818736
 20
108.2357822678
 30
0.0
 10
319.3758692591
 20
108.7417168811
 30
0.0
 10
318.3298878979
 20
109.3523217514
 30
0.0
 10
317.0660722914
 20
110.2449775996
 30
0.0
 10
315.7973288687
 20
111.5392205161
 30
0.0
 10
315.1136982563
 20
112.7225252137
 30
0.0
 10
314.8501933555
 20
113.6722564698
 30
0.0
 10
314.8067894383
 20
114.140952865
 30
0.0
 10
314.8066480163
 20
114.371619315
 30
0.0
  0
SPLINE
  5
46A
330
221
100
AcDbEntity
  8
7_ALL_FEATURES
  6
Continuous
 62
     7
100
AcDbSpline
 70
     0
 71
     3
 72
     9
 73
     5
 74
     0
 42
0.000000001
 43
0.0000001
 40
0.0
 40
0.0
 40
0.0
 40
0.0
 40
0.5056104018
 40
1.0
 40
1.0
 40
1.0
 40
1.0
 10
332.6064138511
 20
107.0373784019
 30
0.0
 10
332.5691316751
 20
106.7821990192
 30
0.0
 10
332.4084890689
 20
106.2853660388
 30
0.0
 10
332.0796311407
 20
105.8784442138
 30
0.0
 10
331.8879724315
 20
105.7145714872
 30
0.0
  0
SPLINE
  5
46B
330
221
100
AcDbEntity
  8
7_ALL_FEATURES
  6
Continuous
 62
     7
100
AcDbSpline
 70
     0
 71
     3
 72
     9
 73
     5
 74
     0
 42
0.000000001
 43
0.0000001
 40
0.0
 40
0.0
 40
0.0
 40
0.0
 40
0.2543437055
 40
1.0
 40
1.0
 40
1.0
 40
1.0
 10
366.3837400764
 20
122.112024198
 30
0.0
 10
366.4115890157
 20
122.0191066546
 30
0.0
 10
366.5086196125
 20
121.650192963
 30
0.0
 10
366.5526553478
 20
121.2671148696
 30
0.0
 10
366.5528302879
 20
120.9827376983
 30
0.0
  0
SPLINE
  5
46C
330
221
100
AcDbEntity
  8
7_ALL_FEATURES
  6
Continuous
 62
     7
100
AcDbSpline
 70
     0
 71
     3
 72
     9
 73
     5
 74
     0
 42
0.000000001
 43
0.0000001
 40
0.0
 40
0.0
 40
0.0
 40
0.0
 40
0.2543437055
 40
1.0
 40
1.0
 40
1.0
 40
1.0
 10
366.3811684665
 20
126.6146203271
 30
0.0
 10
366.4090174058
 20
126.5217027837
 30
0.0
 10
366.5060480026
 20
126.1527890921
 30
0.0
 10
366.5500837379
 20
125.7697109987
 30
0.0
 10
366.550258678
 20
125.4853338274
 30
0.0
  0
SPLINE
  5
46D
330
221
100
AcDbEntity
  8
7_ALL_FEATURES
  6
Continuous
 62
     7
100
AcDbSpline
 70
     0
 71
     3
 72
    27
 73
    23
 74
     0
 42
0.000000001
 43
0.0000001
 40
0.0
 40
0.0
 40
0.0
 40
0.0
 40
0.0477848983
 40
0.1039994331
 40
0.1680795222
 40
0.2388814118
 40
0.3148856286
 40
0.3943205893
 40
0.4752632256
 40
0.5557264791
 40
0.6337434104
 40
0.707452448
 40
0.7751894538
 40
0.8355978191
 40
0.8627677111
 40
0.8878216587
 40
0.9107623
 40
0.9316637447
 40
0.9506901498
 40
0.9681232733
 40
0.9843774805
 40
1.0
 40
1.0
 40
1.0
 40
1.0
 10
364.2960640507
 20
101.3340982984
 30
0.0
 10
363.6396221103
 20
100.7726996786
 30
0.0
 10
362.0650858665
 20
99.7213363137
 30
0.0
 10
359.3047928531
 20
98.4353943335
 30
0.0
 10
356.0215235394
 20
97.3416141601
 30
0.0
 10
352.3056233125
 20
96.4721126199
 30
0.0
 10
348.2597192226
 20
95.8515629615
 30
0.0
 10
343.998285565
 20
95.4984513357
 30
0.0
 10
339.6424521127
 20
95.4231786877
 30
0.0
 10
335.3163815239
 20
95.6279955602
 30
0.0
 10
331.143377636
 20
96.1068256772
 30
0.0
 10
327.2415398643
 20
96.8454841396
 30
0.0
 10
323.721311325
 20
97.8223494697
 30
0.0
 10
321.098728432
 20
98.8446563231
 30
0.0
 10
319.28585078
 20
99.7748776764
 30
0.0
 10
318.1276701165
 20
100.4883535432
 30
0.0
 10
317.1302831888
 20
101.237587942
 30
0.0
 10
316.300494796
 20
102.0181222338
 30
0.0
 10
315.6445298062
 20
102.8258641851
 30
0.0
 10
315.1680866639
 20
103.656828439
 30
0.0
 10
314.8778488848
 20
104.5058107031
 30
0.0
 10
314.8119509737
 20
105.0838312819
 30
0.0
 10
314.811777254
 20
105.3662245343
 30
0.0
  0
SPLINE
  5
46E
330
221
100
AcDbEntity
  8
7_ALL_FEATURES
  6
Continuous
 62
     7
100
AcDbSpline
 70
     0
 71
     3
 72
    27
 73
    23
 74
     0
 42
0.000000001
 43
0.0000001
 40
0.0
 40
0.0
 40
0.0
 40
0.0
 40
0.0477848983
 40
0.1039994331
 40
0.1680795222
 40
0.2388814118
 40
0.3148856286
 40
0.3943205893
 40
0.4752632256
 40
0.5557264791
 40
0.6337434104
 40
0.707452448
 40
0.7751894538
 40
0.8355978191
 40
0.8627677111
 40
0.8878216587
 40
0.9107623
 40
0.9316637447
 40
0.9506901498
 40
0.9681232733
 40
0.9843774805
 40
1.0
 40
1.0
 40
1.0
 40
1.0
 10
364.2934924408
 20
105.8366944275
 30
0.0
 10
363.6370505004
 20
105.2752958077
 30
0.0
 10
362.0625142566
 20
104.2239324428
 30
0.0
 10
359.3022212432
 20
102.9379904626
 30
0.0
 10
356.0189519295
 20
101.8442102892
 30
0.0
 10
352.3030517026
 20
100.974708749
 30
0.0
 10
348.2571476127
 20
100.3541590905
 30
0.0
 10
343.9957139551
 20
100.0010474648
 30
0.0
 10
339.6398805028
 20
99.9257748167
 30
0.0
 10
335.313809914
 20
100.1305916893
 30
0.0
 10
331.1408060261
 20
100.6094218063
 30
0.0
 10
327.2389682544
 20
101.3480802687
 30
0.0
 10
323.7187397151
 20
102.3249455988
 30
0.0
 10
321.0961568222
 20
103.3472524522
 30
0.0
 10
319.2832791701
 20
104.2774738055
 30
0.0
 10
318.1250985066
 20
104.9909496722
 30
0.0
 10
317.1277115789
 20
105.7401840711
 30
0.0
 10
316.2979231861
 20
106.5207183629
 30
0.0
 10
315.6419581963
 20
107.3284603142
 30
0.0
 10
315.165515054
 20
108.1594245681
 30
0.0
 10
314.8752772749
 20
109.0084068322
 30
0.0
 10
314.8093793638
 20
109.586427411
 30
0.0
 10
314.8092056442
 20
109.8688206634
 30
0.0
  0
SPLINE
  5
46F
330
221
100
AcDbEntity
  8
7_ALL_FEATURES
  6
Continuous
 62
     7
100
AcDbSpline
 70
     0
 71
     3
 72
    15
 73
    11
 74
     0
 42
0.000000001
 43
0.0000001
 40
0.0
 40
0.0
 40
0.0
 40
0.0
 40
0.0858512536
 40
0.1872705001
 40
0.3031200824
 40
0.4311525767
 40
0.5684051695
 40
0.7114457522
 40
0.8565744393
 40
1.0
 40
1.0
 40
1.0
 40
1.0
 10
364.288349221
 20
114.8418866857
 30
0.0
 10
363.6090699573
 20
114.2609572574
 30
0.0
 10
361.9712292662
 20
113.1764776942
 30
0.0
 10
359.0949174988
 20
111.8602371159
 30
0.0
 10
355.6683071219
 20
110.7504580525
 30
0.0
 10
351.7917735542
 20
109.8819894677
 30
0.0
 10
347.5793326474
 20
109.2811603987
 30
0.0
 10
343.157840421
 20
108.9670311089
 30
0.0
 10
338.6613402797
 20
108.9494953025
 30
0.0
 10
335.6603008323
 20
109.1386592193
 30
0.0
 10
334.1743514538
 20
109.2859087097
 30
0.0
  0
SPLINE
  5
470
330
221
100
AcDbEntity
  8
7_ALL_FEATURES
  6
Continuous
 62
     7
100
AcDbSpline
 70
     0
 71
     3
 72
     9
 73
     5
 74
     0
 42
0.000000001
 43
0.0000001
 40
0.0
 40
0.0
 40
0.0
 40
0.0
 40
0.4903710008
 40
1.0
 40
1.0
 40
1.0
 40
1.0
 10
330.0903106991
 20
110.2668341435
 30
0.0
 10
330.3430604515
 20
110.2235043535
 30
0.0
 10
330.8474628147
 20
110.0611573366
 30
0.0
 10
331.2947571047
 20
109.7791151948
 30
0.0
 10
331.5014977502
 20
109.6109345718
 30
0.0
  0
SPLINE
  5
471
330
221
100
AcDbEntity
  8
7_ALL_FEATURES
  6
Continuous
 62
     7
100
AcDbSpline
 70
     0
 71
     3
 72
     9
 73
     5
 74
     0
 42
0.000000001
 43
0.0000001
 40
0.0
 40
0.0
 40
0.0
 40
0.0
 40
0.4842406969
 40
1.0
 40
1.0
 40
1.0
 40
1.0
 10
328.7164853416
 20
110.0883791656
 30
0.0
 10
328.9185769595
 20
110.1906584345
 30
0.0
 10
329.3775123317
 20
110.3252616263
 30
0.0
 10
329.8525372417
 20
110.3075964939
 30
0.0
 10
330.0903106991
 20
110.2668341435
 30
0.0
  0
SPLINE
  5
472
330
221
100
AcDbEntity
  8
7_ALL_FEATURES
  6
Continuous
 62
     7
100
AcDbSpline
 70
     0
 71
     3
 72
     9
 73
     5
 74
     0
 42
0.000000001
 43
0.0000001
 40
0.0
 40
0.0
 40
0.0
 40
0.0
 40
0.261505976
 40
1.0
 40
1.0
 40
1.0
 40
1.0
 10
328.7164853416
 20
110.0883791656
 30
0.0
 10
328.2775912503
 20
110.1758852889
 30
0.0
 10
326.6039929172
 20
110.5331989464
 30
0.0
 10
324.949079985
 20
110.9827233897
 30
0.0
 10
323.749323415
 20
111.3800393307
 30
0.0
  0
SPLINE
  5
473
330
221
100
AcDbEntity
  8
7_ALL_FEATURES
  6
Continuous
 62
     7
100
AcDbSpline
 70
     0
 71
     3
 72
    15
 73
    11
 74
     0
 42
0.000000001
 43
0.0000001
 40
0.0
 40
0.0
 40
0.0
 40
0.0
 40
0.1723900828
 40
0.3309156135
 40
0.4748300718
 40
0.6039404466
 40
0.7187833188
 40
0.8209053645
 40
0.9131858339
 40
1.0
 40
1.0
 40
1.0
 40
1.0
 10
323.749323415
 20
111.3800393307
 30
0.0
 10
323.0761732082
 20
111.602962309
 30
0.0
 10
321.7966741461
 20
112.0710528236
 30
0.0
 10
320.0157531919
 20
112.8780358193
 30
0.0
 10
318.4682429848
 20
113.7535091499
 30
0.0
 10
317.1707311748
 20
114.6886625469
 30
0.0
 10
316.1368900929
 20
115.6753591091
 30
0.0
 10
315.379079301
 20
116.7073971401
 30
0.0
 10
314.9115848316
 20
117.7775190863
 30
0.0
 10
314.8042327227
 20
118.5176720965
 30
0.0
 10
314.8040441311
 20
118.8747698017
 30
0.0
  0
SPLINE
  5
474
330
221
100
AcDbEntity
  8
7_ALL_FEATURES
  6
Continuous
 62
     7
100
AcDbSpline
 70
     0
 71
     3
 72
     9
 73
     5
 74
     0
 42
0.000000001
 43
0.0000001
 40
0.0
 40
0.0
 40
0.0
 40
0.0
 40
0.4729073118
 40
1.0
 40
1.0
 40
1.0
 40
1.0
 10
364.2857776111
 20
119.3444828148
 30
0.0
 10
363.8895429465
 20
119.005617212
 30
0.0
 10
362.9987550463
 20
118.3502853476
 30
0.0
 10
362.0425882897
 20
117.7977442811
 30
0.0
 10
361.5274693768
 20
117.5287728829
 30
0.0
  0
SPLINE
  5
475
330
221
100
AcDbEntity
  8
7_ALL_FEATURES
  6
Continuous
 62
     7
100
AcDbSpline
 70
     0
 71
     3
 72
    25
 73
    21
 74
     0
 42
0.000000001
 43
0.0000001
 40
0.0
 40
0.0
 40
0.0
 40
0.0
 40
0.0568872748
 40
0.1207556801
 40
0.1905984142
 40
0.2651323243
 40
0.3428814577
 40
0.4222489553
 40
0.5015794794
 40
0.579219019
 40
0.6535746742
 40
0.7231776083
 40
0.7867542367
 40
0.8433159994
 40
0.8922897854
 40
0.9337340113
 40
0.9519570059
 40
0.968813308
 40
0.9846715265
 40
1.0
 40
1.0
 40
1.0
 40
1.0
 10
361.5274693768
 20
117.5287728829
 30
0.0
 10
360.6715461611
 20
117.0818491566
 30
0.0
 10
358.7872418128
 20
116.2609341467
 30
0.0
 10
355.7018947986
 20
115.2750815746
 30
0.0
 10
352.2535675122
 20
114.4822288511
 30
0.0
 10
348.5253212914
 20
113.9022457147
 30
0.0
 10
344.6066627637
 20
113.5495563336
 30
0.0
 10
340.5926051421
 20
113.4330258419
 30
0.0
 10
336.5805803903
 20
113.5555736409
 30
0.0
 10
332.667992144
 20
113.9141255267
 30
0.0
 10
328.94961955
 20
114.4996691652
 30
0.0
 10
325.51494413
 20
115.2976233691
 30
0.0
 10
322.4458316602
 20
116.2880994931
 30
0.0
 10
319.8127811845
 20
117.4479947884
 30
0.0
 10
317.6754019455
 20
118.7505066204
 30
0.0
 10
316.2860468968
 20
119.9892356203
 30
0.0
 10
315.5076728681
 20
121.0344098431
 30
0.0
 10
315.1030907059
 20
121.8031821458
 30
0.0
 10
314.8572939985
 20
122.5856383512
 30
0.0
 10
314.8016508686
 20
123.1164301325
 30
0.0
 10
314.8014908145
 20
123.3766090507
 30
0.0
  0
SPLINE
  5
476
330
221
100
AcDbEntity
  8
7_ALL_FEATURES
  6
Continuous
 62
     7
100
AcDbSpline
 70
     0
 71
     3
 72
     9
 73
     5
 74
     0
 42
0.000000001
 43
0.0000001
 40
0.0
 40
0.0
 40
0.0
 40
0.0
 40
0.4729073118
 40
1.0
 40
1.0
 40
1.0
 40
1.0
 10
364.2832060012
 20
123.8470789439
 30
0.0
 10
363.8869713366
 20
123.5082133411
 30
0.0
 10
362.9961834364
 20
122.8528814767
 30
0.0
 10
362.0400166798
 20
122.3003404102
 30
0.0
 10
361.5248977669
 20
122.031369012
 30
0.0
  0
SPLINE
  5
477
330
221
100
AcDbEntity
  8
7_ALL_FEATURES
  6
Continuous
 62
     7
100
AcDbSpline
 70
     0
 71
     3
 72
    22
 73
    18
 74
     0
 42
0.000000001
 43
0.0000001
 40
0.0
 40
0.0
 40
0.0
 40
0.0
 40
0.0535512975
 40
0.1131111622
 40
0.1779498264
 40
0.2471357067
 40
0.3195883294
 40
0.3941258074
 40
0.5444021401
 40
0.6176727203
 40
0.6880550593
 40
0.7544308418
 40
0.8158134562
 40
0.8714013873
 40
0.9206513246
 40
0.9633903715
 40
1.0
 40
1.0
 40
1.0
 40
1.0
 10
361.5248977669
 20
122.031369012
 30
0.0
 10
360.7620905679
 20
121.6330661858
 30
0.0
 10
359.0973315481
 20
120.8931188068
 30
0.0
 10
356.3842039488
 20
119.9803610779
 30
0.0
 10
353.3649258451
 20
119.2198774263
 30
0.0
 10
350.0982007561
 20
118.6269433359
 30
0.0
 10
346.6470198194
 20
118.2132329417
 30
0.0
 10
341.8779436554
 20
117.9116422336
 30
0.0
 10
337.0773297066
 20
117.9929431578
 30
0.0
 10
332.375427021
 20
118.46143781
 30
0.0
 10
329.0402693868
 20
118.9929976393
 30
0.0
 10
325.932432185
 20
119.6964344971
 30
0.0
 10
323.1116381122
 20
120.5579709451
 30
0.0
 10
320.6315162208
 20
121.5605502676
 30
0.0
 10
318.5371629553
 20
122.6864079445
 30
0.0
 10
316.8662013027
 20
123.9152836427
 30
0.0
 10
315.9927324935
 20
124.86258119
 30
0.0
 10
315.6586307279
 20
125.3467967527
 30
0.0
  0
SPLINE
  5
478
330
221
100
AcDbEntity
  8
7_ALL_FEATURES
  6
Continuous
 62
     7
100
AcDbSpline
 70
     0
 71
     3
 72
     9
 73
     5
 74
     0
 42
0.000000001
 43
0.0000001
 40
0.0
 40
0.0
 40
0.0
 40
0.0
 40
0.4890577914
 40
1.0
 40
1.0
 40
1.0
 40
1.0
 10
333.378214333
 20
107.6974333111
 30
0.0
 10
333.4210067146
 20
107.989418583
 30
0.0
 10
333.3918634078
 20
108.6075028659
 30
0.0
 10
333.1558058393
 20
109.1757070919
 30
0.0
 10
332.9962219017
 20
109.4395021975
 30
0.0
  0
SPLINE
  5
479
330
221
100
AcDbEntity
  8
7_ALL_FEATURES
  6
Continuous
 62
     7
100
AcDbSpline
 70
     0
 71
     3
 72
     9
 73
     5
 74
     0
 42
0.000000001
 43
0.0000001
 40
0.0
 40
0.0
 40
0.0
 40
0.0
 40
0.2794216561
 40
1.0
 40
1.0
 40
1.0
 40
1.0
 10
373.015853027
 20
130.5695019934
 30
0.0
 10
373.3397926281
 20
130.8420286179
 30
0.0
 10
374.4547499191
 20
131.8631089595
 30
0.0
 10
375.3888256715
 20
133.1220146279
 30
0.0
 10
375.7984661526
 20
134.1339346021
 30
0.0
  0
SPLINE
  5
47A
330
221
100
AcDbEntity
  8
7_ALL_FEATURES
  6
Continuous
 62
     7
100
AcDbSpline
 70
     0
 71
     3
 72
     9
 73
     5
 74
     0
 42
0.000000001
 43
0.0000001
 40
0.0
 40
0.0
 40
0.0
 40
0.0
 40
0.2342933021
 40
1.0
 40
1.0
 40
1.0
 40
1.0
 10
308.6706661828
 20
130.2456986183
 30
0.0
 10
308.8740934742
 20
130.0749610692
 30
0.0
 10
309.7622367918
 20
129.3699415408
 30
0.0
 10
310.7200674349
 20
128.7554218213
 30
0.0
 10
311.474146296
 20
128.3256233806
 30
0.0
  0
SPLINE
  5
47B
330
221
100
AcDbEntity
  8
7_ALL_FEATURES
  6
Continuous
 62
     7
100
AcDbSpline
 70
     0
 71
     3
 72
     9
 73
     5
 74
     0
 42
0.000000001
 43
0.0000001
 40
0.0
 40
0.0
 40
0.0
 40
0.0
 40
0.4821010244
 40
1.0
 40
1.0
 40
1.0
 40
1.0
 10
317.8325137089
 20
125.5939042574
 30
0.0
 10
319.1300112952
 20
125.169957492
 30
0.0
 10
321.8598212896
 20
124.4064085582
 30
0.0
 10
324.6353315036
 20
123.8359830014
 30
0.0
 10
326.0799224338
 20
123.5842570157
 30
0.0
  0
SPLINE
  5
47C
330
221
100
AcDbEntity
  8
7_ALL_FEATURES
  6
Continuous
 62
     7
100
AcDbSpline
 70
     0
 71
     3
 72
    21
 73
    17
 74
     0
 42
0.000000001
 43
0.0000001
 40
0.0
 40
0.0
 40
0.0
 40
0.0
 40
0.0438837635
 40
0.0943449831
 40
0.1511088751
 40
0.2135424942
 40
0.2807663142
 40
0.3517247736
 40
0.4999926422
 40
0.6482615711
 40
0.7192212571
 40
0.7864466058
 40
0.8488820596
 40
0.9056485377
 40
0.9561140647
 40
1.0
 40
1.0
 40
1.0
 40
1.0
 10
363.5508480344
 20
96.2019510961
 30
0.0
 10
363.0154473964
 20
95.7515520758
 30
0.0
 10
361.7687477407
 20
94.8961601984
 30
0.0
 10
359.6127341594
 20
93.8106467322
 30
0.0
 10
357.0790657065
 20
92.8515889462
 30
0.0
 10
354.2173092372
 20
92.0383613989
 30
0.0
 10
351.0832877862
 20
91.3871087827
 30
0.0
 10
346.5593136125
 20
90.7440068939
 30
0.0
 10
340.6959656523
 20
90.429401455
 30
0.0
 10
334.832237407
 20
90.7371954698
 30
0.0
 10
330.3074567465
 20
91.3750358404
 30
0.0
 10
327.1726079195
 20
92.0226523604
 30
0.0
 10
324.3098050567
 20
92.832538221
 30
0.0
 10
321.7748880618
 20
93.7886845651
 30
0.0
 10
319.6174470491
 20
94.8716703144
 30
0.0
 10
318.3696246092
 20
95.7256173269
 30
0.0
 10
317.8336820336
 20
96.175425207
 30
0.0
  0
SPLINE
  5
47D
330
221
100
AcDbEntity
  8
7_ALL_FEATURES
  6
Continuous
 62
     7
100
AcDbSpline
 70
     0
 71
     3
 72
    11
 73
     7
 74
     0
 42
0.000000001
 43
0.0000001
 40
0.0
 40
0.0
 40
0.0
 40
0.0
 40
0.2898808279
 40
0.5476995245
 40
0.7807308308
 40
1.0
 40
1.0
 40
1.0
 40
1.0
 10
317.1505038066
 20
96.748837467
 30
0.0
 10
316.7894689399
 20
97.0518862761
 30
0.0
 10
316.1427193165
 20
97.6700748493
 30
0.0
 10
315.3874448096
 20
98.700581904
 30
0.0
 10
314.9215042538
 20
99.7691333032
 30
0.0
 10
314.8144739542
 20
100.5080574059
 30
0.0
 10
314.8143438118
 20
100.8646030854
 30
0.0
  0
SPLINE
  5
47E
330
221
100
AcDbEntity
  8
7_ALL_FEATURES
  6
Continuous
 62
     7
100
AcDbSpline
 70
     0
 71
     3
 72
    10
 73
     6
 74
     0
 42
0.000000001
 43
0.0000001
 40
0.0
 40
0.0
 40
0.0
 40
0.0
 40
0.4611899409
 40
0.7197036392
 40
1.0
 40
1.0
 40
1.0
 40
1.0
 10
305.450542506
 20
134.3335410669
 30
0.0
 10
305.700377963
 20
133.6370994061
 30
0.0
 10
306.2923723846
 20
132.6189776687
 30
0.0
 10
307.3465406879
 20
131.4086072243
 30
0.0
 10
307.9843630598
 20
130.8217526244
 30
0.0
 10
308.3287939846
 20
130.5326422061
 30
0.0
  0
SPLINE
  5
47F
330
221
100
AcDbEntity
  8
7_ALL_FEATURES
  6
Continuous
 62
     7
100
AcDbSpline
 70
     0
 71
     3
 72
     9
 73
     5
 74
     0
 42
0.000000001
 43
0.0000001
 40
0.0
 40
0.0
 40
0.0
 40
0.0
 40
0.4939737535
 40
1.0
 40
1.0
 40
1.0
 40
1.0
 10
314.8131619671
 20
102.9417496956
 30
0.0
 10
314.8130280086
 20
103.1595084594
 30
0.0
 10
314.851017058
 20
103.6011518698
 30
0.0
 10
314.9625360262
 20
104.0298819637
 30
0.0
 10
315.0350612801
 20
104.2408349595
 30
0.0
  0
SPLINE
  5
480
330
221
100
AcDbEntity
  8
7_ALL_FEATURES
  6
Continuous
 62
     7
100
AcDbSpline
 70
     0
 71
     3
 72
     9
 73
     5
 74
     0
 42
0.000000001
 43
0.0000001
 40
0.0
 40
0.0
 40
0.0
 40
0.0
 40
0.4939737535
 40
1.0
 40
1.0
 40
1.0
 40
1.0
 10
314.8105903572
 20
107.4443458247
 30
0.0
 10
314.8104563987
 20
107.6621045885
 30
0.0
 10
314.8484454482
 20
108.1037479989
 30
0.0
 10
314.9599644164
 20
108.5324780927
 30
0.0
 10
315.0324896702
 20
108.7434310886
 30
0.0
  0
SPLINE
  5
481
330
221
100
AcDbEntity
  8
7_ALL_FEATURES
  6
Continuous
 62
     7
100
AcDbSpline
 70
     0
 71
     3
 72
     9
 73
     5
 74
     0
 42
0.000000001
 43
0.0000001
 40
0.0
 40
0.0
 40
0.0
 40
0.0
 40
0.4939834391
 40
1.0
 40
1.0
 40
1.0
 40
1.0
 10
314.8080187473
 20
111.9469419538
 30
0.0
 10
314.8078849007
 20
112.1645187389
 30
0.0
 10
314.8458088732
 20
112.6057831321
 30
0.0
 10
314.9571420533
 20
113.0341667254
 30
0.0
 10
315.0295492585
 20
113.2449540376
 30
0.0
  0
SPLINE
  5
482
330
221
100
AcDbEntity
  8
7_ALL_FEATURES
  6
Continuous
 62
     7
100
AcDbSpline
 70
     0
 71
     3
 72
     9
 73
     5
 74
     0
 42
0.000000001
 43
0.0000001
 40
0.0
 40
0.0
 40
0.0
 40
0.0
 40
0.4939737535
 40
1.0
 40
1.0
 40
1.0
 40
1.0
 10
314.8028755275
 20
120.952134212
 30
0.0
 10
314.802741569
 20
121.1698929758
 30
0.0
 10
314.8407306185
 20
121.6115363862
 30
0.0
 10
314.9522495867
 20
122.04026648
 30
0.0
 10
315.0247748406
 20
122.2512194759
 30
0.0
  0
SPLINE
  5
483
330
221
100
AcDbEntity
  8
7_ALL_FEATURES
  6
Continuous
 62
     7
100
AcDbSpline
 70
     0
 71
     3
 72
    11
 73
     7
 74
     0
 42
0.000000001
 43
0.0000001
 40
0.0
 40
0.0
 40
0.0
 40
0.0
 40
0.2199422401
 40
0.4532871996
 40
0.7109559181
 40
1.0
 40
1.0
 40
1.0
 40
1.0
 10
366.5643086716
 20
100.8932656743
 30
0.0
 10
366.5644368939
 20
100.5419888296
 30
0.0
 10
366.461497928
 20
99.8146140876
 30
0.0
 10
366.0103941677
 20
98.7610050573
 30
0.0
 10
365.2778031515
 20
97.7435900042
 30
0.0
 10
364.6494742235
 20
97.1315443677
 30
0.0
 10
364.2986356606
 20
96.8315021693
 30
0.0
  0
SPLINE
  5
484
330
221
100
AcDbEntity
  8
7_ALL_FEATURES
  6
Continuous
 62
     7
100
AcDbSpline
 70
     0
 71
     3
 72
    11
 73
     7
 74
     0
 42
0.000000001
 43
0.0000001
 40
0.0
 40
0.0
 40
0.0
 40
0.0
 40
0.219933868
 40
0.4532805875
 40
0.7109566891
 40
1.0
 40
1.0
 40
1.0
 40
1.0
 10
366.5617320144
 20
105.3968280207
 30
0.0
 10
366.5619481445
 20
105.0454937006
 30
0.0
 10
366.459158958
 20
104.3179553586
 30
0.0
 10
366.0081357283
 20
103.2640503052
 30
0.0
 10
365.2754511797
 20
102.2463628992
 30
0.0
 10
364.6469724801
 20
101.6342002509
 30
0.0
 10
364.2960640507
 20
101.3340982984
 30
0.0
  0
SPLINE
  5
485
330
221
100
AcDbEntity
  8
7_ALL_FEATURES
  6
Continuous
 62
     7
100
AcDbSpline
 70
     0
 71
     3
 72
    10
 73
     6
 74
     0
 42
0.000000001
 43
0.0000001
 40
0.0
 40
0.0
 40
0.0
 40
0.0
 40
0.4609141978
 40
0.7194781989
 40
1.0
 40
1.0
 40
1.0
 40
1.0
 10
366.3470532548
 20
126.6705294826
 30
0.0
 10
366.1780397233
 20
126.1547161756
 30
0.0
 10
365.7592975917
 20
125.3972802784
 30
0.0
 10
364.9980834228
 20
124.4979158519
 30
0.0
 10
364.5342712287
 20
124.0617935493
 30
0.0
 10
364.2832060012
 20
123.8470789439
 30
0.0
  0
SPLINE
  5
486
330
221
100
AcDbEntity
  8
7_ALL_FEATURES
  6
Continuous
 62
     7
100
AcDbSpline
 70
     0
 71
     3
 72
    11
 73
     7
 74
     0
 42
0.000000001
 43
0.0000001
 40
0.0
 40
0.0
 40
0.0
 40
0.0
 40
0.219933868
 40
0.4532805875
 40
0.7109566891
 40
1.0
 40
1.0
 40
1.0
 40
1.0
 10
366.5514455749
 20
123.4072125371
 30
0.0
 10
366.551661705
 20
123.0558782169
 30
0.0
 10
366.4488725184
 20
122.328339875
 30
0.0
 10
365.9978492888
 20
121.2744348216
 30
0.0
 10
365.2651647401
 20
120.2567474156
 30
0.0
 10
364.6366860405
 20
119.6445847672
 30
0.0
 10
364.2857776111
 20
119.3444828148
 30
0.0
  0
SPLINE
  5
487
330
221
100
AcDbEntity
  8
7_ALL_FEATURES
  6
Continuous
 62
     7
100
AcDbSpline
 70
     0
 71
     3
 72
    11
 73
     7
 74
     0
 42
0.000000001
 43
0.0000001
 40
0.0
 40
0.0
 40
0.0
 40
0.0
 40
0.219933868
 40
0.4532805875
 40
0.7109566891
 40
1.0
 40
1.0
 40
1.0
 40
1.0
 10
366.5540171848
 20
118.904616408
 30
0.0
 10
366.5542333148
 20
118.5532820878
 30
0.0
 10
366.4514441283
 20
117.8257437459
 30
0.0
 10
366.0004208987
 20
116.7718386925
 30
0.0
 10
365.26773635
 20
115.7541512865
 30
0.0
 10
364.6392576504
 20
115.1419886382
 30
0.0
 10
364.288349221
 20
114.8418866857
 30
0.0
  0
SPLINE
  5
488
330
221
100
AcDbEntity
  8
7_ALL_FEATURES
  6
Continuous
 62
     7
100
AcDbSpline
 70
     0
 71
     3
 72
     9
 73
     5
 74
     0
 42
0.000000001
 43
0.0000001
 40
0.0
 40
0.0
 40
0.0
 40
0.0
 40
0.2473294457
 40
1.0
 40
1.0
 40
1.0
 40
1.0
 10
366.5553855615
 20
116.4794323819
 30
0.0
 10
366.5553327314
 20
116.5760366918
 30
0.0
 10
366.5403383883
 20
116.9665397141
 30
0.0
 10
366.4647024937
 20
117.3542173858
 30
0.0
 10
366.3784862927
 20
117.6352763564
 30
0.0
  0
SPLINE
  5
489
330
221
100
AcDbEntity
  8
7_ALL_FEATURES
  6
Continuous
 62
     7
100
AcDbSpline
 70
     0
 71
     3
 72
     9
 73
     5
 74
     0
 42
0.000000001
 43
0.0000001
 40
0.0
 40
0.0
 40
0.0
 40
0.0
 40
0.254253722
 40
1.0
 40
1.0
 40
1.0
 40
1.0
 10
314.9696101112
 20
117.5677979224
 30
0.0
 10
314.9424639834
 20
117.4758283634
 30
0.0
 10
314.8479265748
 20
117.1106345807
 30
0.0
 10
314.8052915345
 20
116.7317879534
 30
0.0
 10
314.8054350335
 20
116.4505286129
 30
0.0
  0
SPLINE
  5
48A
330
221
100
AcDbEntity
  8
7_ALL_FEATURES
  6
Continuous
 62
     7
100
AcDbSpline
 70
     0
 71
     3
 72
    15
 73
    11
 74
     0
 42
0.000000001
 43
0.0000001
 40
0.0
 40
0.0
 40
0.0
 40
0.0
 40
0.0916002383
 40
0.1876715324
 40
0.291973057
 40
0.4072154837
 40
0.535080593
 40
0.6764312242
 40
0.8314892112
 40
1.0
 40
1.0
 40
1.0
 40
1.0
 10
366.5566050414
 20
114.4017940061
 30
0.0
 10
366.5567953111
 20
114.0899436153
 30
0.0
 10
366.4767409257
 20
113.4485145659
 30
0.0
 10
366.1228681132
 20
112.5113678569
 30
0.0
 10
365.5439396692
 20
111.5987240546
 30
0.0
 10
364.74900802
 20
110.7169634325
 30
0.0
 10
363.7463572453
 20
109.8705783574
 30
0.0
 10
362.5443750519
 20
109.0652254584
 30
0.0
 10
361.153086923
 20
108.3068219326
 30
0.0
 10
360.1473890556
 20
107.8547060638
 30
0.0
 10
359.6169737943
 20
107.6361193013
 30
0.0
  0
SPLINE
  5
48B
330
221
100
AcDbEntity
  8
7_ALL_FEATURES
  6
Continuous
 62
     7
100
AcDbSpline
 70
     0
 71
     3
 72
    11
 73
     7
 74
     0
 42
0.000000001
 43
0.0000001
 40
0.0
 40
0.0
 40
0.0
 40
0.0
 40
0.2215275915
 40
0.4648593908
 40
0.725938178
 40
1.0
 40
1.0
 40
1.0
 40
1.0
 10
359.6169737943
 20
107.6361193013
 30
0.0
 10
358.6732930294
 20
107.247223773
 30
0.0
 10
356.647005557
 20
106.5412554127
 30
0.0
 10
353.403421299
 20
105.7126091459
 30
0.0
 10
349.870326189
 20
105.0786068385
 30
0.0
 10
347.4185743606
 20
104.8006109938
 30
0.0
 10
346.1602366053
 20
104.6954940457
 30
0.0
  0
SPLINE
  5
48C
330
221
100
AcDbEntity
  8
7_ALL_FEATURES
  6
Continuous
 62
     7
100
AcDbSpline
 70
     0
 71
     3
 72
    11
 73
     7
 74
     0
 42
0.000000001
 43
0.0000001
 40
0.0
 40
0.0
 40
0.0
 40
0.0
 40
0.219933868
 40
0.4532805875
 40
0.7109566891
 40
1.0
 40
1.0
 40
1.0
 40
1.0
 10
366.5591604045
 20
109.8994241498
 30
0.0
 10
366.5593765346
 20
109.5480898296
 30
0.0
 10
366.4565873481
 20
108.8205514877
 30
0.0
 10
366.0055641184
 20
107.7666464343
 30
0.0
 10
365.2728795698
 20
106.7489590283
 30
0.0
 10
364.6444008702
 20
106.13679638
 30
0.0
 10
364.2934924408
 20
105.8366944275
 30
0.0
  0
SPLINE
  5
48D
330
221
100
AcDbEntity
  8
7_ALL_FEATURES
  6
Continuous
 62
     7
100
AcDbSpline
 70
     0
 71
     3
 72
    21
 73
    17
 74
     0
 42
0.000000001
 43
0.0000001
 40
0.0
 40
0.0
 40
0.0
 40
0.0
 40
0.0420578509
 40
0.0909026226
 40
0.1463903153
 40
0.2079462261
 40
0.2747005337
 40
0.3455748546
 40
0.4946283525
 40
0.6445007812
 40
0.7163734648
 40
0.7844789688
 40
0.8476903292
 40
0.9050650437
 40
0.9559350898
 40
1.0
 40
1.0
 40
1.0
 40
1.0
 10
319.4178378549
 20
122.2208741522
 30
0.0
 10
319.8641726457
 20
121.7905755989
 30
0.0
 10
320.9343342429
 20
120.9693687843
 30
0.0
 10
322.8294262095
 20
119.9265931625
 30
0.0
 10
325.0970206434
 20
118.9992802085
 30
0.0
 10
327.6911050442
 20
118.206977926
 30
0.0
 10
330.5590632743
 20
117.5658864353
 30
0.0
 10
334.7381606629
 20
116.9212148671
 30
0.0
 10
340.1915613499
 20
116.5832276155
 30
0.0
 10
345.6638264057
 20
116.8384887022
 30
0.0
 10
349.899682741
 20
117.4164820675
 30
0.0
 10
352.8374005092
 20
118.0128392838
 30
0.0
 10
355.5182796589
 20
118.7646555333
 30
0.0
 10
357.8876076596
 20
119.6562232092
 30
0.0
 10
359.8966804848
 20
120.6686767698
 30
0.0
 10
361.0536242007
 20
121.4696900011
 30
0.0
 10
361.5472794775
 20
121.8918711172
 30
0.0
  0
SPLINE
  5
48E
330
221
100
AcDbEntity
  8
7_ALL_FEATURES
  6
Continuous
 62
     7
100
AcDbSpline
 70
     0
 71
     3
 72
    17
 73
    13
 74
     0
 42
0.000000001
 43
0.0000001
 40
0.0
 40
0.0
 40
0.0
 40
0.0
 40
0.1363595481
 40
0.2778767623
 40
0.4201485016
 40
0.558716282
 40
0.6893288293
 40
0.8081946788
 40
0.8622661849
 40
0.9123575197
 40
0.9582878605
 40
1.0
 40
1.0
 40
1.0
 40
1.0
 10
326.2969769935
 20
123.7357644515
 30
0.0
 10
328.4413395062
 20
123.3734885981
 30
0.0
 10
332.8448157155
 20
122.8255047998
 30
0.0
 10
339.5435238982
 20
122.5033626881
 30
0.0
 10
346.2835352522
 20
122.6698667292
 30
0.0
 10
352.8201331717
 20
123.3186532464
 30
0.0
 10
358.9162845031
 20
124.4252299803
 30
0.0
 10
363.5884597117
 20
125.731863277
 30
0.0
 10
366.9151404653
 20
126.9972388106
 30
0.0
 10
369.0910597388
 20
128.0004924459
 30
0.0
 10
371.0078154489
 20
129.0786538497
 30
0.0
 10
372.1570872282
 20
129.8799575286
 30
0.0
 10
372.6781237776
 20
130.2935768827
 30
0.0
  0
SPLINE
  5
48F
330
221
100
AcDbEntity
  8
7_ALL_FEATURES
  6
Continuous
 62
     7
100
AcDbSpline
 70
     0
 71
     3
 72
    21
 73
    17
 74
     0
 42
0.000000001
 43
0.0000001
 40
0.0
 40
0.0
 40
0.0
 40
0.0
 40
0.0420578509
 40
0.0909026226
 40
0.1463903153
 40
0.2079462261
 40
0.2747005337
 40
0.3455748546
 40
0.4946283525
 40
0.6445007812
 40
0.7163734648
 40
0.7844789688
 40
0.8476903292
 40
0.9050650437
 40
0.9559350898
 40
1.0
 40
1.0
 40
1.0
 40
1.0
 10
319.4204094648
 20
117.7182780231
 30
0.0
 10
319.8667442555
 20
117.2879794698
 30
0.0
 10
320.9369058528
 20
116.4667726552
 30
0.0
 10
322.8319978194
 20
115.4239970334
 30
0.0
 10
325.0995922533
 20
114.4966840794
 30
0.0
 10
327.6936766541
 20
113.7043817969
 30
0.0
 10
330.5616348842
 20
113.0632903062
 30
0.0
 10
334.7407322728
 20
112.418618738
 30
0.0
 10
340.1941329597
 20
112.0806314864
 30
0.0
 10
345.6663980156
 20
112.3358925731
 30
0.0
 10
349.9022543509
 20
112.9138859384
 30
0.0
 10
352.8399721191
 20
113.5102431547
 30
0.0
 10
355.5208512688
 20
114.2620594042
 30
0.0
 10
357.8901792695
 20
115.1536270801
 30
0.0
 10
359.8992520947
 20
116.1660806407
 30
0.0
 10
361.0561958106
 20
116.967093872
 30
0.0
 10
361.5498510874
 20
117.3892749881
 30
0.0
  0
SPLINE
  5
490
330
221
100
AcDbEntity
  8
7_ALL_FEATURES
  6
Continuous
 62
     7
100
AcDbSpline
 70
     0
 71
     3
 72
    24
 73
    20
 74
     0
 42
0.000000001
 43
0.0000001
 40
0.0
 40
0.0
 40
0.0
 40
0.0
 40
0.0351052621
 40
0.0551091631
 40
0.0769447316
 40
0.1263155958
 40
0.1832264431
 40
0.2470157679
 40
0.3166202408
 40
0.3907015258
 40
0.4677354375
 40
0.5460841574
 40
0.6240611403
 40
0.6999935023
 40
0.7722851223
 40
0.8394838664
 40
0.9003599454
 40
0.954007176
 40
1.0
 40
1.0
 40
1.0
 40
1.0
 10
317.044233071
 20
110.360555713
 30
0.0
 10
317.2812394064
 20
109.8428656181
 30
0.0
 10
317.809429461
 20
109.0997161108
 30
0.0
 10
318.7057211733
 20
108.2308660779
 30
0.0
 10
319.8735955225
 20
107.3180007522
 30
0.0
 10
321.6794281138
 20
106.271982959
 30
0.0
 10
324.2284518917
 20
105.2044930058
 30
0.0
 10
327.1847742382
 20
104.3024705852
 30
0.0
 10
330.4763846503
 20
103.5883741624
 30
0.0
 10
334.0227321346
 20
103.0804372637
 30
0.0
 10
337.735575848
 20
102.7917776223
 30
0.0
 10
341.5221916673
 20
102.7298687568
 30
0.0
 10
345.2878037649
 20
102.896320726
 30
0.0
 10
348.9382029162
 20
103.2868112529
 30
0.0
 10
352.3824018364
 20
103.8912800134
 30
0.0
 10
355.5349776596
 20
104.6940476025
 30
0.0
 10
358.3196287313
 20
105.6751918206
 30
0.0
 10
360.6690717793
 20
106.8097295433
 30
0.0
 10
362.01458143
 20
107.7232826138
 30
0.0
 10
362.581486021
 20
108.2081076004
 30
0.0
  0
SPLINE
  5
491
330
221
100
AcDbEntity
  8
7_ALL_FEATURES
  6
Continuous
 62
     7
100
AcDbSpline
 70
     0
 71
     3
 72
    17
 73
    13
 74
     0
 42
0.000000001
 43
0.0000001
 40
0.0
 40
0.0
 40
0.0
 40
0.0
 40
0.0511775627
 40
0.1065874686
 40
0.2283017894
 40
0.3608938989
 40
0.4991861556
 40
0.6375905987
 40
0.7705115673
 40
0.8927467329
 40
0.9484766502
 40
1.0
 40
1.0
 40
1.0
 40
1.0
 10
324.2280788133
 20
97.7216669575
 30
0.0
 10
324.7476088879
 20
97.4815137146
 30
0.0
 10
325.8518889023
 20
97.0287568165
 30
0.0
 10
328.278350264
 20
96.2292312575
 30
0.0
 10
331.6626068367
 20
95.4552717542
 30
0.0
 10
336.0226472051
 20
94.8931951358
 30
0.0
 10
340.6013107285
 20
94.6994866269
 30
0.0
 10
345.1840372424
 20
94.8835096095
 30
0.0
 10
349.5560686334
 20
95.436392034
 30
0.0
 10
352.9553095817
 20
96.2029481976
 30
0.0
 10
355.3975471946
 20
96.9968453021
 30
0.0
 10
356.5109072882
 20
97.446963963
 30
0.0
 10
357.0352851117
 20
97.685825146
 30
0.0
  0
SPLINE
  5
492
330
221
100
AcDbEntity
  8
7_ALL_FEATURES
  6
Continuous
 62
     7
100
AcDbSpline
 70
     0
 71
     3
 72
     9
 73
     5
 74
     0
 42
0.000000001
 43
0.0000001
 40
0.0
 40
0.0
 40
0.0
 40
0.0
 40
0.5002568331
 40
1.0
 40
1.0
 40
1.0
 40
1.0
 10
369.0335036151
 20
152.485411457
 30
0.0
 10
369.3877281551
 20
152.5460712254
 30
0.0
 10
370.1077281338
 20
152.6001248671
 30
0.0
 10
370.8276922518
 20
152.5453643093
 30
0.0
 10
371.1814721883
 20
152.4842963821
 30
0.0
  0
SPLINE
  5
493
330
221
100
AcDbEntity
  8
7_ALL_FEATURES
  6
Continuous
 62
     7
100
AcDbSpline
 70
     0
 71
     3
 72
     9
 73
     5
 74
     0
 42
0.000000001
 43
0.0000001
 40
0.0
 40
0.0
 40
0.0
 40
0.0
 40
0.5002568331
 40
1.0
 40
1.0
 40
1.0
 40
1.0
 10
310.1568320779
 20
143.8633912875
 30
0.0
 10
310.5110566178
 20
143.9240510558
 30
0.0
 10
311.2310565966
 20
143.9781046975
 30
0.0
 10
311.9510207146
 20
143.9233441397
 30
0.0
 10
312.304800651
 20
143.8622762125
 30
0.0
  0
LINE
  5
494
330
221
100
AcDbEntity
  8
7_ALL_FEATURES
  6
Continuous
 62
     7
100
AcDbLine
 10
364.2989339068
 20
114.8425234519
 30
0.0
 11
364.2960404567
 21
114.8363880236
 31
0.0
  0
SPLINE
  5
495
330
221
100
AcDbEntity
  8
7_ALL_FEATURES
  6
Continuous
 62
     7
100
AcDbSpline
 70
     0
 71
     3
 72
    18
 73
    14
 74
     0
 42
0.000000001
 43
0.0000001
 40
0.0
 40
0.0
 40
0.0
 40
0.0
 40
0.0715352272
 40
0.1142328681
 40
0.1619531501
 40
0.2147077088
 40
0.2723075385
 40
0.3344162359
 40
0.4005811267
 40
0.542802254
 40
0.6939522293
 40
0.8483189151
 40
1.0
 40
1.0
 40
1.0
 40
1.0
 10
364.2960404567
 20
114.8363880236
 30
0.0
 10
363.9599893524
 20
114.1251848659
 30
0.0
 10
363.1320633673
 20
113.1286861149
 30
0.0
 10
361.7364095009
 20
112.0247150495
 30
0.0
 10
360.3925189453
 20
111.1961615641
 30
0.0
 10
358.8311965089
 20
110.4284507686
 30
0.0
 10
357.0671491869
 20
109.7275466452
 30
0.0
 10
355.1200767986
 20
109.1017266957
 30
0.0
 10
352.2385352412
 20
108.3588897939
 30
0.0
 10
348.33728565
 20
107.6780523755
 30
0.0
 10
343.4264020932
 20
107.2583336754
 30
0.0
 10
338.3939413497
 20
107.2374485862
 30
0.0
 10
335.0338319456
 20
107.4955298523
 30
0.0
 10
333.378214333
 20
107.6974333111
 30
0.0
  0
SPLINE
  5
496
330
221
100
AcDbEntity
  8
7_ALL_FEATURES
  6
Continuous
 62
     7
100
AcDbSpline
 70
     0
 71
     3
 72
     9
 73
     5
 74
     0
 42
0.000000001
 43
0.0000001
 40
0.0
 40
0.0
 40
0.0
 40
0.0
 40
0.2275205661
 40
1.0
 40
1.0
 40
1.0
 40
1.0
 10
364.2793709075
 20
110.2935745903
 30
0.0
 10
364.1900791595
 20
110.109254422
 30
0.0
 10
363.7431770958
 20
109.3252598434
 30
0.0
 10
363.1099540807
 20
108.6600611108
 30
0.0
 10
362.581486021
 20
108.2081076004
 30
0.0
  0
SPLINE
  5
497
330
221
100
AcDbEntity
  8
7_ALL_FEATURES
  6
Continuous
 62
     7
100
AcDbSpline
 70
     0
 71
     3
 72
    13
 73
     9
 74
     0
 42
0.000000001
 43
0.0000001
 40
0.0
 40
0.0
 40
0.0
 40
0.0
 40
0.3188746799
 40
0.4621611194
 40
0.5935871193
 40
0.7127430627
 40
0.8197056756
 40
1.0
 40
1.0
 40
1.0
 40
1.0
 10
327.8054409876
 20
108.6944283364
 30
0.0
 10
326.4998867505
 20
109.0119669589
 30
0.0
 10
324.6257973728
 20
109.5631752208
 30
0.0
 10
322.3090990518
 20
110.5111027462
 30
0.0
 10
320.8253618547
 20
111.2582955837
 30
0.0
 10
319.5460308379
 20
112.0615359599
 30
0.0
 10
318.2100605444
 20
113.1312821989
 30
0.0
 10
317.414903263
 20
114.0902868582
 30
0.0
 10
317.0836982534
 20
114.7739781506
 30
0.0
  0
SPLINE
  5
498
330
221
100
AcDbEntity
  8
7_ALL_FEATURES
  6
Continuous
 62
     7
100
AcDbSpline
 70
     0
 71
     3
 72
     9
 73
     5
 74
     0
 42
0.000000001
 43
0.0000001
 40
0.0
 40
0.0
 40
0.0
 40
0.0
 40
0.4960323294
 40
1.0
 40
1.0
 40
1.0
 40
1.0
 10
331.8879724315
 20
105.7145714872
 30
0.0
 10
331.7296490662
 20
105.5792012675
 30
0.0
 10
331.3665785094
 20
105.3539037428
 30
0.0
 10
330.953266383
 20
105.2472471916
 30
0.0
 10
330.7429120346
 20
105.2239693928
 30
0.0
  0
SPLINE
  5
499
330
221
100
AcDbEntity
  8
7_ALL_FEATURES
  6
Continuous
 62
     7
100
AcDbSpline
 70
     0
 71
     3
 72
     9
 73
     5
 74
     0
 42
0.000000001
 43
0.0000001
 40
0.0
 40
0.0
 40
0.0
 40
0.0
 40
0.2359306325
 40
1.0
 40
1.0
 40
1.0
 40
1.0
 10
308.6713899323
 20
130.2534890119
 30
0.0
 10
308.8662136315
 20
130.0993058926
 30
0.0
 10
309.7073220141
 20
129.4652116735
 30
0.0
 10
310.6029399886
 20
128.9052111185
 30
0.0
 10
311.3045956457
 20
128.5113883903
 30
0.0
  0
SPLINE
  5
49A
330
221
100
AcDbEntity
  8
7_ALL_FEATURES
  6
Continuous
 62
     7
100
AcDbSpline
 70
     0
 71
     3
 72
     9
 73
     5
 74
     0
 42
0.000000001
 43
0.0000001
 40
0.0
 40
0.0
 40
0.0
 40
0.0
 40
0.4831270051
 40
1.0
 40
1.0
 40
1.0
 40
1.0
 10
318.0263796752
 20
125.6901589989
 30
0.0
 10
319.3047469496
 20
125.2859134428
 30
0.0
 10
321.9853067841
 20
124.5565692057
 30
0.0
 10
324.707709581
 20
124.0079994416
 30
0.0
 10
326.1214956932
 20
123.7656290568
 30
0.0
  0
SPLINE
  5
49B
330
221
100
AcDbEntity
  8
7_ALL_FEATURES
  6
Continuous
 62
     7
100
AcDbSpline
 70
     0
 71
     3
 72
     9
 73
     5
 74
     0
 42
0.000000001
 43
0.0000001
 40
0.0
 40
0.0
 40
0.0
 40
0.0
 40
0.2440055203
 40
1.0
 40
1.0
 40
1.0
 40
1.0
 10
364.2333177607
 20
96.7760979698
 30
0.0
 10
364.1803255945
 20
96.7315140962
 30
0.0
 10
363.9613808879
 20
96.5509049364
 30
0.0
 10
363.7356451808
 20
96.3785699171
 30
0.0
 10
363.5619470162
 20
96.2526096984
 30
0.0
  0
SPLINE
  5
49C
330
221
100
AcDbEntity
  8
7_ALL_FEATURES
  6
Continuous
 62
     7
100
AcDbSpline
 70
     0
 71
     3
 72
    21
 73
    17
 74
     0
 42
0.000000001
 43
0.0000001
 40
0.0
 40
0.0
 40
0.0
 40
0.0
 40
0.0456098499
 40
0.0972931416
 40
0.1546971354
 40
0.2171913418
 40
0.2839588233
 40
0.3540447285
 40
0.4998499107
 40
0.6456773533
 40
0.7157905715
 40
0.7825951949
 40
0.8451353438
 40
0.9025923712
 40
0.9543364241
 40
1.0
 40
1.0
 40
1.0
 40
1.0
 10
363.5619470162
 20
96.2526096984
 30
0.0
 10
362.9768242557
 20
95.8282978409
 30
0.0
 10
361.6542585411
 20
95.0248096342
 30
0.0
 10
359.4219992071
 20
94.0024828271
 30
0.0
 10
356.8524878115
 20
93.1029623473
 30
0.0
 10
353.9912467332
 20
92.3427438805
 30
0.0
 10
350.8889283205
 20
91.7355406503
 30
0.0
 10
346.4475513566
 20
91.1377034037
 30
0.0
 10
340.7117989432
 20
90.8434474572
 30
0.0
 10
334.9751496772
 20
91.1283312846
 30
0.0
 10
330.531406596
 20
91.718821511
 30
0.0
 10
327.4263178672
 20
92.3209341914
 30
0.0
 10
324.5616009462
 20
93.0764299468
 30
0.0
 10
321.9879487485
 20
93.9717443711
 30
0.0
 10
319.7511033632
 20
94.9903839025
 30
0.0
 10
318.4250289662
 20
95.7915393524
 30
0.0
 10
317.8380948018
 20
96.2147992606
 30
0.0
  0
SPLINE
  5
49D
330
221
100
AcDbEntity
  8
7_ALL_FEATURES
  6
Continuous
 62
     7
100
AcDbSpline
 70
     0
 71
     3
 72
     9
 73
     5
 74
     0
 42
0.000000001
 43
0.0000001
 40
0.0
 40
0.0
 40
0.0
 40
0.0
 40
0.2561133355
 40
1.0
 40
1.0
 40
1.0
 40
1.0
 10
317.8380948018
 20
96.2147992606
 30
0.0
 10
317.7778019114
 20
96.2582786912
 30
0.0
 10
317.5438453093
 20
96.4300519766
 30
0.0
 10
317.315875051
 20
96.6100266116
 30
0.0
 10
317.1505038066
 20
96.748837467
 30
0.0
  0
SPLINE
  5
49E
330
221
100
AcDbEntity
  8
7_ALL_FEATURES
  6
Continuous
 62
     7
100
AcDbSpline
 70
     0
 71
     3
 72
    20
 73
    16
 74
     0
 42
0.000000001
 43
0.0000001
 40
0.0
 40
0.0
 40
0.0
 40
0.0
 40
0.1642953434
 40
0.3279821426
 40
0.4842825935
 40
0.5577056195
 40
0.6270216099
 40
0.6916342227
 40
0.7510638959
 40
0.8049834181
 40
0.8532723122
 40
0.8960923718
 40
0.9339973333
 40
0.9680696318
 40
1.0
 40
1.0
 40
1.0
 40
1.0
 10
335.4884656107
 20
106.7452811958
 30
0.0
 10
337.3836095065
 20
106.5973644217
 30
0.0
 10
341.1817454349
 20
106.4688448033
 30
0.0
 10
346.7839479755
 20
106.7475869726
 30
0.0
 10
351.3005510641
 20
107.3708525733
 30
0.0
 10
354.6827944781
 20
108.1067406078
 30
0.0
 10
356.9959590059
 20
108.7484616618
 30
0.0
 10
359.1108333872
 20
109.483312341
 30
0.0
 10
361.0023204651
 20
110.3025170575
 30
0.0
 10
362.6483263582
 20
111.1965501843
 30
0.0
 10
364.0301720227
 20
112.1557458025
 30
0.0
 10
365.1324161445
 20
113.1710504465
 30
0.0
 10
365.941354607
 20
114.2357469545
 30
0.0
 10
366.4410101548
 20
115.3424365144
 30
0.0
 10
366.5555875956
 20
116.1099960379
 30
0.0
 10
366.5553855615
 20
116.4794323819
 30
0.0
  0
SPLINE
  5
49F
330
221
100
AcDbEntity
  8
7_ALL_FEATURES
  6
Continuous
 62
     7
100
AcDbSpline
 70
     0
 71
     3
 72
    10
 73
     6
 74
     0
 42
0.000000001
 43
0.0000001
 40
0.0
 40
0.0
 40
0.0
 40
0.0
 40
0.2482422335
 40
0.5021408309
 40
1.0
 40
1.0
 40
1.0
 40
1.0
 10
329.4512716199
 20
105.4453999083
 30
0.0
 10
329.217526413
 20
105.5530272049
 30
0.0
 10
328.7736308997
 20
105.8398743679
 30
0.0
 10
328.0683893402
 20
106.6080987773
 30
0.0
 10
327.7579677615
 20
107.3678779266
 30
0.0
 10
327.6924588879
 20
107.8797951984
 30
0.0
  0
SPLINE
  5
4A0
330
221
100
AcDbEntity
  8
7_ALL_FEATURES
  6
Continuous
 62
     7
100
AcDbSpline
 70
     0
 71
     3
 72
    27
 73
    23
 74
     0
 42
0.000000001
 43
0.0000001
 40
0.0
 40
0.0
 40
0.0
 40
0.0
 40
0.0477848983
 40
0.1039994331
 40
0.1680795222
 40
0.2388814118
 40
0.3148856286
 40
0.3943205893
 40
0.4752632256
 40
0.5557264791
 40
0.6337434104
 40
0.707452448
 40
0.7751894538
 40
0.8355978191
 40
0.8627677111
 40
0.8878216587
 40
0.9107623
 40
0.9316637447
 40
0.9506901498
 40
0.9681232733
 40
0.9843774805
 40
1.0
 40
1.0
 40
1.0
 40
1.0
 10
364.2948771538
 20
103.4122195888
 30
0.0
 10
363.6384352134
 20
102.850820969
 30
0.0
 10
362.0638989697
 20
101.7994576041
 30
0.0
 10
359.3036059562
 20
100.5135156238
 30
0.0
 10
356.0203366425
 20
99.4197354505
 30
0.0
 10
352.3044364156
 20
98.5502339103
 30
0.0
 10
348.2585323257
 20
97.9296842518
 30
0.0
 10
343.9970986681
 20
97.5765726261
 30
0.0
 10
339.6412652158
 20
97.501299978
 30
0.0
 10
335.315194627
 20
97.7061168506
 30
0.0
 10
331.1421907391
 20
98.1849469675
 30
0.0
 10
327.2403529674
 20
98.9236054299
 30
0.0
 10
323.7201244281
 20
99.9004707601
 30
0.0
 10
321.0975415352
 20
100.9227776134
 30
0.0
 10
319.2846638831
 20
101.8529989667
 30
0.0
 10
318.1264832196
 20
102.5664748335
 30
0.0
 10
317.1290962919
 20
103.3157092323
 30
0.0
 10
316.2993078992
 20
104.0962435242
 30
0.0
 10
315.6433429093
 20
104.9039854755
 30
0.0
 10
315.166899767
 20
105.7349497294
 30
0.0
 10
314.8766619879
 20
106.5839319934
 30
0.0
 10
314.8107640768
 20
107.1619525722
 30
0.0
 10
314.8105903572
 20
107.4443458247
 30
0.0
  0
SPLINE
  5
4A1
330
221
100
AcDbEntity
  8
7_ALL_FEATURES
  6
Continuous
 62
     7
100
AcDbSpline
 70
     0
 71
     3
 72
    27
 73
    23
 74
     0
 42
0.000000001
 43
0.0000001
 40
0.0
 40
0.0
 40
0.0
 40
0.0
 40
0.0477848983
 40
0.1039994331
 40
0.1680795222
 40
0.2388814118
 40
0.3148856286
 40
0.3943205893
 40
0.4752632256
 40
0.5557264791
 40
0.6337434104
 40
0.707452448
 40
0.7751894538
 40
0.8355978191
 40
0.8627677111
 40
0.8878216587
 40
0.9107623
 40
0.9316637447
 40
0.9506901498
 40
0.9681232733
 40
0.9843774805
 40
1.0
 40
1.0
 40
1.0
 40
1.0
 10
364.2974487637
 20
98.9096234597
 30
0.0
 10
363.6410068233
 20
98.3482248399
 30
0.0
 10
362.0664705796
 20
97.296861475
 30
0.0
 10
359.3061775661
 20
96.0109194947
 30
0.0
 10
356.0229082524
 20
94.9171393214
 30
0.0
 10
352.3070080255
 20
94.0476377812
 30
0.0
 10
348.2611039356
 20
93.4270881227
 30
0.0
 10
343.999670278
 20
93.073976497
 30
0.0
 10
339.6438368257
 20
92.9987038489
 30
0.0
 10
335.3177662369
 20
93.2035207215
 30
0.0
 10
331.144762349
 20
93.6823508384
 30
0.0
 10
327.2429245773
 20
94.4210093008
 30
0.0
 10
323.722696038
 20
95.397874631
 30
0.0
 10
321.1001131451
 20
96.4201814843
 30
0.0
 10
319.287235493
 20
97.3504028376
 30
0.0
 10
318.1290548295
 20
98.0638787044
 30
0.0
 10
317.1316679018
 20
98.8131131032
 30
0.0
 10
316.301879509
 20
99.5936473951
 30
0.0
 10
315.6459145192
 20
100.4013893464
 30
0.0
 10
315.1694713769
 20
101.2323536003
 30
0.0
 10
314.8792335978
 20
102.0813358643
 30
0.0
 10
314.8133356867
 20
102.6593564431
 30
0.0
 10
314.8131619671
 20
102.9417496956
 30
0.0
  0
SPLINE
  5
4A2
330
221
100
AcDbEntity
  8
7_ALL_FEATURES
  6
Continuous
 62
     7
100
AcDbSpline
 70
     0
 71
     3
 72
    27
 73
    23
 74
     0
 42
0.000000001
 43
0.0000001
 40
0.0
 40
0.0
 40
0.0
 40
0.0
 40
0.0477848983
 40
0.1039994331
 40
0.1680795222
 40
0.2388814118
 40
0.3148856286
 40
0.3943205893
 40
0.4752632256
 40
0.5557264791
 40
0.6337434104
 40
0.707452448
 40
0.7751894538
 40
0.8355978191
 40
0.8627677111
 40
0.8878216587
 40
0.9107623
 40
0.9316637447
 40
0.9506901498
 40
0.9681232733
 40
0.9843774805
 40
1.0
 40
1.0
 40
1.0
 40
1.0
 10
364.2923055439
 20
107.9148157179
 30
0.0
 10
363.6358636035
 20
107.3534170981
 30
0.0
 10
362.0613273598
 20
106.3020537332
 30
0.0
 10
359.3010343463
 20
105.0161117529
 30
0.0
 10
356.0177650326
 20
103.9223315796
 30
0.0
 10
352.3018648057
 20
103.0528300393
 30
0.0
 10
348.2559607158
 20
102.4322803809
 30
0.0
 10
343.9945270582
 20
102.0791687552
 30
0.0
 10
339.6386936059
 20
102.0038961071
 30
0.0
 10
335.3126230171
 20
102.2087129797
 30
0.0
 10
331.1396191292
 20
102.6875430966
 30
0.0
 10
327.2377813575
 20
103.426201559
 30
0.0
 10
323.7175528182
 20
104.4030668892
 30
0.0
 10
321.0949699253
 20
105.4253737425
 30
0.0
 10
319.2820922732
 20
106.3555950958
 30
0.0
 10
318.1239116097
 20
107.0690709626
 30
0.0
 10
317.126524682
 20
107.8183053614
 30
0.0
 10
316.2967362893
 20
108.5988396533
 30
0.0
 10
315.6407712994
 20
109.4065816046
 30
0.0
 10
315.1643281571
 20
110.2375458585
 30
0.0
 10
314.874090378
 20
111.0865281225
 30
0.0
 10
314.8081924669
 20
111.6645487013
 30
0.0
 10
314.8080187473
 20
111.9469419538
 30
0.0
  0
SPLINE
  5
4A3
330
221
100
AcDbEntity
  8
7_ALL_FEATURES
  6
Continuous
 62
     7
100
AcDbSpline
 70
     0
 71
     3
 72
    17
 73
    13
 74
     0
 42
0.000000001
 43
0.0000001
 40
0.0
 40
0.0
 40
0.0
 40
0.0
 40
0.0409112433
 40
0.0858560815
 40
0.1348047749
 40
0.1876504664
 40
0.3040916156
 40
0.432786455
 40
0.5705280243
 40
0.7136252808
 40
0.8581231312
 40
1.0
 40
1.0
 40
1.0
 40
1.0
 10
364.2871623241
 20
116.9200079761
 30
0.0
 10
363.9518086782
 20
116.6332086989
 30
0.0
 10
363.2101995254
 20
116.0749804994
 30
0.0
 10
361.9675086094
 20
115.316820845
 30
0.0
 10
360.552291439
 20
114.6047119407
 30
0.0
 10
358.3797316952
 20
113.6948702063
 30
0.0
 10
355.3069650135
 20
112.7291255913
 30
0.0
 10
351.2642596566
 20
111.8636816404
 30
0.0
 10
346.8806525061
 20
111.2860346393
 30
0.0
 10
342.2972065229
 20
111.0154888368
 30
0.0
 10
337.6617410809
 20
111.0611470789
 30
0.0
 10
334.5794600383
 20
111.3058728828
 30
0.0
 10
333.0596578813
 20
111.4846029155
 30
0.0
  0
SPLINE
  5
4A4
330
221
100
AcDbEntity
  8
7_ALL_FEATURES
  6
Continuous
 62
     7
100
AcDbSpline
 70
     0
 71
     3
 72
    17
 73
    13
 74
     0
 42
0.000000001
 43
0.0000001
 40
0.0
 40
0.0
 40
0.0
 40
0.0
 40
0.176809769
 40
0.3420734849
 40
0.4928901124
 40
0.6270319654
 40
0.7432490457
 40
0.8417730763
 40
0.885188548
 40
0.9254170796
 40
0.9633237223
 40
1.0
 40
1.0
 40
1.0
 40
1.0
 10
332.151272369
 20
111.5985144991
 30
0.0
 10
330.9270760744
 20
111.761698539
 30
0.0
 10
328.5676325328
 20
112.15222925
 30
0.0
 10
325.2170099271
 20
112.9582008657
 30
0.0
 10
322.2277892702
 20
113.9490521327
 30
0.0
 10
319.6666620261
 20
115.1024393768
 30
0.0
 10
317.5897263195
 20
116.3926629157
 30
0.0
 10
316.2418688956
 20
117.6158342064
 30
0.0
 10
315.4874153902
 20
118.6456491493
 30
0.0
 10
315.0951409374
 20
119.403128051
 30
0.0
 10
314.8569329627
 20
120.1736035883
 30
0.0
 10
314.8030331249
 20
120.6959487394
 30
0.0
 10
314.8028755275
 20
120.952134212
 30
0.0
  0
SPLINE
  5
4A5
330
221
100
AcDbEntity
  8
7_ALL_FEATURES
  6
Continuous
 62
     7
100
AcDbSpline
 70
     0
 71
     3
 72
    10
 73
     6
 74
     0
 42
0.000000001
 43
0.0000001
 40
0.0
 40
0.0
 40
0.0
 40
0.0
 40
0.2190103453
 40
0.4588797391
 40
1.0
 40
1.0
 40
1.0
 40
1.0
 10
364.2845907142
 20
121.4226041052
 30
0.0
 10
363.9617237538
 20
121.1464836217
 30
0.0
 10
363.2501831705
 20
120.6083034126
 30
0.0
 10
361.5975899715
 20
119.5889520328
 30
0.0
 10
360.2142711649
 20
118.9549060772
 30
0.0
 10
359.2380810649
 20
118.5690977148
 30
0.0
  0
SPLINE
  5
4A6
330
221
100
AcDbEntity
  8
7_ALL_FEATURES
  6
Continuous
 62
     7
100
AcDbSpline
 70
     0
 71
     3
 72
    15
 73
    11
 74
     0
 42
0.000000001
 43
0.0000001
 40
0.0
 40
0.0
 40
0.0
 40
0.0
 40
0.1097941579
 40
0.2322509894
 40
0.3636394653
 40
0.4996539822
 40
0.6357153031
 40
0.7672410684
 40
0.8899184474
 40
1.0
 40
1.0
 40
1.0
 40
1.0
 10
359.2380810649
 20
118.5690977148
 30
0.0
 10
357.9544267709
 20
118.0617738227
 30
0.0
 10
355.1619654212
 20
117.1813295216
 30
0.0
 10
350.6789590598
 20
116.2576525256
 30
0.0
 10
345.8057495501
 20
115.6849185743
 30
0.0
 10
340.7326431749
 20
115.4868093401
 30
0.0
 10
335.6573018205
 20
115.6713868042
 30
0.0
 10
330.7774870499
 20
116.2311867173
 30
0.0
 10
326.2837955916
 20
117.1429615931
 30
0.0
 10
323.4822677886
 20
118.0156072469
 30
0.0
 10
322.1932922326
 20
118.5192685202
 30
0.0
  0
LINE
  5
4A7
330
221
100
AcDbEntity
  8
7_ALL_FEATURES
  6
Continuous
 62
     7
100
AcDbLine
 10
322.1932922326
 20
118.5192685202
 30
0.0
 11
322.1529325162
 21
118.5350742374
 31
0.0
  0
SPLINE
  5
4A8
330
221
100
AcDbEntity
  8
7_ALL_FEATURES
  6
Continuous
 62
     7
100
AcDbSpline
 70
     0
 71
     3
 72
    14
 73
    10
 74
     0
 42
0.000000001
 43
0.0000001
 40
0.0
 40
0.0
 40
0.0
 40
0.0
 40
0.3230784648
 40
0.4648266298
 40
0.5932807041
 40
0.7091139081
 40
0.8137485988
 40
0.9095678747
 40
1.0
 40
1.0
 40
1.0
 40
1.0
 10
322.1529325162
 20
118.5350742374
 30
0.0
 10
321.1091647899
 20
118.9447518028
 30
0.0
 10
319.6355631714
 20
119.621470033
 30
0.0
 10
317.894128637
 20
120.7252912731
 30
0.0
 10
316.8419898124
 20
121.5597209214
 30
0.0
 10
315.9949324263
 20
122.430821431
 30
0.0
 10
315.361087827
 20
123.334134629
 30
0.0
 10
314.9492179892
 20
124.2637218305
 30
0.0
 10
314.8273662647
 20
124.905992215
 30
0.0
 10
314.807747813
 20
125.2192355227
 30
0.0
  0
SPLINE
  5
4A9
330
221
100
AcDbEntity
  8
7_ALL_FEATURES
  6
Continuous
 62
     7
100
AcDbSpline
 70
     0
 71
     3
 72
    16
 73
    12
 74
     0
 42
0.000000001
 43
0.0000001
 40
0.0
 40
0.0
 40
0.0
 40
0.0
 40
0.0395456561
 40
0.0800478164
 40
0.167086499
 40
0.2666757066
 40
0.3817030725
 40
0.5132025772
 40
0.6609201111
 40
0.823776385
 40
1.0
 40
1.0
 40
1.0
 40
1.0
 10
314.8054350335
 20
116.4505286129
 30
0.0
 10
314.8055455024
 20
116.2340085855
 30
0.0
 10
314.8436711726
 20
115.7948663106
 30
0.0
 10
315.0744836099
 20
114.9058286089
 30
0.0
 10
315.6734524499
 20
113.7949663914
 30
0.0
 10
316.7947733515
 20
112.5671209124
 30
0.0
 10
318.3089573762
 20
111.4147511319
 30
0.0
 10
320.1930269576
 20
110.3510417158
 30
0.0
 10
322.4184121644
 20
109.389854737
 30
0.0
 10
324.9496788807
 20
108.5468519056
 30
0.0
 10
326.7505294848
 20
108.0888888753
 30
0.0
 10
327.6924588879
 20
107.8797951984
 30
0.0
  0
SPLINE
  5
4AA
330
221
100
AcDbEntity
  8
7_ALL_FEATURES
  6
Continuous
 62
     7
100
AcDbSpline
 70
     0
 71
     3
 72
    11
 73
     7
 74
     0
 42
0.000000001
 43
0.0000001
 40
0.0
 40
0.0
 40
0.0
 40
0.0
 40
0.219933868
 40
0.4532805875
 40
0.7109566891
 40
1.0
 40
1.0
 40
1.0
 40
1.0
 10
366.5631167275
 20
102.9723531819
 30
0.0
 10
366.5633328575
 20
102.6210188618
 30
0.0
 10
366.460543671
 20
101.8934805199
 30
0.0
 10
366.0095204413
 20
100.8395754664
 30
0.0
 10
365.2768358927
 20
99.8218880605
 30
0.0
 10
364.6483571931
 20
99.2097254121
 30
0.0
 10
364.2974487637
 20
98.9096234597
 30
0.0
  0
SPLINE
  5
4AB
330
221
100
AcDbEntity
  8
7_ALL_FEATURES
  6
Continuous
 62
     7
100
AcDbSpline
 70
     0
 71
     3
 72
    11
 73
     7
 74
     0
 42
0.000000001
 43
0.0000001
 40
0.0
 40
0.0
 40
0.0
 40
0.0
 40
0.219933868
 40
0.4532805875
 40
0.7109566891
 40
1.0
 40
1.0
 40
1.0
 40
1.0
 10
366.5605451176
 20
107.474949311
 30
0.0
 10
366.5607612476
 20
107.1236149909
 30
0.0
 10
366.4579720611
 20
106.3960766489
 30
0.0
 10
366.0069488315
 20
105.3421715955
 30
0.0
 10
365.2742642828
 20
104.3244841896
 30
0.0
 10
364.6457855832
 20
103.7123215412
 30
0.0
 10
364.2948771538
 20
103.4122195888
 30
0.0
  0
SPLINE
  5
4AC
330
221
100
AcDbEntity
  8
7_ALL_FEATURES
  6
Continuous
 62
     7
100
AcDbSpline
 70
     0
 71
     3
 72
    11
 73
     7
 74
     0
 42
0.000000001
 43
0.0000001
 40
0.0
 40
0.0
 40
0.0
 40
0.0
 40
0.219933868
 40
0.4532805875
 40
0.7109566891
 40
1.0
 40
1.0
 40
1.0
 40
1.0
 10
366.550258678
 20
125.4853338274
 30
0.0
 10
366.5504748081
 20
125.1339995073
 30
0.0
 10
366.4476856216
 20
124.4064611653
 30
0.0
 10
365.9966623919
 20
123.3525561119
 30
0.0
 10
365.2639778432
 20
122.334868706
 30
0.0
 10
364.6354991437
 20
121.7227060576
 30
0.0
 10
364.2845907142
 20
121.4226041052
 30
0.0
  0
SPLINE
  5
4AD
330
221
100
AcDbEntity
  8
7_ALL_FEATURES
  6
Continuous
 62
     7
100
AcDbSpline
 70
     0
 71
     3
 72
    11
 73
     7
 74
     0
 42
0.000000001
 43
0.0000001
 40
0.0
 40
0.0
 40
0.0
 40
0.0
 40
0.219933868
 40
0.4532805875
 40
0.7109566891
 40
1.0
 40
1.0
 40
1.0
 40
1.0
 10
366.5528302879
 20
120.9827376983
 30
0.0
 10
366.553046418
 20
120.6314033782
 30
0.0
 10
366.4502572314
 20
119.9038650362
 30
0.0
 10
365.9992340018
 20
118.8499599828
 30
0.0
 10
365.2665494531
 20
117.8322725769
 30
0.0
 10
364.6380707535
 20
117.2201099285
 30
0.0
 10
364.2871623241
 20
116.9200079761
 30
0.0
  0
SPLINE
  5
4AE
330
221
100
AcDbEntity
  8
7_ALL_FEATURES
  6
Continuous
 62
     7
100
AcDbSpline
 70
     0
 71
     3
 72
    11
 73
     7
 74
     0
 42
0.000000001
 43
0.0000001
 40
0.0
 40
0.0
 40
0.0
 40
0.0
 40
0.219933868
 40
0.4532805875
 40
0.7109566891
 40
1.0
 40
1.0
 40
1.0
 40
1.0
 10
366.5579735077
 20
111.9775454401
 30
0.0
 10
366.5581896378
 20
111.62621112
 30
0.0
 10
366.4554004512
 20
110.898672778
 30
0.0
 10
366.0043772216
 20
109.8447677246
 30
0.0
 10
365.2716926729
 20
108.8270803187
 30
0.0
 10
364.6432139733
 20
108.2149176703
 30
0.0
 10
364.2923055439
 20
107.9148157179
 30
0.0
  0
SPLINE
  5
4AF
330
221
100
AcDbEntity
  8
02___PRT_ALL_AXES
  6
Continuous
 62
     7
100
AcDbSpline
 70
     0
 71
     3
 72
     9
 73
     5
 74
     0
 42
0.000000001
 43
0.0000001
 40
0.0
 40
0.0
 40
0.0
 40
0.0
 40
0.4767670083
 40
1.0
 40
1.0
 40
1.0
 40
1.0
 10
366.3498703952
 20
153.8504796983
 30
0.0
 10
366.3499038687
 20
153.784982031
 30
0.0
 10
366.3756070059
 20
153.6467837191
 30
0.0
 10
366.4440049627
 20
153.5252542532
 30
0.0
 10
366.4861077774
 20
153.466994079
 30
0.0
  0
SPLINE
  5
4B0
330
221
100
AcDbEntity
  8
02___PRT_ALL_AXES
  6
Continuous
 62
     7
100
AcDbSpline
 70
     0
 71
     3
 72
     9
 73
     5
 74
     0
 42
0.000000001
 43
0.0000001
 40
0.0
 40
0.0
 40
0.0
 40
0.0
 40
0.240812056
 40
1.0
 40
1.0
 40
1.0
 40
1.0
 10
366.4861077774
 20
153.466994079
 30
0.0
 10
366.494008539
 20
153.4560613243
 30
0.0
 10
366.5278051869
 20
153.4113782837
 30
0.0
 10
366.5653299488
 20
153.3695622335
 30
0.0
 10
366.5953050624
 20
153.339398296
 30
0.0
  0
SPLINE
  5
4B1
330
221
100
AcDbEntity
  8
02___PRT_ALL_AXES
  6
Continuous
 62
     7
100
AcDbSpline
 70
     0
 71
     3
 72
     9
 73
     5
 74
     0
 42
0.000000001
 43
0.0000001
 40
0.0
 40
0.0
 40
0.0
 40
0.0
 40
0.258601885
 40
1.0
 40
1.0
 40
1.0
 40
1.0
 10
363.7289821787
 20
149.2590322407
 30
0.0
 10
363.7731134703
 20
149.1752574807
 30
0.0
 10
363.9339440278
 20
148.8463020506
 30
0.0
 10
364.052921751
 20
148.4962928935
 30
0.0
 10
364.1111242813
 20
148.2311406394
 30
0.0
  0
SPLINE
  5
4B2
330
221
100
AcDbEntity
  8
02___PRT_ALL_AXES
  6
Continuous
 62
     7
100
AcDbSpline
 70
     0
 71
     3
 72
    11
 73
     7
 74
     0
 42
0.000000001
 43
0.0000001
 40
0.0
 40
0.0
 40
0.0
 40
0.0
 40
0.2377420206
 40
0.4999059441
 40
0.7621216464
 40
1.0
 40
1.0
 40
1.0
 40
1.0
 10
312.8509921875
 20
143.9430402089
 30
0.0
 10
312.6015355966
 20
144.0183910303
 30
0.0
 10
312.0612478573
 20
144.1251603665
 30
0.0
 10
311.2254922213
 20
144.1764547981
 30
0.0
 10
310.3896284734
 20
144.1246033972
 30
0.0
 10
309.8491863552
 20
144.0175462568
 30
0.0
 10
309.5996285285
 20
143.942013931
 30
0.0
  0
SPLINE
  5
4B3
330
221
100
AcDbEntity
  8
02___PRT_ALL_AXES
  6
Continuous
 62
     7
100
AcDbSpline
 70
     0
 71
     3
 72
    11
 73
     7
 74
     0
 42
0.000000001
 43
0.0000001
 40
0.0
 40
0.0
 40
0.0
 40
0.0
 40
0.2377420206
 40
0.4999059441
 40
0.7621216464
 40
1.0
 40
1.0
 40
1.0
 40
1.0
 10
371.7276637248
 20
152.5650603785
 30
0.0
 10
371.4782071338
 20
152.6404111998
 30
0.0
 10
370.9379193946
 20
152.747180536
 30
0.0
 10
370.1021637586
 20
152.7984749677
 30
0.0
 10
369.2663000107
 20
152.7466235668
 30
0.0
 10
368.7258578924
 20
152.6395664264
 30
0.0
 10
368.4763000658
 20
152.5640341006
 30
0.0
  0
SPLINE
  5
4B4
330
221
100
AcDbEntity
  8
02___PRT_ALL_AXES
  6
Continuous
 62
     7
100
AcDbSpline
 70
     0
 71
     3
 72
    17
 73
    13
 74
     0
 42
0.000000001
 43
0.0000001
 40
0.0
 40
0.0
 40
0.0
 40
0.0
 40
0.041992187
 40
0.0910996458
 40
0.209367596
 40
0.3490649802
 40
0.5002755569
 40
0.6514435648
 40
0.7910169397
 40
0.9091084623
 40
0.9580889483
 40
1.0
 40
1.0
 40
1.0
 40
1.0
 10
307.7186335251
 20
144.7173781264
 30
0.0
 10
307.7915625542
 20
144.6439896913
 30
0.0
 10
307.9690492842
 20
144.5038518505
 30
0.0
 10
308.4207287285
 20
144.2519718204
 30
0.0
 10
309.14318159
 20
144.0090491102
 30
0.0
 10
310.1379197897
 20
143.8322279443
 30
0.0
 10
311.2280305408
 20
143.7721927824
 30
0.0
 10
312.3177121276
 20
143.8343632904
 30
0.0
 10
313.3112692758
 20
144.0130628204
 30
0.0
 10
314.0321137436
 20
144.2574994275
 30
0.0
 10
314.4822559786
 20
144.5102068028
 30
0.0
 10
314.6587893169
 20
144.650747365
 30
0.0
 10
314.7312483411
 20
144.7243195743
 30
0.0
  0
SPLINE
  5
4B5
330
221
100
AcDbEntity
  8
02___PRT_ALL_AXES
  6
Continuous
 62
     7
100
AcDbSpline
 70
     0
 71
     3
 72
     9
 73
     5
 74
     0
 42
0.000000001
 43
0.0000001
 40
0.0
 40
0.0
 40
0.0
 40
0.0
 40
0.2595448351
 40
1.0
 40
1.0
 40
1.0
 40
1.0
 10
314.7312483411
 20
144.7243195743
 30
0.0
 10
314.7411417791
 20
144.7343650049
 30
0.0
 10
314.7785959704
 20
144.7737115086
 30
0.0
 10
314.8132993249
 20
144.8157233397
 30
0.0
 10
314.8368597968
 20
144.8483250078
 30
0.0
  0
SPLINE
  5
4B6
330
221
100
AcDbEntity
  8
02___PRT_ALL_AXES
  6
Continuous
 62
     7
100
AcDbSpline
 70
     0
 71
     3
 72
     9
 73
     5
 74
     0
 42
0.000000001
 43
0.0000001
 40
0.0
 40
0.0
 40
0.0
 40
0.0
 40
0.2637635245
 40
1.0
 40
1.0
 40
1.0
 40
1.0
 10
314.8368597968
 20
144.8483250078
 30
0.0
 10
314.8492099786
 20
144.8654145013
 30
0.0
 10
314.8938133208
 20
144.9317333779
 30
0.0
 10
314.9288414299
 20
145.0048470602
 30
0.0
 10
314.9464445571
 20
145.0610069297
 30
0.0
  0
SPLINE
  5
4B7
330
221
100
AcDbEntity
  8
02___PRT_ALL_AXES
  6
Continuous
 62
     7
100
AcDbSpline
 70
     0
 71
     3
 72
     9
 73
     5
 74
     0
 42
0.000000001
 43
0.0000001
 40
0.0
 40
0.0
 40
0.0
 40
0.0
 40
0.2547689893
 40
1.0
 40
1.0
 40
1.0
 40
1.0
 10
314.9464445571
 20
145.0610069297
 30
0.0
 10
314.9508685116
 20
145.0751208255
 30
0.0
 10
314.9662563967
 20
145.1311151652
 30
0.0
 10
314.9732178677
 20
145.189462211
 30
0.0
 10
314.9731957562
 20
145.2327276967
 30
0.0
  0
SPLINE
  5
4B8
330
221
100
AcDbEntity
  8
02___PRT_ALL_AXES
  6
Continuous
 62
     7
100
AcDbSpline
 70
     0
 71
     3
 72
    17
 73
    13
 74
     0
 42
0.000000001
 43
0.0000001
 40
0.0
 40
0.0
 40
0.0
 40
0.0
 40
0.041992187
 40
0.0910996458
 40
0.209367596
 40
0.3490649802
 40
0.5002755569
 40
0.6514435648
 40
0.7910169397
 40
0.9091084623
 40
0.9580889483
 40
1.0
 40
1.0
 40
1.0
 40
1.0
 10
366.5953050624
 20
153.339398296
 30
0.0
 10
366.6682340914
 20
153.2660098608
 30
0.0
 10
366.8457208215
 20
153.1258720201
 30
0.0
 10
367.2974002657
 20
152.87399199
 30
0.0
 10
368.0198531272
 20
152.6310692798
 30
0.0
 10
369.014591327
 20
152.4542481139
 30
0.0
 10
370.1047020781
 20
152.3942129519
 30
0.0
 10
371.1943836649
 20
152.4563834599
 30
0.0
 10
372.1879408131
 20
152.6350829899
 30
0.0
 10
372.9087852809
 20
152.879519597
 30
0.0
 10
373.3589275159
 20
153.1322269723
 30
0.0
 10
373.5354608542
 20
153.2727675346
 30
0.0
 10
373.6079198784
 20
153.3463397439
 30
0.0
  0
SPLINE
  5
4B9
330
221
100
AcDbEntity
  8
02___PRT_ALL_AXES
  6
Continuous
 62
     7
100
AcDbSpline
 70
     0
 71
     3
 72
     9
 73
     5
 74
     0
 42
0.000000001
 43
0.0000001
 40
0.0
 40
0.0
 40
0.0
 40
0.0
 40
0.2595448351
 40
1.0
 40
1.0
 40
1.0
 40
1.0
 10
373.6079198784
 20
153.3463397439
 30
0.0
 10
373.6178133164
 20
153.3563851745
 30
0.0
 10
373.6552675077
 20
153.3957316782
 30
0.0
 10
373.6899708622
 20
153.4377435092
 30
0.0
 10
373.713531334
 20
153.4703451774
 30
0.0
  0
SPLINE
  5
4BA
330
221
100
AcDbEntity
  8
02___PRT_ALL_AXES
  6
Continuous
 62
     7
100
AcDbSpline
 70
     0
 71
     3
 72
     9
 73
     5
 74
     0
 42
0.000000001
 43
0.0000001
 40
0.0
 40
0.0
 40
0.0
 40
0.0
 40
0.2637635245
 40
1.0
 40
1.0
 40
1.0
 40
1.0
 10
373.713531334
 20
153.4703451774
 30
0.0
 10
373.7258815159
 20
153.4874346709
 30
0.0
 10
373.7704848581
 20
153.5537535475
 30
0.0
 10
373.8055129672
 20
153.6268672298
 30
0.0
 10
373.8231160944
 20
153.6830270993
 30
0.0
  0
SPLINE
  5
4BB
330
221
100
AcDbEntity
  8
02___PRT_ALL_AXES
  6
Continuous
 62
     7
100
AcDbSpline
 70
     0
 71
     3
 72
     9
 73
     5
 74
     0
 42
0.000000001
 43
0.0000001
 40
0.0
 40
0.0
 40
0.0
 40
0.0
 40
0.2547689893
 40
1.0
 40
1.0
 40
1.0
 40
1.0
 10
373.8231160944
 20
153.6830270993
 30
0.0
 10
373.8275400488
 20
153.6971409951
 30
0.0
 10
373.842927934
 20
153.7531353347
 30
0.0
 10
373.849889405
 20
153.8114823805
 30
0.0
 10
373.8498672935
 20
153.8547478662
 30
0.0
  0
SPLINE
  5
4BC
330
221
100
AcDbEntity
  8
7_ALL_FEATURES
  6
Continuous
 62
     7
100
AcDbSpline
 70
     0
 71
     3
 72
    10
 73
     6
 74
     0
 42
0.000000001
 43
0.0000001
 40
0.0
 40
0.0
 40
0.0
 40
0.0
 40
0.5300879578
 40
0.7692526307
 40
1.0
 40
1.0
 40
1.0
 40
1.0
 10
318.3459213751
 20
146.322906042
 30
0.0
 10
317.9781857347
 20
146.7442641953
 30
0.0
 10
317.5110305268
 20
147.4307986951
 30
0.0
 10
317.1844326411
 20
148.4400182261
 30
0.0
 10
317.1307265972
 20
148.9373042449
 30
0.0
 10
317.13053196
 20
149.1807503047
 30
0.0
  0
SPLINE
  5
4BD
330
221
100
AcDbEntity
  8
02___PRT_ALL_AXES
  6
Continuous
 62
     7
100
AcDbSpline
 70
     0
 71
     3
 72
     9
 73
     5
 74
     0
 42
0.000000001
 43
0.0000001
 40
0.0
 40
0.0
 40
0.0
 40
0.0
 40
0.2461148717
 40
1.0
 40
1.0
 40
1.0
 40
1.0
 10
317.2337631556
 20
148.2919249878
 30
0.0
 10
317.2459636223
 20
148.3419626159
 30
0.0
 10
317.2997402174
 20
148.5442330978
 30
0.0
 10
317.3701362854
 20
148.7420145731
 30
0.0
 10
317.4312672246
 20
148.8874521711
 30
0.0
  0
SPLINE
  5
4BE
330
221
100
AcDbEntity
  8
7_ALL_FEATURES
  6
Continuous
 62
     7
100
AcDbSpline
 70
     0
 71
     3
 72
    11
 73
     7
 74
     0
 42
0.000000001
 43
0.0000001
 40
0.0
 40
0.0
 40
0.0
 40
0.0
 40
0.2233464559
 40
0.4584507238
 40
0.7150485599
 40
1.0
 40
1.0
 40
1.0
 40
1.0
 10
364.1929298453
 20
149.2097120594
 30
0.0
 10
364.19316579
 20
148.9146035148
 30
0.0
 10
364.1142749471
 20
148.3062841755
 30
0.0
 10
363.7653558382
 20
147.4198282417
 30
0.0
 10
363.1959843444
 20
146.5588082116
 30
0.0
 10
362.7033653163
 20
146.0354357305
 30
0.0
 10
362.4281767304
 20
145.7784742676
 30
0.0
  0
SPLINE
  5
4BF
330
221
100
AcDbEntity
  8
02___PRT_ALL_AXES
  6
Continuous
 62
     7
100
AcDbSpline
 70
     0
 71
     3
 72
     9
 73
     5
 74
     0
 42
0.000000001
 43
0.0000001
 40
0.0
 40
0.0
 40
0.0
 40
0.0
 40
0.4767670083
 40
1.0
 40
1.0
 40
1.0
 40
1.0
 10
307.4731988579
 20
145.2284595287
 30
0.0
 10
307.4732323314
 20
145.1629618614
 30
0.0
 10
307.4989354687
 20
145.0247635495
 30
0.0
 10
307.5673334254
 20
144.9032340837
 30
0.0
 10
307.6094362402
 20
144.8449739094
 30
0.0
  0
SPLINE
  5
4C0
330
221
100
AcDbEntity
  8
02___PRT_ALL_AXES
  6
Continuous
 62
     7
100
AcDbSpline
 70
     0
 71
     3
 72
     9
 73
     5
 74
     0
 42
0.000000001
 43
0.0000001
 40
0.0
 40
0.0
 40
0.0
 40
0.0
 40
0.240812056
 40
1.0
 40
1.0
 40
1.0
 40
1.0
 10
307.6094362402
 20
144.8449739094
 30
0.0
 10
307.6173370017
 20
144.8340411547
 30
0.0
 10
307.6511336496
 20
144.7893581141
 30
0.0
 10
307.6886584115
 20
144.747542064
 30
0.0
 10
307.7186335251
 20
144.7173781264
 30
0.0
  0
SPLINE
  5
4C1
330
221
100
AcDbEntity
  8
7_ALL_FEATURES
  6
Continuous
 62
     7
100
AcDbSpline
 70
     0
 71
     3
 72
    21
 73
    17
 74
     0
 42
0.000000001
 43
0.0000001
 40
0.0
 40
0.0
 40
0.0
 40
0.0
 40
0.043883673
 40
0.0943474957
 40
0.1511130919
 40
0.2135482876
 40
0.2807738286
 40
0.3517340611
 40
0.5000048917
 40
0.6482748109
 40
0.7192336415
 40
0.7864575106
 40
0.8488904308
 40
0.9056544276
 40
0.9561117574
 40
1.0
 40
1.0
 40
1.0
 40
1.0
 10
362.4139048949
 20
145.7507534306
 30
0.0
 10
361.9044644734
 20
145.3221691836
 30
0.0
 10
360.7181824296
 20
144.5081630096
 30
0.0
 10
358.6665701843
 20
143.4752806065
 30
0.0
 10
356.2556142418
 20
142.5626610896
 30
0.0
 10
353.5324599622
 20
141.7888725368
 30
0.0
 10
350.5502427834
 20
141.1691984824
 30
0.0
 10
346.2454092077
 20
140.5573149759
 30
0.0
 10
340.6661269492
 20
140.2580483201
 30
0.0
 10
335.0865327264
 20
140.5510563141
 30
0.0
 10
330.7810782831
 20
141.1581222726
 30
0.0
 10
327.7982497845
 20
141.7744483168
 30
0.0
 10
325.074325206
 20
142.5452169222
 30
0.0
 10
322.6625168855
 20
143.4551284288
 30
0.0
 10
320.6098122955
 20
144.4857370456
 30
0.0
 10
319.4227385647
 20
145.2985332652
 30
0.0
 10
318.9127779274
 20
145.7266062219
 30
0.0
  0
SPLINE
  5
4C2
330
221
100
AcDbEntity
  8
02___PRT_ALL_AXES
  6
Continuous
 62
     7
100
AcDbSpline
 70
     0
 71
     3
 72
     9
 73
     5
 74
     0
 42
0.000000001
 43
0.0000001
 40
0.0
 40
0.0
 40
0.0
 40
0.0
 40
0.2428407232
 40
1.0
 40
1.0
 40
1.0
 40
1.0
 10
366.4081576009
 20
153.6177732756
 30
0.0
 10
366.4127145166
 20
153.627582355
 30
0.0
 10
366.432409672
 20
153.6675407772
 30
0.0
 10
366.4556811232
 20
153.7057032447
 30
0.0
 10
366.4748315512
 20
153.7334613358
 30
0.0
  0
SPLINE
  5
4C3
330
221
100
AcDbEntity
  8
02___PRT_ALL_AXES
  6
Continuous
 62
     7
100
AcDbSpline
 70
     0
 71
     3
 72
    17
 73
    13
 74
     0
 42
0.000000001
 43
0.0000001
 40
0.0
 40
0.0
 40
0.0
 40
0.0
 40
0.0381904393
 40
0.0835679339
 40
0.1963242975
 40
0.3339838509
 40
0.4863694916
 40
0.6409257443
 40
0.7847837891
 40
0.9067062044
 40
0.9571327311
 40
1.0
 40
1.0
 40
1.0
 40
1.0
 10
366.4748315512
 20
153.7334613358
 30
0.0
 10
366.5295788888
 20
153.8128163031
 30
0.0
 10
366.6769540567
 20
153.9675035817
 30
0.0
 10
367.0871284199
 20
154.2492496487
 30
0.0
 10
367.7889446069
 20
154.5264051839
 30
0.0
 10
368.7860087087
 20
154.7375491051
 30
0.0
 10
369.9079433061
 20
154.8258836724
 30
0.0
 10
371.0479112093
 20
154.7824336538
 30
0.0
 10
372.0975036929
 20
154.6112875984
 30
0.0
 10
372.8631123733
 20
154.3646407607
 30
0.0
 10
373.3413199005
 20
154.1038145746
 30
0.0
 10
373.5284312916
 20
153.9576930823
 30
0.0
 10
373.6047095689
 20
153.8809343008
 30
0.0
  0
SPLINE
  5
4C4
330
221
100
AcDbEntity
  8
02___PRT_ALL_AXES
  6
Continuous
 62
     7
100
AcDbSpline
 70
     0
 71
     3
 72
    15
 73
    11
 74
     0
 42
0.000000001
 43
0.0000001
 40
0.0
 40
0.0
 40
0.0
 40
0.0
 40
0.0923628105
 40
0.2132619263
 40
0.3559668279
 40
0.5096351616
 40
0.6617889354
 40
0.8001628288
 40
0.9146381551
 40
1.0
 40
1.0
 40
1.0
 40
1.0
 10
313.6771668594
 20
144.2330740812
 30
0.0
 10
313.5629930247
 20
144.3479671378
 30
0.0
 10
313.2348155846
 20
144.5450073707
 30
0.0
 10
312.6403408861
 20
144.739687607
 30
0.0
 10
311.9158476654
 20
144.8609117475
 30
0.0
 10
311.1283333297
 20
144.8947797761
 30
0.0
 10
310.3497274377
 20
144.838669902
 30
0.0
 10
309.6504975043
 20
144.6971307078
 30
0.0
 10
309.0945296856
 20
144.4871670675
 30
0.0
 10
308.7996966662
 20
144.2776782891
 30
0.0
 10
308.7079168841
 20
144.159415974
 30
0.0
  0
SPLINE
  5
4C5
330
221
100
AcDbEntity
  8
02___PRT_ALL_AXES
  6
Continuous
 62
     7
100
AcDbSpline
 70
     0
 71
     3
 72
    17
 73
    13
 74
     0
 42
0.000000001
 43
0.0000001
 40
0.0
 40
0.0
 40
0.0
 40
0.0
 40
0.0428672689
 40
0.0932937956
 40
0.2152162109
 40
0.3590742557
 40
0.5136305084
 40
0.6660161491
 40
0.8036757025
 40
0.9164320661
 40
0.9618095607
 40
1.0
 40
1.0
 40
1.0
 40
1.0
 10
314.7280380316
 20
145.2589141312
 30
0.0
 10
314.6517597544
 20
145.3356729127
 30
0.0
 10
314.4646483632
 20
145.481794405
 30
0.0
 10
313.9864408361
 20
145.7426205911
 30
0.0
 10
313.2208321556
 20
145.9892674288
 30
0.0
 10
312.1712396721
 20
146.1604134842
 30
0.0
 10
311.0312717688
 20
146.2038635029
 30
0.0
 10
309.9093371714
 20
146.1155289356
 30
0.0
 10
308.9122730696
 20
145.9043850143
 30
0.0
 10
308.2104568826
 20
145.6272294791
 30
0.0
 10
307.8002825195
 20
145.3454834122
 30
0.0
 10
307.6529073515
 20
145.1907961336
 30
0.0
 10
307.5981600139
 20
145.1114411663
 30
0.0
  0
SPLINE
  5
4C6
330
221
100
AcDbEntity
  8
02___PRT_ALL_AXES
  6
Continuous
 62
     7
100
AcDbSpline
 70
     0
 71
     3
 72
     9
 73
     5
 74
     0
 42
0.000000001
 43
0.0000001
 40
0.0
 40
0.0
 40
0.0
 40
0.0
 40
0.2577148761
 40
1.0
 40
1.0
 40
1.0
 40
1.0
 10
307.5981600139
 20
145.1114411663
 30
0.0
 10
307.5916419493
 20
145.1019933862
 30
0.0
 10
307.5670573395
 20
145.0648551007
 30
0.0
 10
307.5454146864
 20
145.0257354391
 30
0.0
 10
307.5314860636
 20
144.9957531061
 30
0.0
  0
SPLINE
  5
4C7
330
221
100
AcDbEntity
  8
02___PRT_ALL_AXES
  6
Continuous
 62
     7
100
AcDbSpline
 70
     0
 71
     3
 72
     8
 73
     4
 74
     0
 42
0.000000001
 43
0.0000001
 40
0.0
 40
0.0
 40
0.0
 40
0.0
 40
1.0
 40
1.0
 40
1.0
 40
1.0
 10
313.6771668594
 20
144.2330740812
 30
0.0
 10
313.6994002147
 20
144.21070067
 30
0.0
 10
313.7204691417
 20
144.187068102
 30
0.0
 10
313.7398027314
 20
144.1621461453
 30
0.0
  0
SPLINE
  5
4C8
330
221
100
AcDbEntity
  8
02___PRT_ALL_AXES
  6
Continuous
 62
     7
100
AcDbSpline
 70
     0
 71
     3
 72
     9
 73
     5
 74
     0
 42
0.000000001
 43
0.0000001
 40
0.0
 40
0.0
 40
0.0
 40
0.0
 40
0.259436454
 40
1.0
 40
1.0
 40
1.0
 40
1.0
 10
314.7280380316
 20
145.2589141312
 30
0.0
 10
314.7381227328
 20
145.248765903
 30
0.0
 10
314.776313854
 20
145.2089854669
 30
0.0
 10
314.8116886357
 20
145.1664527546
 30
0.0
 10
314.8356967669
 20
145.1334156544
 30
0.0
  0
SPLINE
  5
4C9
330
221
100
AcDbEntity
  8
02___PRT_ALL_AXES
  6
Continuous
 62
     7
100
AcDbSpline
 70
     0
 71
     3
 72
     9
 73
     5
 74
     0
 42
0.000000001
 43
0.0000001
 40
0.0
 40
0.0
 40
0.0
 40
0.0
 40
0.2597492192
 40
1.0
 40
1.0
 40
1.0
 40
1.0
 10
314.8356967669
 20
145.1334156544
 30
0.0
 10
314.8443683625
 20
145.1214828485
 30
0.0
 10
314.8766567748
 20
145.0747677968
 30
0.0
 10
314.9043476209
 20
145.0247890429
 30
0.0
 10
314.9212894551
 20
144.9863160452
 30
0.0
  0
SPLINE
  5
4CA
330
221
100
AcDbEntity
  8
02___PRT_ALL_AXES
  6
Continuous
 62
     7
100
AcDbSpline
 70
     0
 71
     3
 72
    20
 73
    16
 74
     0
 42
0.000000001
 43
0.0000001
 40
0.0
 40
0.0
 40
0.0
 40
0.0
 40
0.0453319697
 40
0.0993818821
 40
0.161745311
 40
0.2314089803
 40
0.3861756679
 40
0.548802335
 40
0.7028038276
 40
0.7718394723
 40
0.8334602954
 40
0.8866740721
 40
0.9312197445
 40
0.9680405094
 40
1.0
 40
1.0
 40
1.0
 40
1.0
 10
314.727761089
 20
145.743809099
 30
0.0
 10
314.6429038174
 20
145.829200917
 30
0.0
 10
314.4307852099
 20
145.9903909265
 30
0.0
 10
314.0481048226
 20
146.1880727113
 30
0.0
 10
313.5829271165
 20
146.3580784481
 30
0.0
 10
312.8443382211
 20
146.5475678032
 30
0.0
 10
311.8204412363
 20
146.6774939838
 30
0.0
 10
310.5657785352
 20
146.6730361688
 30
0.0
 10
309.546525901
 20
146.5357585754
 30
0.0
 10
308.8151907451
 20
146.3406573758
 30
0.0
 10
308.3575934329
 20
146.1673009992
 30
0.0
 10
307.9830964223
 20
145.9666979992
 30
0.0
 10
307.7011109671
 20
145.7428926991
 30
0.0
 10
307.5185279105
 20
145.4973446852
 30
0.0
 10
307.4731554825
 20
145.3133320577
 30
0.0
 10
307.4731988579
 20
145.2284595287
 30
0.0
  0
SPLINE
  5
4CB
330
221
100
AcDbEntity
  8
02___PRT_ALL_AXES
  6
Continuous
 62
     7
100
AcDbSpline
 70
     0
 71
     3
 72
     9
 73
     5
 74
     0
 42
0.000000001
 43
0.0000001
 40
0.0
 40
0.0
 40
0.0
 40
0.0
 40
0.4621724891
 40
1.0
 40
1.0
 40
1.0
 40
1.0
 10
373.8498672935
 20
153.8547478662
 30
0.0
 10
373.8498217684
 20
153.9438268052
 30
0.0
 10
373.799176025
 20
154.1377841966
 30
0.0
 10
373.6775012855
 20
154.2923003237
 30
0.0
 10
373.6044326263
 20
154.3658292685
 30
0.0
  0
SPLINE
  5
4CC
330
221
100
AcDbEntity
  8
02___PRT_ALL_AXES
  6
Continuous
 62
     7
100
AcDbSpline
 70
     0
 71
     3
 72
     9
 73
     5
 74
     0
 42
0.000000001
 43
0.0000001
 40
0.0
 40
0.0
 40
0.0
 40
0.0
 40
0.2411109735
 40
1.0
 40
1.0
 40
1.0
 40
1.0
 10
373.7979609924
 20
153.6083362148
 30
0.0
 10
373.792442477
 20
153.6208681419
 30
0.0
 10
373.7680117081
 20
153.6721607164
 30
0.0
 10
373.7377048128
 20
153.7205707708
 30
0.0
 10
373.7123683042
 20
153.755435824
 30
0.0
  0
SPLINE
  5
4CD
330
221
100
AcDbEntity
  8
02___PRT_ALL_AXES
  6
Continuous
 62
     7
100
AcDbSpline
 70
     0
 71
     3
 72
     9
 73
     5
 74
     0
 42
0.000000001
 43
0.0000001
 40
0.0
 40
0.0
 40
0.0
 40
0.0
 40
0.2409718853
 40
1.0
 40
1.0
 40
1.0
 40
1.0
 10
373.7123683042
 20
153.755435824
 30
0.0
 10
373.7045560983
 20
153.7661860413
 30
0.0
 10
373.6711845539
 20
153.8101035825
 30
0.0
 10
373.6342149461
 20
153.8512430587
 30
0.0
 10
373.6047095689
 20
153.8809343008
 30
0.0
  0
SPLINE
  5
4CE
330
221
100
AcDbEntity
  8
02___PRT_ALL_AXES
  6
Continuous
 62
     7
100
AcDbSpline
 70
     0
 71
     3
 72
     9
 73
     5
 74
     0
 42
0.000000001
 43
0.0000001
 40
0.0
 40
0.0
 40
0.0
 40
0.0
 40
0.4621724891
 40
1.0
 40
1.0
 40
1.0
 40
1.0
 10
314.9731957562
 20
145.2327276967
 30
0.0
 10
314.9731502311
 20
145.3218066357
 30
0.0
 10
314.9225044877
 20
145.515764027
 30
0.0
 10
314.8008297483
 20
145.6702801541
 30
0.0
 10
314.727761089
 20
145.743809099
 30
0.0
  0
SPLINE
  5
4CF
330
221
100
AcDbEntity
  8
02___PRT_ALL_AXES
  6
Continuous
 62
     7
100
AcDbSpline
 70
     0
 71
     3
 72
    20
 73
    16
 74
     0
 42
0.000000001
 43
0.0000001
 40
0.0
 40
0.0
 40
0.0
 40
0.0
 40
0.0453319697
 40
0.0993818821
 40
0.161745311
 40
0.2314089803
 40
0.3861756679
 40
0.548802335
 40
0.7028038276
 40
0.7718394723
 40
0.8334602954
 40
0.8866740721
 40
0.9312197445
 40
0.9680405094
 40
1.0
 40
1.0
 40
1.0
 40
1.0
 10
373.6044326263
 20
154.3658292685
 30
0.0
 10
373.5195753546
 20
154.4512210866
 30
0.0
 10
373.3074567471
 20
154.612411096
 30
0.0
 10
372.9247763598
 20
154.8100928808
 30
0.0
 10
372.4595986538
 20
154.9800986176
 30
0.0
 10
371.7210097584
 20
155.1695879727
 30
0.0
 10
370.6971127736
 20
155.2995141533
 30
0.0
 10
369.4424500724
 20
155.2950563383
 30
0.0
 10
368.4231974383
 20
155.1577787449
 30
0.0
 10
367.6918622823
 20
154.9626775454
 30
0.0
 10
367.2342649702
 20
154.7893211688
 30
0.0
 10
366.8597679595
 20
154.5887181688
 30
0.0
 10
366.5777825044
 20
154.3649128687
 30
0.0
 10
366.3951994478
 20
154.1193648547
 30
0.0
 10
366.3498270198
 20
153.9353522272
 30
0.0
 10
366.3498703952
 20
153.8504796983
 30
0.0
  0
SPLINE
  5
4D0
330
221
100
AcDbEntity
  8
02___PRT_ALL_AXES
  6
Continuous
 62
     7
100
AcDbSpline
 70
     0
 71
     3
 72
    15
 73
    11
 74
     0
 42
0.000000001
 43
0.0000001
 40
0.0
 40
0.0
 40
0.0
 40
0.0
 40
0.0853618449
 40
0.1998371712
 40
0.3382110646
 40
0.4903648384
 40
0.6440331721
 40
0.7867380737
 40
0.9076371895
 40
1.0
 40
1.0
 40
1.0
 40
1.0
 10
367.5845884214
 20
152.7814361435
 30
0.0
 10
367.6763682035
 20
152.8996984586
 30
0.0
 10
367.9712012229
 20
153.109187237
 30
0.0
 10
368.5271690416
 20
153.3191508774
 30
0.0
 10
369.226398975
 20
153.4606900715
 30
0.0
 10
370.005004867
 20
153.5167999457
 30
0.0
 10
370.7925192027
 20
153.4829319171
 30
0.0
 10
371.5170124234
 20
153.3617077766
 30
0.0
 10
372.1114871218
 20
153.1670275403
 30
0.0
 10
372.4396645619
 20
152.9699873074
 30
0.0
 10
372.5538383967
 20
152.8550942508
 30
0.0
  0
SPLINE
  5
4D1
330
221
100
AcDbEntity
  8
7_ALL_FEATURES
  6
Continuous
 62
     7
100
AcDbSpline
 70
     0
 71
     3
 72
    25
 73
    21
 74
     0
 42
0.000000001
 43
0.0000001
 40
0.0
 40
0.0
 40
0.0
 40
0.0
 40
0.0157355701
 40
0.032132589
 40
0.0497609779
 40
0.0690515976
 40
0.1135648763
 40
0.1667431186
 40
0.2283259334
 40
0.2973169676
 40
0.3722463462
 40
0.4513309133
 40
0.5325911819
 40
0.6139504772
 40
0.6933275169
 40
0.7687298796
 40
0.8383515849
 40
0.9006878512
 40
0.954684096
 40
1.0
 40
1.0
 40
1.0
 40
1.0
 10
317.13053196
 20
149.1807503047
 30
0.0
 10
317.1303221803
 20
149.4431362224
 30
0.0
 10
317.1919645511
 20
149.9808098358
 30
0.0
 10
317.4665923011
 20
150.769820227
 30
0.0
 10
317.917385134
 20
151.5416500574
 30
0.0
 10
318.7874004783
 20
152.5904901754
 30
0.0
 10
320.3303018255
 20
153.8144400354
 30
0.0
 10
322.6785280145
 20
155.0725434522
 30
0.0
 10
325.5504644391
 20
156.160367345
 30
0.0
 10
328.8654617287
 20
157.0459520215
 30
0.0
 10
332.529277149
 20
157.703326628
 30
0.0
 10
336.4342509203
 20
158.1121481307
 30
0.0
 10
340.464857926
 20
158.2598410885
 30
0.0
 10
344.5013101253
 20
158.1418093325
 30
0.0
 10
348.4236401295
 20
157.7617650162
 30
0.0
 10
352.1157341737
 20
157.1313034351
 30
0.0
 10
355.469024958
 20
156.2702069933
 30
0.0
 10
358.3877495997
 20
155.2033074546
 30
0.0
 10
360.7895709617
 20
153.9634676606
 30
0.0
 10
362.1202382192
 20
152.9516629487
 30
0.0
 10
362.6528686238
 20
152.4156773255
 30
0.0
  0
SPLINE
  5
4D2
330
221
100
AcDbEntity
  8
7_ALL_FEATURES
  6
Continuous
 62
     7
100
AcDbSpline
 70
     0
 71
     3
 72
    11
 73
     7
 74
     0
 42
0.000000001
 43
0.0000001
 40
0.0
 40
0.0
 40
0.0
 40
0.0
 40
0.2814060261
 40
0.5372734779
 40
0.7738511267
 40
1.0
 40
1.0
 40
1.0
 40
1.0
 10
362.6528686238
 20
152.4156773255
 30
0.0
 10
362.8938678621
 20
152.1731599407
 30
0.0
 10
363.3251195606
 20
151.6793991244
 30
0.0
 10
363.8208072445
 20
150.8743951743
 30
0.0
 10
364.1237632317
 20
150.0486571119
 30
0.0
 10
364.1927101667
 20
149.484475818
 30
0.0
 10
364.1929298453
 20
149.2097120594
 30
0.0
  0
SPLINE
  5
4D3
330
221
100
AcDbEntity
  8
7_ALL_FEATURES
  6
Continuous
 62
     7
100
AcDbSpline
 70
     0
 71
     3
 72
     9
 73
     5
 74
     0
 42
0.000000001
 43
0.0000001
 40
0.0
 40
0.0
 40
0.0
 40
0.0
 40
0.2655434551
 40
1.0
 40
1.0
 40
1.0
 40
1.0
 10
318.3199389656
 20
146.2698549724
 30
0.0
 10
318.2159911043
 20
146.3744576355
 30
0.0
 10
317.8356539423
 20
146.7789502135
 30
0.0
 10
317.5017867984
 20
147.22950608
 30
0.0
 10
317.3005743674
 20
147.5842975504
 30
0.0
  0
SPLINE
  5
4D4
330
221
100
AcDbEntity
  8
7_ALL_FEATURES
  6
Continuous
 62
     7
100
AcDbSpline
 70
     0
 71
     3
 72
     9
 73
     5
 74
     0
 42
0.000000001
 43
0.0000001
 40
0.0
 40
0.0
 40
0.0
 40
0.0
 40
0.5133680422
 40
1.0
 40
1.0
 40
1.0
 40
1.0
 10
317.2814302428
 20
147.6183662783
 30
0.0
 10
317.1558121882
 20
147.8440025537
 30
0.0
 10
316.9452070113
 20
148.3039320069
 30
0.0
 10
316.8236834974
 20
148.7958799346
 30
0.0
 10
316.7897026211
 20
149.0383077479
 30
0.0
  0
SPLINE
  5
4D5
330
221
100
AcDbEntity
  8
7_ALL_FEATURES
  6
Continuous
 62
     7
100
AcDbSpline
 70
     0
 71
     3
 72
    26
 73
    22
 74
     0
 42
0.000000001
 43
0.0000001
 40
0.0
 40
0.0
 40
0.0
 40
0.0
 40
0.0158011919
 40
0.0318840903
 40
0.0489122498
 40
0.0674220622
 40
0.0877940091
 40
0.1102632976
 40
0.1618304347
 40
0.2221847213
 40
0.2904235635
 40
0.3650906377
 40
0.4443666912
 40
0.526202736
 40
0.6084301643
 40
0.6888622441
 40
0.7653956948
 40
0.8361157989
 40
0.8994201507
 40
0.954175225
 40
1.0
 40
1.0
 40
1.0
 40
1.0
 10
316.7897026211
 20
149.0383077479
 30
0.0
 10
316.7521866869
 20
149.3059555218
 30
0.0
 10
316.738364668
 20
149.8569387222
 30
0.0
 10
316.9128036156
 20
150.6821065166
 30
0.0
 10
317.2775682556
 20
151.4926922389
 30
0.0
 10
317.825406283
 20
152.2818822662
 30
0.0
 10
318.5497816709
 20
153.0456891911
 30
0.0
 10
319.8010387929
 20
154.0716401858
 30
0.0
 10
321.7974651785
 20
155.2373142479
 30
0.0
 10
324.6564651474
 20
156.4039744948
 30
0.0
 10
328.0035953395
 20
157.3647896241
 30
0.0
 10
331.7381426436
 20
158.0896732566
 30
0.0
 10
335.7474656117
 20
158.5557170769
 30
0.0
 10
339.9083133977
 20
158.7479111098
 30
0.0
 10
344.0924230901
 20
158.6600826771
 30
0.0
 10
348.1706371394
 20
158.2950788871
 30
0.0
 10
352.0175908495
 20
157.6645860413
 30
0.0
 10
355.515697628
 20
156.7889750078
 30
0.0
 10
358.5613278962
 20
155.694890421
 30
0.0
 10
361.0649120926
 20
154.4168043133
 30
0.0
 10
362.4506475848
 20
153.3693123037
 30
0.0
 10
363.0031271858
 20
152.8133524225
 30
0.0
  0
SPLINE
  5
4D6
330
221
100
AcDbEntity
  8
02___PRT_ALL_AXES
  6
Continuous
 62
     7
100
AcDbSpline
 70
     0
 71
     3
 72
     8
 73
     4
 74
     0
 42
0.000000001
 43
0.0000001
 40
0.0
 40
0.0
 40
0.0
 40
0.0
 40
1.0
 40
1.0
 40
1.0
 40
1.0
 10
372.6164742687
 20
152.7841663149
 30
0.0
 10
372.597140679
 20
152.8090882716
 30
0.0
 10
372.576071752
 20
152.8327208396
 30
0.0
 10
372.5538383967
 20
152.8550942508
 30
0.0
  0
SPLINE
  5
4D7
330
221
100
AcDbEntity
  8
7_ALL_FEATURES
  6
Continuous
 62
     7
100
AcDbSpline
 70
     0
 71
     3
 72
    11
 73
     7
 74
     0
 42
0.000000001
 43
0.0000001
 40
0.0
 40
0.0
 40
0.0
 40
0.0
 40
0.2826932246
 40
0.5312454531
 40
0.7629056046
 40
1.0
 40
1.0
 40
1.0
 40
1.0
 10
363.0031271858
 20
152.8133524225
 30
0.0
 10
363.3499081933
 20
152.4643869274
 30
0.0
 10
363.9458104633
 20
151.7459054764
 30
0.0
 10
364.5075179677
 20
150.5210712577
 30
0.0
 10
364.6288545369
 20
149.2533490139
 30
0.0
 10
364.4144395695
 20
148.4480185291
 30
0.0
 10
364.2520404428
 20
148.0687074195
 30
0.0
  0
SPLINE
  5
4D8
330
221
100
AcDbEntity
  8
7_ALL_FEATURES
  6
Continuous
 62
     7
100
AcDbSpline
 70
     0
 71
     3
 72
     9
 73
     5
 74
     0
 42
0.000000001
 43
0.0000001
 40
0.0
 40
0.0
 40
0.0
 40
0.0
 40
0.2456968795
 40
1.0
 40
1.0
 40
1.0
 40
1.0
 10
364.2520404428
 20
148.0687074195
 30
0.0
 10
364.2347627531
 20
148.0283524017
 30
0.0
 10
364.161959929
 20
147.8651745529
 30
0.0
 10
364.0794378596
 20
147.7063682394
 30
0.0
 10
364.0125236702
 20
147.5893837656
 30
0.0
  0
SPLINE
  5
4D9
330
221
100
AcDbEntity
  8
7_ALL_FEATURES
  6
Continuous
 62
     7
100
AcDbSpline
 70
     0
 71
     3
 72
     9
 73
     5
 74
     0
 42
0.000000001
 43
0.0000001
 40
0.0
 40
0.0
 40
0.0
 40
0.0
 40
0.2293929567
 40
1.0
 40
1.0
 40
1.0
 40
1.0
 10
364.0125236702
 20
147.5893837656
 30
0.0
 10
363.9197432108
 20
147.427177912
 30
0.0
 10
363.4755104483
 20
146.7427106769
 30
0.0
 10
362.8942685771
 20
146.1548758724
 30
0.0
 10
362.4139048949
 20
145.7507534306
 30
0.0
  0
ENDSEC
  0
SECTION
  2
OBJECTS
  0
DICTIONARY
  5
C
330
0
100
AcDbDictionary
281
     1
  3
ACAD_GROUP
350
D
  3
ACAD_IMAGE_VARS
350
523
  3
ACAD_LAYOUT
350
1A
  3
ACAD_MLINESTYLE
350
17
  3
ACAD_PLOTSETTINGS
350
19
  3
ACAD_PLOTSTYLENAME
350
E
  3
ACAD_SCALELIST
350
4DF
  3
APPDATA
350
521
  3
DWGPROPS
350
568
  0
DICTIONARY
  5
D
102
{ACAD_REACTORS
330
C
102
}
330
C
100
AcDbDictionary
281
     1
  0
RASTERVARIABLES
  5
523
102
{ACAD_REACTORS
330
C
102
}
330
C
100
AcDbRasterVariables
 90
        0
 70
     1
 71
     1
 72
     1
  0
DICTIONARY
  5
1A
102
{ACAD_REACTORS
330
C
102
}
330
C
100
AcDbDictionary
281
     1
  3
Layout1
350
4DC
  3
Model
350
4DB
  0
DICTIONARY
  5
17
102
{ACAD_REACTORS
330
C
102
}
330
C
100
AcDbDictionary
281
     1
  3
Standard
350
18
  0
DICTIONARY
  5
19
102
{ACAD_REACTORS
330
C
102
}
330
C
100
AcDbDictionary
281
     1
  0
ACDBDICTIONARYWDFLT
  5
E
102
{ACAD_REACTORS
330
C
102
}
330
C
100
AcDbDictionary
281
     1
  3
Normal
350
F
100
AcDbDictionaryWithDefault
340
F
  0
DICTIONARY
  5
4DF
102
{ACAD_REACTORS
330
C
102
}
330
C
100
AcDbDictionary
281
     1
  3
A0
350
4E0
  3
A1
350
4E1
  3
A2
350
4E2
  3
A3
350
4E3
  3
A4
350
4E4
  3
A5
350
4E5
  3
A6
350
4E6
  3
A7
350
4E7
  3
A8
350
4E8
  3
A9
350
4E9
  3
B0
350
4EA
  3
B1
350
4EB
  3
B2
350
4EC
  3
B3
350
4ED
  3
B4
350
4EE
  3
B5
350
4EF
  3
B6
350
4F0
  3
B7
350
4F1
  3
B8
350
4F2
  3
B9
350
4F3
  3
C0
350
4F4
  3
C1
350
4F5
  3
C2
350
4F6
  3
C3
350
4F7
  3
C4
350
4F8
  3
C5
350
4F9
  3
C6
350
4FA
  3
C7
350
4FB
  3
C8
350
4FC
  3
C9
350
4FD
  3
D0
350
4FE
  3
D1
350
4FF
  3
D2
350
500
  0
DICTIONARY
  5
521
102
{ACAD_REACTORS
330
C
102
}
330
C
100
AcDbDictionary
281
     1
  0
XRECORD
  5
568
102
{ACAD_REACTORS
330
C
102
}
330
C
100
AcDbXrecord
280
     1
  1
DWGPROPS COOKIE
  2

  3

  4

  6

  7

  8
umberto.novello
  9

300
=
301
=
302
=
303
=
304
=
305
=
306
=
307
=
308
=
309
=
 40
0.0
 41
0.0
 42
2458444.38146544
  1

 90
        0
  0
LAYOUT
  5
4DC
102
{ACAD_REACTORS
330
1A
102
}
330
1A
100
AcDbPlotSettings
  1

  2
none_device
  4
ISO_A3_(420.00_x_297.00_MM)
  6

 40
0.0
 41
0.0
 42
0.0
 43
0.0
 44
420.0
 45
297.0
 46
0.0
 47
0.0
 48
0.0
 49
0.0
140
0.0
141
0.0
142
1.0
143
1.0
 70
     0
 72
     1
 73
     0
 74
     0
  7

 75
     0
147
1.0
148
0.0
149
0.0
100
AcDbLayout
  1
Layout1
 70
     0
 71
     1
 10
0.0
 20
0.0
 11
420.0
 21
297.0
 12
0.0
 22
0.0
 32
0.0
 14
0.0
 24
0.0
 34
0.0
 15
0.0
 25
0.0
 35
0.0
146
0.0
 13
0.0
 23
0.0
 33
0.0
 16
1.0
 26
0.0
 36
0.0
 17
0.0
 27
1.0
 37
0.0
 76
     0
330
222
  0
LAYOUT
  5
4DB
102
{ACAD_REACTORS
330
1A
102
}
330
1A
100
AcDbPlotSettings
  1

  2
none_device
  4
ISO_A3_(420.00_x_297.00_MM)
  6

 40
0.0
 41
0.0
 42
0.0
 43
0.0
 44
420.0
 45
297.0
 46
0.0
 47
0.0
 48
0.0
 49
0.0
140
0.0
141
0.0
142
1.0
143
1.0
 70
  1024
 72
     1
 73
     0
 74
     0
  7

 75
     0
147
1.0
148
0.0
149
0.0
100
AcDbLayout
  1
Model
 70
     0
 71
     0
 10
0.0
 20
0.0
 11
420.0
 21
297.0
 12
0.0
 22
0.0
 32
0.0
 14
0.0
 24
0.0
 34
0.0
 15
0.0
 25
0.0
 35
0.0
146
0.0
 13
0.0
 23
0.0
 33
0.0
 16
1.0
 26
0.0
 36
0.0
 17
0.0
 27
1.0
 37
0.0
 76
     0
330
221
331
1F4
  0
MLINESTYLE
  5
18
102
{ACAD_REACTORS
330
17
102
}
330
17
100
AcDbMlineStyle
  2
STANDARD
 70
     0
  3

 62
   256
 51
90.0
 52
90.0
 71
     2
 49
0.5
 62
   256
  6
BYLAYER
 49
-0.5
 62
   256
  6
BYLAYER
  0
ACDBPLACEHOLDER
  5
F
102
{ACAD_REACTORS
330
E
102
}
330
E
  0
SCALE
  5
4E0
102
{ACAD_REACTORS
330
4DF
102
}
330
4DF
100
AcDbScale
 70
     0
300
1:1
140
1.0
141
1.0
290
     1
  0
SCALE
  5
4E1
102
{ACAD_REACTORS
330
4DF
102
}
330
4DF
100
AcDbScale
 70
     0
300
1:2
140
1.0
141
2.0
290
     0
  0
SCALE
  5
4E2
102
{ACAD_REACTORS
330
4DF
102
}
330
4DF
100
AcDbScale
 70
     0
300
1:4
140
1.0
141
4.0
290
     0
  0
SCALE
  5
4E3
102
{ACAD_REACTORS
330
4DF
102
}
330
4DF
100
AcDbScale
 70
     0
300
1:5
140
1.0
141
5.0
290
     0
  0
SCALE
  5
4E4
102
{ACAD_REACTORS
330
4DF
102
}
330
4DF
100
AcDbScale
 70
     0
300
1:8
140
1.0
141
8.0
290
     0
  0
SCALE
  5
4E5
102
{ACAD_REACTORS
330
4DF
102
}
330
4DF
100
AcDbScale
 70
     0
300
1:10
140
1.0
141
10.0
290
     0
  0
SCALE
  5
4E6
102
{ACAD_REACTORS
330
4DF
102
}
330
4DF
100
AcDbScale
 70
     0
300
1:16
140
1.0
141
16.0
290
     0
  0
SCALE
  5
4E7
102
{ACAD_REACTORS
330
4DF
102
}
330
4DF
100
AcDbScale
 70
     0
300
1:20
140
1.0
141
20.0
290
     0
  0
SCALE
  5
4E8
102
{ACAD_REACTORS
330
4DF
102
}
330
4DF
100
AcDbScale
 70
     0
300
1:30
140
1.0
141
30.0
290
     0
  0
SCALE
  5
4E9
102
{ACAD_REACTORS
330
4DF
102
}
330
4DF
100
AcDbScale
 70
     0
300
1:40
140
1.0
141
40.0
290
     0
  0
SCALE
  5
4EA
102
{ACAD_REACTORS
330
4DF
102
}
330
4DF
100
AcDbScale
 70
     0
300
1:50
140
1.0
141
50.0
290
     0
  0
SCALE
  5
4EB
102
{ACAD_REACTORS
330
4DF
102
}
330
4DF
100
AcDbScale
 70
     0
300
1:100
140
1.0
141
100.0
290
     0
  0
SCALE
  5
4EC
102
{ACAD_REACTORS
330
4DF
102
}
330
4DF
100
AcDbScale
 70
     0
300
2:1
140
2.0
141
1.0
290
     0
  0
SCALE
  5
4ED
102
{ACAD_REACTORS
330
4DF
102
}
330
4DF
100
AcDbScale
 70
     0
300
4:1
140
4.0
141
1.0
290
     0
  0
SCALE
  5
4EE
102
{ACAD_REACTORS
330
4DF
102
}
330
4DF
100
AcDbScale
 70
     0
300
8:1
140
8.0
141
1.0
290
     0
  0
SCALE
  5
4EF
102
{ACAD_REACTORS
330
4DF
102
}
330
4DF
100
AcDbScale
 70
     0
300
10:1
140
10.0
141
1.0
290
     0
  0
SCALE
  5
4F0
102
{ACAD_REACTORS
330
4DF
102
}
330
4DF
100
AcDbScale
 70
     0
300
100:1
140
100.0
141
1.0
290
     0
  0
SCALE
  5
4F1
102
{ACAD_REACTORS
330
4DF
102
}
330
4DF
100
AcDbScale
 70
     0
300
1/128" = 1'-0"
140
0.0078125
141
12.0
290
     0
  0
SCALE
  5
4F2
102
{ACAD_REACTORS
330
4DF
102
}
330
4DF
100
AcDbScale
 70
     0
300
1/64" = 1'-0"
140
0.015625
141
12.0
290
     0
  0
SCALE
  5
4F3
102
{ACAD_REACTORS
330
4DF
102
}
330
4DF
100
AcDbScale
 70
     0
300
1/32" = 1'-0"
140
0.03125
141
12.0
290
     0
  0
SCALE
  5
4F4
102
{ACAD_REACTORS
330
4DF
102
}
330
4DF
100
AcDbScale
 70
     0
300
1/16" = 1'-0"
140
0.0625
141
12.0
290
     0
  0
SCALE
  5
4F5
102
{ACAD_REACTORS
330
4DF
102
}
330
4DF
100
AcDbScale
 70
     0
300
3/32" = 1'-0"
140
0.09375
141
12.0
290
     0
  0
SCALE
  5
4F6
102
{ACAD_REACTORS
330
4DF
102
}
330
4DF
100
AcDbScale
 70
     0
300
1/8" = 1'-0"
140
0.125
141
12.0
290
     0
  0
SCALE
  5
4F7
102
{ACAD_REACTORS
330
4DF
102
}
330
4DF
100
AcDbScale
 70
     0
300
3/16" = 1'-0"
140
0.1875
141
12.0
290
     0
  0
SCALE
  5
4F8
102
{ACAD_REACTORS
330
4DF
102
}
330
4DF
100
AcDbScale
 70
     0
300
1/4" = 1'-0"
140
0.25
141
12.0
290
     0
  0
SCALE
  5
4F9
102
{ACAD_REACTORS
330
4DF
102
}
330
4DF
100
AcDbScale
 70
     0
300
3/8" = 1'-0"
140
0.375
141
12.0
290
     0
  0
SCALE
  5
4FA
102
{ACAD_REACTORS
330
4DF
102
}
330
4DF
100
AcDbScale
 70
     0
300
1/2" = 1'-0"
140
0.5
141
12.0
290
     0
  0
SCALE
  5
4FB
102
{ACAD_REACTORS
330
4DF
102
}
330
4DF
100
AcDbScale
 70
     0
300
3/4" = 1'-0"
140
0.75
141
12.0
290
     0
  0
SCALE
  5
4FC
102
{ACAD_REACTORS
330
4DF
102
}
330
4DF
100
AcDbScale
 70
     0
300
1" = 1'-0"
140
1.0
141
12.0
290
     0
  0
SCALE
  5
4FD
102
{ACAD_REACTORS
330
4DF
102
}
330
4DF
100
AcDbScale
 70
     0
300
1-1/2" = 1'-0"
140
1.5
141
12.0
290
     0
  0
SCALE
  5
4FE
102
{ACAD_REACTORS
330
4DF
102
}
330
4DF
100
AcDbScale
 70
     0
300
3" = 1'-0"
140
3.0
141
12.0
290
     0
  0
SCALE
  5
4FF
102
{ACAD_REACTORS
330
4DF
102
}
330
4DF
100
AcDbScale
 70
     0
300
6" = 1'-0"
140
6.0
141
12.0
290
     0
  0
SCALE
  5
500
102
{ACAD_REACTORS
330
4DF
102
}
330
4DF
100
AcDbScale
 70
     0
300
1'-0" = 1'-0"
140
12.0
141
12.0
290
     0
  0
ENDSEC
  0
EOF
