  0
SECTION
  2
HEADER
  9
$ACADVER
  1
AC1015
  9
$ACADMAINTVER
 70
     6
  9
$DWGCODEPAGE
  3
ANSI_1252
  9
$INSBASE
 10
0.0
 20
0.0
 30
0.0
  9
$EXTMIN
 10
0.0
 20
0.0
 30
0.0
  9
$EXTMAX
 10
420.0
 20
297.0
 30
0.0
  9
$LIMMIN
 10
0.0
 20
0.0
  9
$LIMMAX
 10
420.0
 20
297.0
  9
$ORTHOMODE
 70
     0
  9
$REGENMODE
 70
     1
  9
$FILLMODE
 70
     1
  9
$QTEXTMODE
 70
     0
  9
$MIRRTEXT
 70
     1
  9
$LTSCALE
 40
23.1
  9
$ATTMODE
 70
     1
  9
$TEXTSIZE
 40
0.2
  9
$TRACEWID
 40
0.05
  9
$TEXTSTYLE
  7
STANDARD
  9
$CLAYER
  8
0
  9
$CELTYPE
  6
BYLAYER
  9
$CECOLOR
 62
   256
  9
$CELTSCALE
 40
1.0
  9
$DISPSILH
 70
     0
  9
$DIMSCALE
 40
1.0
  9
$DIMASZ
 40
2.5
  9
$DIMEXO
 40
2.625
  9
$DIMDLI
 40
15.96
  9
$DIMRND
 40
0.0
  9
$DIMDLE
 40
0.0
  9
$DIMEXE
 40
7.56
  9
$DIMTP
 40
0.01
  9
$DIMTM
 40
0.01
  9
$DIMTXT
 40
3.0
  9
$DIMCEN
 40
3.78
  9
$DIMTSZ
 40
0.0
  9
$DIMTOL
 70
     1
  9
$DIMLIM
 70
     0
  9
$DIMTIH
 70
     1
  9
$DIMTOH
 70
     1
  9
$DIMSE1
 70
     0
  9
$DIMSE2
 70
     0
  9
$DIMTAD
 70
     0
  9
$DIMZIN
 70
     0
  9
$DIMBLK
  1
CLOSED
  9
$DIMASO
 70
     1
  9
$DIMSHO
 70
     1
  9
$DIMPOST
  1

  9
$DIMAPOST
  1

  9
$DIMALT
 70
     0
  9
$DIMALTD
 70
     2
  9
$DIMALTF
 40
25.4
  9
$DIMLFAC
 40
1.0
  9
$DIMTOFL
 70
     0
  9
$DIMTVP
 40
0.0
  9
$DIMTIX
 70
     0
  9
$DIMSOXD
 70
     0
  9
$DIMSAH
 70
     0
  9
$DIMBLK1
  1

  9
$DIMBLK2
  1

  9
$DIMSTYLE
  2
STANDARD
  9
$DIMCLRD
 70
     0
  9
$DIMCLRE
 70
     0
  9
$DIMCLRT
 70
     0
  9
$DIMTFAC
 40
1.0
  9
$DIMGAP
 40
0.09
  9
$DIMJUST
 70
     0
  9
$DIMSD1
 70
     0
  9
$DIMSD2
 70
     0
  9
$DIMTOLJ
 70
     1
  9
$DIMTZIN
 70
     0
  9
$DIMALTZ
 70
     0
  9
$DIMALTTZ
 70
     0
  9
$DIMUPT
 70
     0
  9
$DIMDEC
 70
     4
  9
$DIMTDEC
 70
     4
  9
$DIMALTU
 70
     2
  9
$DIMALTTD
 70
     2
  9
$DIMTXSTY
  7
STANDARD
  9
$DIMAUNIT
 70
     0
  9
$DIMADEC
 70
     0
  9
$DIMALTRND
 40
0.0
  9
$DIMAZIN
 70
     0
  9
$DIMDSEP
 70
    46
  9
$DIMATFIT
 70
     3
  9
$DIMFRAC
 70
     0
  9
$DIMLDRBLK
  1

  9
$DIMLUNIT
 70
     2
  9
$DIMLWD
 70
    -2
  9
$DIMLWE
 70
    -2
  9
$DIMTMOVE
 70
     0
  9
$LUNITS
 70
     2
  9
$LUPREC
 70
     4
  9
$SKETCHINC
 40
0.1
  9
$FILLETRAD
 40
0.5
  9
$AUNITS
 70
     0
  9
$AUPREC
 70
     0
  9
$MENU
  1
.
  9
$ELEVATION
 40
0.0
  9
$PELEVATION
 40
0.0
  9
$THICKNESS
 40
0.0
  9
$LIMCHECK
 70
     0
  9
$CHAMFERA
 40
0.0
  9
$CHAMFERB
 40
0.0
  9
$CHAMFERC
 40
0.0
  9
$CHAMFERD
 40
0.0
  9
$SKPOLY
 70
     0
  9
$TDCREATE
 40
2447893.041666667
  9
$TDUCREATE
 40
0.0
  9
$TDUPDATE
 40
2458444.424116644
  9
$TDUUPDATE
 40
2458444.382449977
  9
$TDINDWG
 40
0.0006262847
  9
$TDUSRTIMER
 40
0.0007822222
  9
$USRTIMER
 70
     1
  9
$ANGBASE
 50
0.0
  9
$ANGDIR
 70
     0
  9
$PDMODE
 70
     3
  9
$PDSIZE
 40
0.3125
  9
$PLINEWID
 40
0.0
  9
$SPLFRAME
 70
     0
  9
$SPLINETYPE
 70
     6
  9
$SPLINESEGS
 70
     8
  9
$HANDSEED
  5
56B
  9
$SURFTAB1
 70
     6
  9
$SURFTAB2
 70
     6
  9
$SURFTYPE
 70
     6
  9
$SURFU
 70
     6
  9
$SURFV
 70
     6
  9
$UCSBASE
  2

  9
$UCSNAME
  2

  9
$UCSORG
 10
0.0
 20
0.0
 30
0.0
  9
$UCSXDIR
 10
1.0
 20
0.0
 30
0.0
  9
$UCSYDIR
 10
0.0
 20
1.0
 30
0.0
  9
$UCSORTHOREF
  2

  9
$UCSORTHOVIEW
 70
     0
  9
$UCSORGTOP
 10
0.0
 20
0.0
 30
0.0
  9
$UCSORGBOTTOM
 10
0.0
 20
0.0
 30
0.0
  9
$UCSORGLEFT
 10
0.0
 20
0.0
 30
0.0
  9
$UCSORGRIGHT
 10
0.0
 20
0.0
 30
0.0
  9
$UCSORGFRONT
 10
0.0
 20
0.0
 30
0.0
  9
$UCSORGBACK
 10
0.0
 20
0.0
 30
0.0
  9
$PUCSBASE
  2

  9
$PUCSNAME
  2

  9
$PUCSORG
 10
0.0
 20
0.0
 30
0.0
  9
$PUCSXDIR
 10
1.0
 20
0.0
 30
0.0
  9
$PUCSYDIR
 10
0.0
 20
1.0
 30
0.0
  9
$PUCSORTHOREF
  2

  9
$PUCSORTHOVIEW
 70
     0
  9
$PUCSORGTOP
 10
0.0
 20
0.0
 30
0.0
  9
$PUCSORGBOTTOM
 10
0.0
 20
0.0
 30
0.0
  9
$PUCSORGLEFT
 10
0.0
 20
0.0
 30
0.0
  9
$PUCSORGRIGHT
 10
0.0
 20
0.0
 30
0.0
  9
$PUCSORGFRONT
 10
0.0
 20
0.0
 30
0.0
  9
$PUCSORGBACK
 10
0.0
 20
0.0
 30
0.0
  9
$USERI1
 70
     0
  9
$USERI2
 70
     0
  9
$USERI3
 70
     0
  9
$USERI4
 70
     0
  9
$USERI5
 70
     0
  9
$USERR1
 40
0.0
  9
$USERR2
 40
0.0
  9
$USERR3
 40
0.0
  9
$USERR4
 40
0.0
  9
$USERR5
 40
0.0
  9
$WORLDVIEW
 70
     1
  9
$SHADEDGE
 70
     3
  9
$SHADEDIF
 70
    70
  9
$TILEMODE
 70
     1
  9
$MAXACTVP
 70
    64
  9
$PINSBASE
 10
0.0
 20
0.0
 30
0.0
  9
$PLIMCHECK
 70
     0
  9
$PEXTMIN
 10
1.000000000000000E+20
 20
1.000000000000000E+20
 30
1.000000000000000E+20
  9
$PEXTMAX
 10
-1.000000000000000E+20
 20
-1.000000000000000E+20
 30
-1.000000000000000E+20
  9
$PLIMMIN
 10
0.0
 20
0.0
  9
$PLIMMAX
 10
420.0
 20
297.0
  9
$UNITMODE
 70
     0
  9
$VISRETAIN
 70
     1
  9
$PLINEGEN
 70
     0
  9
$PSLTSCALE
 70
     1
  9
$TREEDEPTH
 70
  3020
  9
$CMLSTYLE
  2
Standard
  9
$CMLJUST
 70
     0
  9
$CMLSCALE
 40
1.0
  9
$PROXYGRAPHICS
 70
     1
  9
$MEASUREMENT
 70
     1
  9
$CELWEIGHT
370
    -1
  9
$ENDCAPS
280
     0
  9
$JOINSTYLE
280
     0
  9
$LWDISPLAY
290
     0
  9
$INSUNITS
 70
     4
  9
$HYPERLINKBASE
  1

  9
$STYLESHEET
  1

  9
$XEDIT
290
     1
  9
$CEPSNTYPE
380
     0
  9
$PSTYLEMODE
290
     1
  9
$FINGERPRINTGUID
  2
{2C56A5F0-C258-44A3-8484-A8E31F8A1AD6}
  9
$VERSIONGUID
  2
{FAEB1C32-E019-11D5-929B-00C0DF256EC4}
  9
$EXTNAMES
290
     1
  9
$PSVPSCALE
 40
0.0
  9
$OLESTARTUP
290
     0
  0
ENDSEC
  0
SECTION
  2
CLASSES
  0
CLASS
  1
ACDBDICTIONARYWDFLT
  2
AcDbDictionaryWithDefault
  3
ObjectDBX Classes
 90
        0
280
     0
281
     0
  0
CLASS
  1
ACDBPLACEHOLDER
  2
AcDbPlaceHolder
  3
ObjectDBX Classes
 90
        0
280
     0
281
     0
  0
CLASS
  1
LAYOUT
  2
AcDbLayout
  3
ObjectDBX Classes
 90
        0
280
     0
281
     0
  0
CLASS
  1
TABLESTYLE
  2
AcDbTableStyle
  3
ObjectDBX Classes
 90
     4095
280
     0
281
     0
  0
CLASS
  1
ACAD_TABLE
  2
AcDbTable
  3
ObjectDBX Classes
 90
     1025
280
     0
281
     1
  0
CLASS
  1
SCALE
  2
AcDbScale
  3
ObjectDBX Classes
 90
     1153
280
     0
281
     0
  0
CLASS
  1
TABLEGEOMETRY
  2
AcDbTableGeometry
  3
ObjectDBX Classes
 90
     1152
280
     0
281
     0
  0
CLASS
  1
VISUALSTYLE
  2
AcDbVisualStyle
  3
ObjectDBX Classes
 90
     4095
280
     0
281
     0
  0
CLASS
  1
MATERIAL
  2
AcDbMaterial
  3
ObjectDBX Classes
 90
     1153
280
     0
281
     0
  0
CLASS
  1
SUN
  2
AcDbSun
  3
SCENEOE
 90
     1153
280
     0
281
     0
  0
CLASS
  1
RASTERVARIABLES
  2
AcDbRasterVariables
  3
ISM
 90
        0
280
     0
281
     0
  0
CLASS
  1
MLEADERSTYLE
  2
AcDbMLeaderStyle
  3
ACDB_MLEADERSTYLE_CLASS
 90
     4095
280
     0
281
     0
  0
CLASS
  1
DICTIONARYVAR
  2
AcDbDictionaryVar
  3
ObjectDBX Classes
 90
        0
280
     0
281
     0
  0
ENDSEC
  0
SECTION
  2
TABLES
  0
TABLE
  2
VPORT
  5
8
330
0
100
AcDbSymbolTable
 70
     1
  0
VPORT
  5
1F4
330
8
100
AcDbSymbolTableRecord
100
AcDbViewportTableRecord
  2
*ACTIVE
 70
     0
 10
0.0
 20
0.0
 11
1.0
 21
1.0
 12
281.6816806719544
 22
197.1835605170607
 13
0.0
 23
0.0
 14
1.0
 24
1.0
 15
0.0
 25
0.0
 16
0.0
 26
0.0
 36
1.0
 17
0.0
 27
0.0
 37
0.0
 40
580.0781249999998
 41
1.929961089494163
 42
50.0
 43
0.0
 44
0.0
 50
0.0
 51
0.0
 71
    16
 72
   100
 73
     1
 74
     1
 75
     0
 76
     0
 77
     0
 78
     0
281
     0
 65
     1
110
0.0
120
0.0
130
0.0
111
1.0
121
0.0
131
0.0
112
0.0
122
1.0
132
0.0
 79
     0
146
0.0
  0
ENDTAB
  0
TABLE
  2
LTYPE
  5
5
330
0
100
AcDbSymbolTable
 70
     6
  0
LTYPE
  5
14
330
5
100
AcDbSymbolTableRecord
100
AcDbLinetypeTableRecord
  2
BYBLOCK
 70
     0
  3

 72
    65
 73
     0
 40
0.0
  0
LTYPE
  5
15
330
5
100
AcDbSymbolTableRecord
100
AcDbLinetypeTableRecord
  2
BYLAYER
 70
     0
  3

 72
    65
 73
     0
 40
0.0
  0
LTYPE
  5
16
330
5
100
AcDbSymbolTableRecord
100
AcDbLinetypeTableRecord
  2
CONTINUOUS
 70
     0
  3
Solid line
 72
    65
 73
     0
 40
0.0
  0
LTYPE
  5
1F5
330
5
100
AcDbSymbolTableRecord
100
AcDbLinetypeTableRecord
  2
CENTER
 70
     0
  3
____ _ ____ _ ____ _ ____ _ ____ _ ____ _ ____
 72
    65
 73
     4
 40
0.6
 49
0.375
 74
     0
 49
-0.075
 74
     0
 49
0.075
 74
     0
 49
-0.075
 74
     0
  0
LTYPE
  5
1F6
330
5
100
AcDbSymbolTableRecord
100
AcDbLinetypeTableRecord
  2
HIDDEN
 70
     0
  3
- - - - - - - - - - - - - - - - - - - -
 72
    65
 73
     2
 40
0.2
 49
0.1
 74
     0
 49
-0.1
 74
     0
  0
LTYPE
  5
1F7
330
5
100
AcDbSymbolTableRecord
100
AcDbLinetypeTableRecord
  2
PHANTOM
 70
     0
  3
_____ _ _ _____ _ _ _____ _ _ _____
 72
    65
 73
     6
 40
0.8
 49
0.45
 74
     0
 49
-0.05
 74
     0
 49
0.1
 74
     0
 49
-0.05
 74
     0
 49
0.1
 74
     0
 49
-0.05
 74
     0
  0
LTYPE
  5
1F8
330
5
100
AcDbSymbolTableRecord
100
AcDbLinetypeTableRecord
  2
DOT
 70
     0
  3
. . . . . . . . . . . . . . . . . . . .
 72
    65
 73
     2
 40
0.2
 49
0.1
 74
     0
 49
-0.1
 74
     0
  0
LTYPE
  5
1F9
330
5
100
AcDbSymbolTableRecord
100
AcDbLinetypeTableRecord
  2
DASHED
 70
     0
  3
- - - - - - - - - - - - - - - - - - - -
 72
    65
 73
     2
 40
0.2
 49
0.1
 74
     0
 49
-0.1
 74
     0
  0
ENDTAB
  0
TABLE
  2
LAYER
  5
2
330
0
100
AcDbSymbolTable
 70
    36
  0
LAYER
  5
10
330
2
100
AcDbSymbolTableRecord
100
AcDbLayerTableRecord
  2
0
 70
     0
 62
     7
  6
CONTINUOUS
370
    -3
390
F
  0
LAYER
  5
1FA
330
2
100
AcDbSymbolTableRecord
100
AcDbLayerTableRecord
  2
DEFAULT_1
 70
     0
 62
     7
  6
CENTER
370
    -3
390
F
  0
LAYER
  5
1FB
330
2
100
AcDbSymbolTableRecord
100
AcDbLayerTableRecord
  2
DEFAULT_2
 70
     0
 62
     8
  6
HIDDEN
370
    -3
390
F
  0
LAYER
  5
1FC
330
2
100
AcDbSymbolTableRecord
100
AcDbLayerTableRecord
  2
DEFAULT_3
 70
     0
 62
     7
  6
PHANTOM
370
    -3
390
F
  0
LAYER
  5
1FD
330
2
100
AcDbSymbolTableRecord
100
AcDbLayerTableRecord
  2
01_ALL_DTM_PLN
 70
     0
 62
     7
  6
CONTINUOUS
370
    -3
390
F
  0
LAYER
  5
1FE
330
2
100
AcDbSymbolTableRecord
100
AcDbLayerTableRecord
  2
01__ASM_ALL_DTM_PLN
 70
     0
 62
     7
  6
CONTINUOUS
370
    -3
390
F
  0
LAYER
  5
1FF
330
2
100
AcDbSymbolTableRecord
100
AcDbLayerTableRecord
  2
01__ASM_DEF_DTM_PLN
 70
     0
 62
     7
  6
CONTINUOUS
370
    -3
390
F
  0
LAYER
  5
200
330
2
100
AcDbSymbolTableRecord
100
AcDbLayerTableRecord
  2
01___PRT_ALL_DTM_PLN
 70
     0
 62
     7
  6
CONTINUOUS
370
    -3
390
F
  0
LAYER
  5
201
330
2
100
AcDbSymbolTableRecord
100
AcDbLayerTableRecord
  2
01___PRT_DEF_DTM_PLN
 70
     0
 62
     7
  6
CONTINUOUS
370
    -3
390
F
  0
LAYER
  5
202
330
2
100
AcDbSymbolTableRecord
100
AcDbLayerTableRecord
  2
02_ALL_AXES
 70
     0
 62
     7
  6
CONTINUOUS
370
    -3
390
F
  0
LAYER
  5
203
330
2
100
AcDbSymbolTableRecord
100
AcDbLayerTableRecord
  2
02__ASM_ALL_AXES
 70
     0
 62
     7
  6
CONTINUOUS
370
    -3
390
F
  0
LAYER
  5
204
330
2
100
AcDbSymbolTableRecord
100
AcDbLayerTableRecord
  2
02___PRT_ALL_AXES
 70
     0
 62
     7
  6
CONTINUOUS
370
    -3
390
F
  0
LAYER
  5
205
330
2
100
AcDbSymbolTableRecord
100
AcDbLayerTableRecord
  2
03_ALL_CURVES
 70
     0
 62
     7
  6
CONTINUOUS
370
    -3
390
F
  0
LAYER
  5
206
330
2
100
AcDbSymbolTableRecord
100
AcDbLayerTableRecord
  2
03__ASM_ALL_CURVES
 70
     0
 62
     7
  6
CONTINUOUS
370
    -3
390
F
  0
LAYER
  5
207
330
2
100
AcDbSymbolTableRecord
100
AcDbLayerTableRecord
  2
03___PRT_ALL_CURVES
 70
     0
 62
     7
  6
CONTINUOUS
370
    -3
390
F
  0
LAYER
  5
208
330
2
100
AcDbSymbolTableRecord
100
AcDbLayerTableRecord
  2
04_ALL_DTM_PNT
 70
     0
 62
     7
  6
CONTINUOUS
370
    -3
390
F
  0
LAYER
  5
209
330
2
100
AcDbSymbolTableRecord
100
AcDbLayerTableRecord
  2
04__ASM_ALL_DTM_PNT
 70
     0
 62
     7
  6
CONTINUOUS
370
    -3
390
F
  0
LAYER
  5
20A
330
2
100
AcDbSymbolTableRecord
100
AcDbLayerTableRecord
  2
04___PRT_ALL_DTM_PNT
 70
     0
 62
     7
  6
CONTINUOUS
370
    -3
390
F
  0
LAYER
  5
20B
330
2
100
AcDbSymbolTableRecord
100
AcDbLayerTableRecord
  2
05_ALL_DTM_CSYS
 70
     0
 62
     7
  6
CONTINUOUS
370
    -3
390
F
  0
LAYER
  5
20C
330
2
100
AcDbSymbolTableRecord
100
AcDbLayerTableRecord
  2
05__ASM_ALL_DTM_CSYS
 70
     0
 62
     7
  6
CONTINUOUS
370
    -3
390
F
  0
LAYER
  5
20D
330
2
100
AcDbSymbolTableRecord
100
AcDbLayerTableRecord
  2
05__ASM_DEF_DTM_CSYS
 70
     0
 62
     7
  6
CONTINUOUS
370
    -3
390
F
  0
LAYER
  5
20E
330
2
100
AcDbSymbolTableRecord
100
AcDbLayerTableRecord
  2
05___PRT_ALL_DTM_CSYS
 70
     0
 62
     7
  6
CONTINUOUS
370
    -3
390
F
  0
LAYER
  5
20F
330
2
100
AcDbSymbolTableRecord
100
AcDbLayerTableRecord
  2
05___PRT_DEF_DTM_CSYS
 70
     0
 62
     7
  6
CONTINUOUS
370
    -3
390
F
  0
LAYER
  5
210
330
2
100
AcDbSymbolTableRecord
100
AcDbLayerTableRecord
  2
06_ALL_SURFS
 70
     0
 62
     7
  6
CONTINUOUS
370
    -3
390
F
  0
LAYER
  5
211
330
2
100
AcDbSymbolTableRecord
100
AcDbLayerTableRecord
  2
06__ASM_ALL_SURFS
 70
     0
 62
     7
  6
CONTINUOUS
370
    -3
390
F
  0
LAYER
  5
212
330
2
100
AcDbSymbolTableRecord
100
AcDbLayerTableRecord
  2
06___PRT_ALL_SURFS
 70
     0
 62
     7
  6
CONTINUOUS
370
    -3
390
F
  0
LAYER
  5
213
330
2
100
AcDbSymbolTableRecord
100
AcDbLayerTableRecord
  2
07__ASM_ALL_SKELETONS
 70
     0
 62
     7
  6
CONTINUOUS
370
    -3
390
F
  0
LAYER
  5
214
330
2
100
AcDbSymbolTableRecord
100
AcDbLayerTableRecord
  2
1_ALL_PLANES
 70
     0
 62
     7
  6
CONTINUOUS
370
    -3
390
F
  0
LAYER
  5
215
330
2
100
AcDbSymbolTableRecord
100
AcDbLayerTableRecord
  2
2_ALL_CSYS
 70
     0
 62
     7
  6
CONTINUOUS
370
    -3
390
F
  0
LAYER
  5
216
330
2
100
AcDbSymbolTableRecord
100
AcDbLayerTableRecord
  2
3_ALL_AXES
 70
     0
 62
     7
  6
CONTINUOUS
370
    -3
390
F
  0
LAYER
  5
217
330
2
100
AcDbSymbolTableRecord
100
AcDbLayerTableRecord
  2
4_ALL_POINTS
 70
     0
 62
     7
  6
CONTINUOUS
370
    -3
390
F
  0
LAYER
  5
218
330
2
100
AcDbSymbolTableRecord
100
AcDbLayerTableRecord
  2
6_ALL_SURFS
 70
     0
 62
     7
  6
CONTINUOUS
370
    -3
390
F
  0
LAYER
  5
219
330
2
100
AcDbSymbolTableRecord
100
AcDbLayerTableRecord
  2
7_ALL_FEATURES
 70
     0
 62
     7
  6
CONTINUOUS
370
    -3
390
F
  0
LAYER
  5
21A
330
2
100
AcDbSymbolTableRecord
100
AcDbLayerTableRecord
  2
8_ALL_NOTES_BALLOONS_SYMBOLS_GT
 70
     0
 62
     7
  6
CONTINUOUS
370
    -3
390
F
  0
LAYER
  5
21B
330
2
100
AcDbSymbolTableRecord
100
AcDbLayerTableRecord
  2
RGB
 70
     0
 62
     7
  6
CONTINUOUS
370
    -3
390
F
  0
LAYER
  5
51F
330
2
100
AcDbSymbolTableRecord
100
AcDbLayerTableRecord
  2
Defpoints
 70
     0
 62
     7
  6
CONTINUOUS
290
     0
370
    -3
390
F
  0
ENDTAB
  0
TABLE
  2
STYLE
  5
3
330
0
100
AcDbSymbolTable
 70
     6
  0
STYLE
  5
11
330
3
100
AcDbSymbolTableRecord
100
AcDbTextStyleTableRecord
  2
STANDARD
 70
     0
 40
0.0
 41
0.85
 50
0.0
 71
     0
 42
0.2
  3
txt
  4

  0
STYLE
  5
21C
330
3
100
AcDbSymbolTableRecord
100
AcDbTextStyleTableRecord
  2
TEXTSTYLE_1
 70
     0
 40
0.0
 41
0.8
 50
0.0
 71
     0
 42
0.2
  3
gdt
  4

  0
STYLE
  5
21D
330
3
100
AcDbSymbolTableRecord
100
AcDbTextStyleTableRecord
  2
TEXTSTYLE_2
 70
     0
 40
0.0
 41
0.9
 50
0.0
 71
     0
 42
0.2
  3
txt
  4

  0
STYLE
  5
21E
330
3
100
AcDbSymbolTableRecord
100
AcDbTextStyleTableRecord
  2
TEXTSTYLE_3
 70
     0
 40
0.0
 41
0.9
 50
0.0
 71
     0
 42
0.2
  3
txt
  4

  0
STYLE
  5
21F
330
3
100
AcDbSymbolTableRecord
100
AcDbTextStyleTableRecord
  2
TEXTSTYLE_4
 70
     0
 40
0.0
 41
0.85
 50
0.0
 71
     0
 42
0.2
  3
gdt
  4

  0
STYLE
  5
220
330
3
100
AcDbSymbolTableRecord
100
AcDbTextStyleTableRecord
  2
TEXTSTYLE_5
 70
     0
 40
0.0
 41
0.85
 50
0.0
 71
     0
 42
0.2
  3
txt
  4

  0
ENDTAB
  0
TABLE
  2
VIEW
  5
6
330
0
100
AcDbSymbolTable
 70
     0
  0
ENDTAB
  0
TABLE
  2
UCS
  5
7
330
0
100
AcDbSymbolTable
 70
     0
  0
ENDTAB
  0
TABLE
  2
APPID
  5
9
330
0
100
AcDbSymbolTable
 70
     1
  0
APPID
  5
221
330
9
100
AcDbSymbolTableRecord
100
AcDbRegAppTableRecord
  2
ACAD
 70
     0
  0
ENDTAB
  0
TABLE
  2
DIMSTYLE
  5
A
330
0
100
AcDbSymbolTable
 70
     3
100
AcDbDimStyleTable
  0
DIMSTYLE
105
229
330
A
100
AcDbSymbolTableRecord
100
AcDbDimStyleTableRecord
  2
STANDARD
 70
     0
 41
2.5
 47
0.01
 48
0.01
 71
     1
 73
     0
 74
     0
 77
     1
 78
     8
140
3.0
178
     0
271
     2
272
     2
284
     8
340
11
341
224
342
224
343
224
344
224
  0
DIMSTYLE
105
22A
330
A
100
AcDbSymbolTableRecord
100
AcDbDimStyleTableRecord
  2
DIMSTYLE_1
 70
     0
 41
2.5
 47
0.3
 48
0.3
 73
     0
 74
     0
 77
     1
 78
     8
140
3.0
144
1.3333333333
178
     0
271
     2
272
     2
284
     8
340
11
341
224
342
224
343
224
344
224
  0
DIMSTYLE
105
22B
330
A
100
AcDbSymbolTableRecord
100
AcDbDimStyleTableRecord
  2
DIMSTYLE_2
 70
     0
 41
2.5
 47
0.3
 48
0.3
 73
     0
 74
     0
 77
     1
 78
     8
140
3.0
144
1.3333333333
178
     0
271
     0
272
     0
284
     8
340
11
341
224
342
224
343
224
344
224
  0
ENDTAB
  0
TABLE
  2
BLOCK_RECORD
  5
1
330
0
100
AcDbSymbolTable
 70
     5
  0
BLOCK_RECORD
  5
222
330
1
100
AcDbSymbolTableRecord
100
AcDbBlockTableRecord
  2
*Model_Space
340
4D6
  0
BLOCK_RECORD
  5
223
330
1
100
AcDbSymbolTableRecord
100
AcDbBlockTableRecord
  2
*Paper_Space
340
4D7
  0
BLOCK_RECORD
  5
224
330
1
100
AcDbSymbolTableRecord
100
AcDbBlockTableRecord
  2
_CLOSED
340
0
102
{BLKREFS
331
271
331
277
331
278
102
}
  0
BLOCK_RECORD
  5
225
330
1
100
AcDbSymbolTableRecord
100
AcDbBlockTableRecord
  2
*D1
340
0
  0
BLOCK_RECORD
  5
226
330
1
100
AcDbSymbolTableRecord
100
AcDbBlockTableRecord
  2
*D2
340
0
  0
BLOCK_RECORD
  5
227
330
1
100
AcDbSymbolTableRecord
100
AcDbBlockTableRecord
  2
LOGO2_BL0
340
0
102
{BLKREFS
331
29F
102
}
  0
BLOCK_RECORD
  5
228
330
1
100
AcDbSymbolTableRecord
100
AcDbBlockTableRecord
  2
*T4
340
0
102
{BLKREFS
331
2A0
102
}
  0
ENDTAB
  0
ENDSEC
  0
SECTION
  2
BLOCKS
  0
BLOCK
  5
20
330
222
100
AcDbEntity
  8
0
100
AcDbBlockBegin
  2
*Model_Space
 70
     0
 10
0.0
 20
0.0
 30
0.0
  3
*Model_Space
  1
*Model_Space
  0
ENDBLK
  5
21
330
222
100
AcDbEntity
  8
0
100
AcDbBlockEnd
  0
BLOCK
  5
1C
330
223
100
AcDbEntity
 67
     1
  8
0
100
AcDbBlockBegin
  2
*Paper_Space
 70
     0
 10
0.0
 20
0.0
 30
0.0
  3
*Paper_Space
  1
*Paper_Space
  0
ENDBLK
  5
1D
330
223
100
AcDbEntity
 67
     1
  8
0
100
AcDbBlockEnd
  0
BLOCK
  5
268
330
224
100
AcDbEntity
  8
0
100
AcDbBlockBegin
  2
_CLOSED
 70
     0
 10
0.0
 20
0.0
 30
0.0
  3
_CLOSED
  1
_CLOSED
  0
LINE
  5
269
330
224
100
AcDbEntity
  8
0
  6
ByBlock
 62
     0
100
AcDbLine
 10
0.0
 20
0.0
 30
0.0
 11
-1.0
 21
0.2
 31
0.0
  0
LINE
  5
26A
330
224
100
AcDbEntity
  8
0
  6
ByBlock
 62
     0
100
AcDbLine
 10
-1.0
 20
0.2
 30
0.0
 11
-1.0
 21
-0.2
 31
0.0
  0
LINE
  5
26B
330
224
100
AcDbEntity
  8
0
  6
ByBlock
 62
     0
100
AcDbLine
 10
-1.0
 20
-0.2
 30
0.0
 11
0.0
 21
0.0
 31
0.0
  0
LINE
  5
26C
330
224
100
AcDbEntity
  8
0
  6
ByBlock
 62
     0
100
AcDbLine
 10
-1.0
 20
0.0
 30
0.0
 11
0.0
 21
0.0
 31
0.0
  0
ENDBLK
  5
26D
330
224
100
AcDbEntity
  8
0
  6
ByBlock
 62
     0
100
AcDbBlockEnd
  0
BLOCK
  5
26E
330
225
100
AcDbEntity
  8
0
100
AcDbBlockBegin
  2
*D1
 70
     1
 10
0.0
 20
0.0
 30
0.0
  3
*D1
  1
*D1
  0
LINE
  5
26F
330
225
100
AcDbEntity
  8
0
  6
Continuous
 62
     0
370
    -2
100
AcDbLine
 10
107.1873118561907
 20
109.5105807080167
 30
0.0
 11
121.919712423742
 21
122.5912307586496
 31
0.0
  0
MTEXT
  5
270
330
225
100
AcDbEntity
  8
0
 62
     0
100
AcDbMText
 10
111.0660842145795
 20
119.6409121830931
 30
0.0
 40
3.0
 41
0.0
 71
     1
 72
     1
  1
\A1;%%c120
 11
0.7477826486334406
 21
0.6639436048361008
 31
0.0
 73
     1
 44
1.0
  0
INSERT
  5
271
330
225
100
AcDbEntity
  8
0
 62
     0
370
    -2
100
AcDbBlockReference
  2
_CLOSED
 10
105.3178552346071
 20
107.8507216959265
 30
0.0
 41
2.5
 42
2.5
 43
2.5
 50
221.6013325910205
  0
LINE
  5
522
330
225
100
AcDbEntity
  8
0
  6
Continuous
 62
     0
100
AcDbLine
 10
71.57763604610138
 20
77.97325947830113
 30
0.0
 11
71.75763604610138
 21
77.97325947830113
 31
0.0
  0
LINE
  5
523
330
225
100
AcDbEntity
  8
0
  6
Continuous
 62
     0
100
AcDbLine
 10
71.66763604610138
 20
77.88325947830113
 30
0.0
 11
71.66763604610138
 21
78.06325947830113
 31
0.0
  0
POINT
  5
524
330
225
100
AcDbEntity
  8
Defpoints
 62
     0
100
AcDbPoint
 10
105.3178552346071
 20
107.8507216959265
 30
0.0
  0
POINT
  5
525
330
225
100
AcDbEntity
  8
Defpoints
 62
     0
100
AcDbPoint
 10
38.01741685759566
 20
48.0957972606758
 30
0.0
  0
ENDBLK
  5
272
330
225
100
AcDbEntity
  8
0
  6
ByBlock
 62
     0
100
AcDbBlockEnd
  0
BLOCK
  5
273
330
226
100
AcDbEntity
  8
0
100
AcDbBlockBegin
  2
*D2
 70
     1
 10
0.0
 20
0.0
 30
0.0
  3
*D2
  1
*D2
  0
LINE
  5
274
330
226
100
AcDbEntity
  8
0
  6
Continuous
 62
     0
370
    -2
100
AcDbLine
 10
120.6307138135
 20
251.5677577576
 30
0.0
 11
135.4849547031
 21
251.5677577576
 31
0.0
  0
LINE
  5
275
330
226
100
AcDbEntity
  8
0
  6
Continuous
 62
     0
370
    -2
100
AcDbLine
 10
120.8270774498
 20
183.1302594369
 30
0.0
 11
135.4849547031
 21
183.1302594369
 31
0.0
  0
LINE
  5
276
330
226
100
AcDbEntity
  8
0
  6
Continuous
 62
     0
370
    -2
100
AcDbLine
 10
135.3049547031
 20
249.0677577576
 30
0.0
 11
135.3049547031
 21
185.6302594369
 31
0.0
  0
INSERT
  5
277
330
226
100
AcDbEntity
  8
0
 62
     0
370
    -2
100
AcDbBlockReference
  2
_CLOSED
 10
135.3049547031
 20
251.5677577576
 30
0.0
 41
2.5
 42
2.5
 43
2.5
 50
90.0
  0
INSERT
  5
278
330
226
100
AcDbEntity
  8
0
 62
     0
370
    -2
100
AcDbBlockReference
  2
_CLOSED
 10
135.3049547031
 20
183.1302594369
 30
0.0
 41
2.5
 42
2.5
 43
2.5
 50
270.0
  0
MTEXT
  5
279
330
226
100
AcDbEntity
  8
0
 62
     0
100
AcDbMText
 10
130.3049547031
 20
217.34900859725
 30
0.0
 40
3.0
 41
0.0
 71
     2
 72
     1
  1
\A1;91
 11
0.0
 21
1.0
 31
0.0
 73
     1
 44
1.0
  0
POINT
  5
27A
330
226
100
AcDbEntity
  8
Defpoints
 62
     0
100
AcDbPoint
 10
120.5682138135
 20
251.5677577576
 30
0.0
  0
POINT
  5
520
330
226
100
AcDbEntity
  8
Defpoints
 62
     0
100
AcDbPoint
 10
120.7645774498
 20
183.1302594369
 30
0.0
  0
POINT
  5
521
330
226
100
AcDbEntity
  8
Defpoints
 62
     0
100
AcDbPoint
 10
135.3049547031
 20
183.1302594369
 30
0.0
  0
ENDBLK
  5
27B
330
226
100
AcDbEntity
  8
0
  6
ByBlock
 62
     0
100
AcDbBlockEnd
  0
BLOCK
  5
22C
330
227
100
AcDbEntity
  8
0
100
AcDbBlockBegin
  2
LOGO2_BL0
 70
     0
 10
333.1473869546
 20
37.5239270671
 30
0.0
  3
LOGO2_BL0
  1
LOGO2_BL0
  0
LINE
  5
22D
330
227
100
AcDbEntity
  8
0
  6
Continuous
 62
     7
100
AcDbLine
 10
324.8903121828
 20
40.7194184059
 30
0.0
 11
323.5859712535
 21
40.7194184059
 31
0.0
  0
LINE
  5
22E
330
227
100
AcDbEntity
  8
0
  6
Continuous
 62
     7
100
AcDbLine
 10
323.5859712535
 20
40.7194184059
 30
0.0
 11
323.5859712535
 21
30.260352346
 31
0.0
  0
LINE
  5
22F
330
227
100
AcDbEntity
  8
0
  6
Continuous
 62
     7
100
AcDbLine
 10
323.5859712535
 20
30.260352346
 30
0.0
 11
328.0670261417
 21
30.260352346
 31
0.0
  0
LINE
  5
230
330
227
100
AcDbEntity
  8
0
  6
Continuous
 62
     7
100
AcDbLine
 10
328.0670261417
 20
30.260352346
 30
0.0
 11
328.0670261417
 21
31.4532066711
 31
0.0
  0
LINE
  5
231
330
227
100
AcDbEntity
  8
0
  6
Continuous
 62
     7
100
AcDbLine
 10
328.0670261417
 20
31.4532066711
 30
0.0
 11
324.8903121828
 21
31.4532066711
 31
0.0
  0
LINE
  5
232
330
227
100
AcDbEntity
  8
0
  6
Continuous
 62
     7
100
AcDbLine
 10
324.8903121828
 20
31.4532066711
 30
0.0
 11
324.8903121828
 21
40.7194184059
 31
0.0
  0
LINE
  5
233
330
227
100
AcDbEntity
  8
0
  6
Continuous
 62
     7
100
AcDbLine
 10
339.8266383991
 20
40.7194184059
 30
0.0
 11
338.522820881
 21
40.7194184059
 31
0.0
  0
LINE
  5
234
330
227
100
AcDbEntity
  8
0
  6
Continuous
 62
     7
100
AcDbLine
 10
338.522820881
 20
40.7194184059
 30
0.0
 11
338.522820881
 21
30.260352346
 31
0.0
  0
LINE
  5
235
330
227
100
AcDbEntity
  8
0
  6
Continuous
 62
     7
100
AcDbLine
 10
338.522820881
 20
30.260352346
 30
0.0
 11
343.0040066221
 21
30.260352346
 31
0.0
  0
LINE
  5
236
330
227
100
AcDbEntity
  8
0
  6
Continuous
 62
     7
100
AcDbLine
 10
343.0040066221
 20
30.260352346
 30
0.0
 11
343.0040066221
 21
31.4532066711
 31
0.0
  0
LINE
  5
237
330
227
100
AcDbEntity
  8
0
  6
Continuous
 62
     7
100
AcDbLine
 10
343.0040066221
 20
31.4532066711
 30
0.0
 11
339.8266383991
 21
31.4532066711
 31
0.0
  0
LINE
  5
238
330
227
100
AcDbEntity
  8
0
  6
Continuous
 62
     7
100
AcDbLine
 10
339.8266383991
 20
31.4532066711
 30
0.0
 11
339.8266383991
 21
40.7194184059
 31
0.0
  0
LWPOLYLINE
  5
239
330
227
100
AcDbEntity
  8
0
  6
Continuous
 62
     7
100
AcDbPolyline
 90
        2
 70
     0
 43
0.2
 10
321.9403661644
 20
26.9168010391
 10
321.9403661644
 20
25.0597377898
  0
LWPOLYLINE
  5
23A
330
227
100
AcDbEntity
  8
0
  6
Continuous
 62
     7
100
AcDbPolyline
 90
        2
 70
     0
 43
0.2
 10
321.9403661644
 20
25.0597377898
 10
322.7360821748
 20
25.0597377898
  0
LWPOLYLINE
  5
23B
330
227
100
AcDbEntity
  8
0
  6
Continuous
 62
     7
100
AcDbPolyline
 90
        2
 70
     0
 43
0.2
 10
322.7360821748
 20
25.0597377898
 10
322.7360821748
 20
25.2717193614
  0
LWPOLYLINE
  5
23C
330
227
100
AcDbEntity
  8
0
  6
Continuous
 62
     7
100
AcDbPolyline
 90
        2
 70
     0
 43
0.2
 10
322.7360821748
 20
25.2717193614
 10
322.1719756593
 20
25.2717193614
  0
LWPOLYLINE
  5
23D
330
227
100
AcDbEntity
  8
0
  6
Continuous
 62
     7
100
AcDbPolyline
 90
        2
 70
     0
 43
0.2
 10
322.1719756593
 20
25.2717193614
 10
322.1719756593
 20
26.9168010391
  0
LWPOLYLINE
  5
23E
330
227
100
AcDbEntity
  8
0
  6
Continuous
 62
     7
100
AcDbPolyline
 90
        2
 70
     0
 43
0.2
 10
322.1719756593
 20
26.9168010391
 10
321.9403661644
 20
26.9168010391
  0
SPLINE
  5
23F
330
227
100
AcDbEntity
  8
0
  6
Continuous
 62
     7
100
AcDbSpline
 70
     3
 71
     3
 72
    35
 73
    31
 74
     0
 42
0.000000001
 43
0.0000001
 40
0.0
 40
0.0
 40
0.0
 40
0.0
 40
1.0
 40
1.0
 40
1.0
 40
2.0
 40
2.0
 40
2.0
 40
3.0
 40
3.0
 40
3.0
 40
4.0
 40
4.0
 40
4.0
 40
5.0
 40
5.0
 40
5.0
 40
6.0
 40
6.0
 40
6.0
 40
7.0
 40
7.0
 40
7.0
 40
8.0
 40
8.0
 40
8.0
 40
9.0
 40
9.0
 40
9.0
 40
10.0
 40
10.0
 40
10.0
 40
10.0
 10
324.1343754303
 20
26.2122894457
 30
0.0
 10
324.1343754303
 20
26.2122894457
 30
0.0
 10
324.1343754303
 20
25.5501741665
 30
0.0
 10
324.1343754303
 20
25.5501741665
 30
0.0
 10
324.1343754303
 20
25.2350805712
 30
0.0
 10
324.2822391191
 20
25.0204819432
 30
0.0
 10
324.6223256034
 20
25.0204819432
 30
0.0
 10
324.9618886764
 20
25.0204819432
 30
0.0
 10
325.1100140709
 20
25.2350805712
 30
0.0
 10
325.1100140709
 20
25.5501741665
 30
0.0
 10
325.1100140709
 20
25.5501741665
 30
0.0
 10
325.1100140709
 20
26.2122894457
 30
0.0
 10
325.1100140709
 20
26.2122894457
 30
0.0
 10
325.1100140709
 20
26.2122894457
 30
0.0
 10
324.887956832
 20
26.2122894457
 30
0.0
 10
324.887956832
 20
26.2122894457
 30
0.0
 10
324.887956832
 20
26.2122894457
 30
0.0
 10
324.887956832
 20
25.5752979083
 30
0.0
 10
324.887956832
 20
25.5752979083
 30
0.0
 10
324.887956832
 20
25.3894869011
 30
0.0
 10
324.8412423746
 20
25.2267059906
 30
0.0
 10
324.6223256034
 20
25.2267059906
 30
0.0
 10
324.402885421
 20
25.2267059906
 30
0.0
 10
324.3561709636
 20
25.3894869011
 30
0.0
 10
324.3561709636
 20
25.5752979083
 30
0.0
 10
324.3561709636
 20
25.5752979083
 30
0.0
 10
324.3561709636
 20
26.2122894457
 30
0.0
 10
324.3561709636
 20
26.2122894457
 30
0.0
 10
324.3561709636
 20
26.2122894457
 30
0.0
 10
324.1343754303
 20
26.2122894457
 30
0.0
 10
324.1343754303
 20
26.2122894457
 30
0.0
  0
SPLINE
  5
240
330
227
100
AcDbEntity
  8
0
  6
Continuous
 62
     7
100
AcDbSpline
 70
     3
 71
     3
 72
    35
 73
    31
 74
     0
 42
0.000000001
 43
0.0000001
 40
0.0
 40
0.0
 40
0.0
 40
0.0
 40
1.0
 40
1.0
 40
1.0
 40
2.0
 40
2.0
 40
2.0
 40
3.0
 40
3.0
 40
3.0
 40
4.0
 40
4.0
 40
4.0
 40
5.0
 40
5.0
 40
5.0
 40
6.0
 40
6.0
 40
6.0
 40
7.0
 40
7.0
 40
7.0
 40
8.0
 40
8.0
 40
8.0
 40
9.0
 40
9.0
 40
9.0
 40
10.0
 40
10.0
 40
10.0
 40
10.0
 10
327.5331466281
 20
26.1709399539
 30
0.0
 10
327.4446901205
 20
26.2222342601
 30
0.0
 10
327.3312407238
 20
26.2473580019
 30
0.0
 10
327.2276052888
 20
26.2473580019
 30
0.0
 10
326.8727324356
 20
26.2473580019
 30
0.0
 10
326.5972872454
 20
25.9835587129
 30
0.0
 10
326.5972872454
 20
25.6260688032
 30
0.0
 10
326.5972872454
 20
25.2811407645
 30
0.0
 10
326.8757420505
 20
25.0210053545
 30
0.0
 10
327.2153051235
 20
25.0210053545
 30
0.0
 10
327.3312407238
 20
25.0210053545
 30
0.0
 10
327.4319973967
 20
25.0429886286
 30
0.0
 10
327.5331466281
 20
25.0968999912
 30
0.0
 10
327.5331466281
 20
25.0968999912
 30
0.0
 10
327.5331466281
 20
25.3795420867
 30
0.0
 10
327.5331466281
 20
25.3795420867
 30
0.0
 10
327.4492699692
 20
25.2863748774
 30
0.0
 10
327.345765387
 20
25.2272294019
 30
0.0
 10
327.2176604743
 20
25.2272294019
 30
0.0
 10
326.9839573343
 20
25.2272294019
 30
0.0
 10
326.8186902202
 20
25.3994317156
 30
0.0
 10
326.8186902202
 20
25.6360136177
 30
0.0
 10
326.8186902202
 20
25.8479951893
 30
0.0
 10
326.9864435379
 20
26.040087132
 30
0.0
 10
327.2032666639
 20
26.040087132
 30
0.0
 10
327.3360822782
 20
26.040087132
 30
0.0
 10
327.4446901205
 20
25.9861757693
 30
0.0
 10
327.5331466281
 20
25.8851573907
 30
0.0
 10
327.5331466281
 20
25.8851573907
 30
0.0
 10
327.5331466281
 20
26.1709399539
 30
0.0
 10
327.5331466281
 20
26.1709399539
 30
0.0
  0
SPLINE
  5
241
330
227
100
AcDbEntity
  8
0
  6
Continuous
 62
     7
100
AcDbSpline
 70
     3
 71
     3
 72
    32
 73
    28
 74
     0
 42
0.000000001
 43
0.0000001
 40
0.0
 40
0.0
 40
0.0
 40
0.0
 40
1.0
 40
1.0
 40
1.0
 40
2.0
 40
2.0
 40
2.0
 40
3.0
 40
3.0
 40
3.0
 40
4.0
 40
4.0
 40
4.0
 40
5.0
 40
5.0
 40
5.0
 40
6.0
 40
6.0
 40
6.0
 40
7.0
 40
7.0
 40
7.0
 40
8.0
 40
8.0
 40
8.0
 40
9.0
 40
9.0
 40
9.0
 40
9.0
 10
330.0650178804
 20
25.5993748276
 30
0.0
 10
330.0650178804
 20
25.5993748276
 30
0.0
 10
330.0650178804
 20
25.6333965613
 30
0.0
 10
330.0650178804
 20
25.6333965613
 30
0.0
 10
330.0650178804
 20
25.9757075435
 30
0.0
 10
329.8921613025
 20
26.2473580019
 30
0.0
 10
329.5255116954
 20
26.2473580019
 30
0.0
 10
329.153889681
 20
26.2473580019
 30
0.0
 10
328.9641530891
 20
25.9809416564
 30
0.0
 10
328.9641530891
 20
25.6260688032
 30
0.0
 10
328.9641530891
 20
25.2863748774
 30
0.0
 10
329.1782283059
 20
25.0204819432
 30
0.0
 10
329.5303532498
 20
25.0204819432
 30
0.0
 10
329.754373281
 20
25.0204819432
 30
0.0
 10
329.9565408909
 20
25.1361558378
 30
0.0
 10
330.0650178804
 20
25.3355755385
 30
0.0
 10
330.0650178804
 20
25.3355755385
 30
0.0
 10
329.8773749337
 20
25.4423514412
 30
0.0
 10
329.8773749337
 20
25.4423514412
 30
0.0
 10
329.7938908332
 20
25.3036474499
 30
0.0
 10
329.7026864163
 20
25.2178079987
 30
0.0
 10
329.5331011591
 20
25.2178079987
 30
0.0
 10
329.3211195875
 20
25.2178079987
 30
0.0
 10
329.1881731204
 20
25.4025721833
 30
0.0
 10
329.1858177696
 20
25.5993748276
 30
0.0
 10
329.1858177696
 20
25.5993748276
 30
0.0
 10
330.0650178804
 20
25.5993748276
 30
0.0
 10
330.0650178804
 20
25.5993748276
 30
0.0
  0
SPLINE
  5
242
330
227
100
AcDbEntity
  8
0
  6
Continuous
 62
     7
100
AcDbSpline
 70
     3
 71
     3
 72
    14
 73
    10
 74
     0
 42
0.000000001
 43
0.0000001
 40
0.0
 40
0.0
 40
0.0
 40
0.0
 40
1.0
 40
1.0
 40
1.0
 40
2.0
 40
2.0
 40
2.0
 40
3.0
 40
3.0
 40
3.0
 40
3.0
 10
329.1978562292
 20
25.7668664397
 30
0.0
 10
329.2254661746
 20
25.9317409954
 30
0.0
 10
329.3533093817
 20
26.054742648
 30
0.0
 10
329.5255116954
 20
26.054742648
 30
0.0
 10
329.7026864163
 20
26.054742648
 30
0.0
 10
329.816135813
 20
25.9390687534
 30
0.0
 10
329.8433531999
 20
25.7668664397
 30
0.0
 10
329.8433531999
 20
25.7668664397
 30
0.0
 10
329.1978562292
 20
25.7668664397
 30
0.0
 10
329.1978562292
 20
25.7668664397
 30
0.0
  0
SPLINE
  5
243
330
227
100
AcDbEntity
  8
0
  6
Continuous
 62
     7
100
AcDbSpline
 70
     3
 71
     3
 72
    20
 73
    16
 74
     0
 42
0.000000001
 43
0.0000001
 40
0.0
 40
0.0
 40
0.0
 40
0.0
 40
1.0
 40
1.0
 40
1.0
 40
2.0
 40
2.0
 40
2.0
 40
3.0
 40
3.0
 40
3.0
 40
4.0
 40
4.0
 40
4.0
 40
5.0
 40
5.0
 40
5.0
 40
5.0
 10
332.0890493306
 20
25.9762309548
 30
0.0
 10
332.0890493306
 20
25.9762309548
 30
0.0
 10
332.5001888972
 20
25.4737561185
 30
0.0
 10
332.5001888972
 20
25.4737561185
 30
0.0
 10
332.3841224441
 20
25.3580822239
 30
0.0
 10
332.2463344226
 20
25.2277528132
 30
0.0
 10
332.0743938145
 20
25.2277528132
 30
0.0
 10
331.8969573879
 20
25.2277528132
 30
0.0
 10
331.7294657758
 20
25.3921039576
 30
0.0
 10
331.7294657758
 20
25.5690169729
 30
0.0
 10
331.7294657758
 20
25.7469768107
 30
0.0
 10
331.9392228494
 20
25.8731189311
 30
0.0
 10
332.0668043508
 20
25.9610520275
 30
0.0
 10
332.0668043508
 20
25.9610520275
 30
0.0
 10
332.0890493306
 20
25.9762309548
 30
0.0
 10
332.0890493306
 20
25.9762309548
 30
0.0
  0
SPLINE
  5
244
330
227
100
AcDbEntity
  8
0
  6
Continuous
 62
     7
100
AcDbSpline
 70
     3
 71
     3
 72
    23
 73
    19
 74
     0
 42
0.000000001
 43
0.0000001
 40
0.0
 40
0.0
 40
0.0
 40
0.0
 40
1.0
 40
1.0
 40
1.0
 40
2.0
 40
2.0
 40
2.0
 40
3.0
 40
3.0
 40
3.0
 40
4.0
 40
4.0
 40
4.0
 40
5.0
 40
5.0
 40
5.0
 40
6.0
 40
6.0
 40
6.0
 40
6.0
 10
332.1383808444
 20
26.2672476309
 30
0.0
 10
332.1383808444
 20
26.2672476309
 30
0.0
 10
332.0767491653
 20
26.3457593241
 30
0.0
 10
332.0767491653
 20
26.3457593241
 30
0.0
 10
332.0228378026
 20
26.4143262028
 30
0.0
 10
331.9660476779
 20
26.4834164928
 30
0.0
 10
331.9660476779
 20
26.5771071133
 30
0.0
 10
331.9660476779
 20
26.6959214757
 30
0.0
 10
332.0619627964
 20
26.7733863463
 30
0.0
 10
332.1729259894
 20
26.7733863463
 30
0.0
 10
332.2961893477
 20
26.7733863463
 30
0.0
 10
332.3894874098
 20
26.7022024111
 30
0.0
 10
332.3894874098
 20
26.5718730004
 30
0.0
 10
332.3894874098
 20
26.4368328882
 30
0.0
 10
332.2613824971
 20
26.3604148401
 30
0.0
 10
332.1678227294
 20
26.2866138485
 30
0.0
 10
332.1678227294
 20
26.2866138485
 30
0.0
 10
332.1383808444
 20
26.2672476309
 30
0.0
 10
332.1383808444
 20
26.2672476309
 30
0.0
  0
SPLINE
  5
245
330
227
100
AcDbEntity
  8
0
  6
Continuous
 62
     7
100
AcDbSpline
 70
     3
 71
     3
 72
    50
 73
    46
 74
     0
 42
0.000000001
 43
0.0000001
 40
0.0
 40
0.0
 40
0.0
 40
0.0
 40
1.0
 40
1.0
 40
1.0
 40
2.0
 40
2.0
 40
2.0
 40
3.0
 40
3.0
 40
3.0
 40
4.0
 40
4.0
 40
4.0
 40
5.0
 40
5.0
 40
5.0
 40
6.0
 40
6.0
 40
6.0
 40
7.0
 40
7.0
 40
7.0
 40
8.0
 40
8.0
 40
8.0
 40
9.0
 40
9.0
 40
9.0
 40
10.0
 40
10.0
 40
10.0
 40
11.0
 40
11.0
 40
11.0
 40
12.0
 40
12.0
 40
12.0
 40
13.0
 40
13.0
 40
13.0
 40
14.0
 40
14.0
 40
14.0
 40
15.0
 40
15.0
 40
15.0
 40
15.0
 10
332.8405370871
 20
25.0602612011
 30
0.0
 10
332.8405370871
 20
25.0602612011
 30
0.0
 10
333.1259270918
 20
25.0602612011
 30
0.0
 10
333.1259270918
 20
25.0602612011
 30
0.0
 10
333.1259270918
 20
25.0602612011
 30
0.0
 10
332.793560924
 20
25.471139062
 30
0.0
 10
332.793560924
 20
25.471139062
 30
0.0
 10
332.793560924
 20
25.471139062
 30
0.0
 10
333.0200671588
 20
25.7370319963
 30
0.0
 10
333.0200671588
 20
25.7370319963
 30
0.0
 10
333.0200671588
 20
25.7370319963
 30
0.0
 10
332.8718109116
 20
25.8898680923
 30
0.0
 10
332.8718109116
 20
25.8898680923
 30
0.0
 10
332.8718109116
 20
25.8898680923
 30
0.0
 10
332.6559037553
 20
25.6386306742
 30
0.0
 10
332.6559037553
 20
25.6386306742
 30
0.0
 10
332.6559037553
 20
25.6386306742
 30
0.0
 10
332.2688411079
 20
26.1065603655
 30
0.0
 10
332.2688411079
 20
26.1065603655
 30
0.0
 10
332.4242942604
 20
26.2206640263
 30
0.0
 10
332.6065722414
 20
26.3604148401
 30
0.0
 10
332.6065722414
 20
26.5697793553
 30
0.0
 10
332.6065722414
 20
26.8136890154
 30
0.0
 10
332.4045354843
 20
26.9571037083
 30
0.0
 10
332.1780292495
 20
26.9571037083
 30
0.0
 10
331.9338578837
 20
26.9571037083
 30
0.0
 10
331.7494862575
 20
26.8063612574
 30
0.0
 10
331.7494862575
 20
26.5498897263
 30
0.0
 10
331.7494862575
 20
26.3923429287
 30
0.0
 10
331.8481492853
 20
26.25468576
 30
0.0
 10
331.953485807
 20
26.1437225669
 30
0.0
 10
331.953485807
 20
26.1437225669
 30
0.0
 10
331.8379427652
 20
26.0599767609
 30
0.0
 10
331.8379427652
 20
26.0599767609
 30
0.0
 10
331.660244633
 20
25.9317409954
 30
0.0
 10
331.5129043554
 20
25.8040286411
 30
0.0
 10
331.5129043554
 20
25.5669233277
 30
0.0
 10
331.5129043554
 20
25.2465956195
 30
0.0
 10
331.7714695316
 20
25.0204819432
 30
0.0
 10
332.0818524253
 20
25.0204819432
 30
0.0
 10
332.3007691965
 20
25.0204819432
 30
0.0
 10
332.4979643992
 20
25.145577241
 30
0.0
 10
332.6382386243
 20
25.3114986192
 30
0.0
 10
332.6382386243
 20
25.3114986192
 30
0.0
 10
332.8405370871
 20
25.0602612011
 30
0.0
 10
332.8405370871
 20
25.0602612011
 30
0.0
  0
LWPOLYLINE
  5
246
330
227
100
AcDbEntity
  8
0
  6
Continuous
 62
     7
100
AcDbPolyline
 90
        2
 70
     0
 43
0.2
 10
334.7759811768
 20
26.9168010391
 10
334.5446333876
 20
26.9168010391
  0
LWPOLYLINE
  5
247
330
227
100
AcDbEntity
  8
0
  6
Continuous
 62
     7
100
AcDbPolyline
 90
        2
 70
     0
 43
0.2
 10
334.5446333876
 20
26.9168010391
 10
334.5446333876
 20
25.0597377898
  0
LWPOLYLINE
  5
248
330
227
100
AcDbEntity
  8
0
  6
Continuous
 62
     7
100
AcDbPolyline
 90
        2
 70
     0
 43
0.2
 10
334.5446333876
 20
25.0597377898
 10
335.3399568395
 20
25.0597377898
  0
LWPOLYLINE
  5
249
330
227
100
AcDbEntity
  8
0
  6
Continuous
 62
     7
100
AcDbPolyline
 90
        2
 70
     0
 43
0.2
 10
335.3399568395
 20
25.0597377898
 10
335.3399568395
 20
25.2717193614
  0
LWPOLYLINE
  5
24A
330
227
100
AcDbEntity
  8
0
  6
Continuous
 62
     7
100
AcDbPolyline
 90
        2
 70
     0
 43
0.2
 10
335.3399568395
 20
25.2717193614
 10
334.7759811768
 20
25.2717193614
  0
LWPOLYLINE
  5
24B
330
227
100
AcDbEntity
  8
0
  6
Continuous
 62
     7
100
AcDbPolyline
 90
        2
 70
     0
 43
0.2
 10
334.7759811768
 20
25.2717193614
 10
334.7759811768
 20
26.9168010391
  0
LWPOLYLINE
  5
24C
330
227
100
AcDbEntity
  8
0
  6
Continuous
 62
     7
100
AcDbPolyline
 90
        2
 70
     0
 43
0.2
 10
337.019060251
 20
26.2122894457
 10
336.7979189819
 20
26.2122894457
  0
LWPOLYLINE
  5
24D
330
227
100
AcDbEntity
  8
0
  6
Continuous
 62
     7
100
AcDbPolyline
 90
        2
 70
     0
 43
0.2
 10
336.7979189819
 20
26.2122894457
 10
336.7979189819
 20
25.0602612011
  0
LWPOLYLINE
  5
24E
330
227
100
AcDbEntity
  8
0
  6
Continuous
 62
     7
100
AcDbPolyline
 90
        2
 70
     0
 43
0.2
 10
336.7979189819
 20
25.0602612011
 10
337.019060251
 20
25.0602612011
  0
LWPOLYLINE
  5
24F
330
227
100
AcDbEntity
  8
0
  6
Continuous
 62
     7
100
AcDbPolyline
 90
        2
 70
     0
 43
0.2
 10
337.019060251
 20
25.0602612011
 10
337.019060251
 20
26.2122894457
  0
SPLINE
  5
250
330
227
100
AcDbEntity
  8
0
  6
Continuous
 62
     7
100
AcDbSpline
 70
     3
 71
     3
 72
    17
 73
    13
 74
     0
 42
0.000000001
 43
0.0000001
 40
0.0
 40
0.0
 40
0.0
 40
0.0
 40
1.0
 40
1.0
 40
1.0
 40
2.0
 40
2.0
 40
2.0
 40
3.0
 40
3.0
 40
3.0
 40
4.0
 40
4.0
 40
4.0
 40
4.0
 10
336.9086204693
 20
26.894817765
 30
0.0
 10
336.8246129576
 20
26.894817765
 30
0.0
 10
336.7560460788
 20
26.825727475
 30
0.0
 10
336.7560460788
 20
26.7398880238
 30
0.0
 10
336.7560460788
 20
26.6556188065
 30
0.0
 10
336.8246129576
 20
26.5896689842
 30
0.0
 10
336.9086204693
 20
26.5896689842
 30
0.0
 10
336.9923662753
 20
26.5896689842
 30
0.0
 10
337.0611948597
 20
26.6556188065
 30
0.0
 10
337.0611948597
 20
26.7398880238
 30
0.0
 10
337.0611948597
 20
26.825727475
 30
0.0
 10
336.9923662753
 20
26.894817765
 30
0.0
 10
336.9086204693
 20
26.894817765
 30
0.0
  0
SPLINE
  5
251
330
227
100
AcDbEntity
  8
0
  6
Continuous
 62
     7
100
AcDbSpline
 70
     3
 71
     3
 72
    17
 73
    13
 74
     0
 42
0.000000001
 43
0.0000001
 40
0.0
 40
0.0
 40
0.0
 40
0.0
 40
1.0
 40
1.0
 40
1.0
 40
2.0
 40
2.0
 40
2.0
 40
3.0
 40
3.0
 40
3.0
 40
4.0
 40
4.0
 40
4.0
 40
4.0
 10
339.1493441926
 20
25.2178079987
 30
0.0
 10
338.915379347
 20
25.2178079987
 30
0.0
 10
338.7850499363
 20
25.4198447558
 30
0.0
 10
338.7850499363
 20
25.6360136177
 30
0.0
 10
338.7850499363
 20
25.8506122457
 30
0.0
 10
338.9208751655
 20
26.0495085351
 30
0.0
 10
339.1493441926
 20
26.0495085351
 30
0.0
 10
339.3888048568
 20
26.0495085351
 30
0.0
 10
339.5243683804
 20
25.8605570602
 30
0.0
 10
339.5243683804
 20
25.6360136177
 30
0.0
 10
339.5243683804
 20
25.4098999414
 30
0.0
 10
339.3911602076
 20
25.2178079987
 30
0.0
 10
339.1493441926
 20
25.2178079987
 30
0.0
  0
SPLINE
  5
252
330
227
100
AcDbEntity
  8
0
  6
Continuous
 62
     7
100
AcDbSpline
 70
     3
 71
     3
 72
    50
 73
    46
 74
     0
 42
0.000000001
 43
0.0000001
 40
0.0
 40
0.0
 40
0.0
 40
0.0
 40
1.0
 40
1.0
 40
1.0
 40
2.0
 40
2.0
 40
2.0
 40
3.0
 40
3.0
 40
3.0
 40
4.0
 40
4.0
 40
4.0
 40
5.0
 40
5.0
 40
5.0
 40
6.0
 40
6.0
 40
6.0
 40
7.0
 40
7.0
 40
7.0
 40
8.0
 40
8.0
 40
8.0
 40
9.0
 40
9.0
 40
9.0
 40
10.0
 40
10.0
 40
10.0
 40
11.0
 40
11.0
 40
11.0
 40
12.0
 40
12.0
 40
12.0
 40
13.0
 40
13.0
 40
13.0
 40
14.0
 40
14.0
 40
14.0
 40
15.0
 40
15.0
 40
15.0
 40
15.0
 10
339.7334711899
 20
26.2128128569
 30
0.0
 10
339.7334711899
 20
26.2128128569
 30
0.0
 10
339.5118065095
 20
26.2128128569
 30
0.0
 10
339.5118065095
 20
26.2128128569
 30
0.0
 10
339.5118065095
 20
26.2128128569
 30
0.0
 10
339.5118065095
 20
26.0154868014
 30
0.0
 10
339.5118065095
 20
26.0154868014
 30
0.0
 10
339.5118065095
 20
26.0154868014
 30
0.0
 10
339.5070958079
 20
26.0154868014
 30
0.0
 10
339.5070958079
 20
26.0154868014
 30
0.0
 10
339.4157605382
 20
26.158378083
 30
0.0
 10
339.2778416638
 20
26.2468345907
 30
0.0
 10
339.1051159388
 20
26.2468345907
 30
0.0
 10
338.772749771
 20
26.2468345907
 30
0.0
 10
338.5636469615
 20
25.9589583823
 30
0.0
 10
338.5636469615
 20
25.6433413757
 30
0.0
 10
338.5636469615
 20
25.3135922644
 30
0.0
 10
338.7607113114
 20
25.0204819432
 30
0.0
 10
339.1155841646
 20
25.0204819432
 30
0.0
 10
339.2778416638
 20
25.0204819432
 30
0.0
 10
339.4178541833
 20
25.1089384508
 30
0.0
 10
339.5070958079
 20
25.2397912728
 30
0.0
 10
339.5070958079
 20
25.2397912728
 30
0.0
 10
339.5118065095
 20
25.2397912728
 30
0.0
 10
339.5118065095
 20
25.2397912728
 30
0.0
 10
339.5118065095
 20
25.2397912728
 30
0.0
 10
339.5118065095
 20
25.0204819432
 30
0.0
 10
339.5118065095
 20
25.0204819432
 30
0.0
 10
339.5118065095
 20
24.7839000411
 30
0.0
 10
339.4552780904
 20
24.5970422113
 30
0.0
 10
339.1820573981
 20
24.5970422113
 30
0.0
 10
338.9797589354
 20
24.5970422113
 30
0.0
 10
338.8371293594
 20
24.7153331624
 30
0.0
 10
338.8371293594
 20
24.9215572098
 30
0.0
 10
338.8371293594
 20
24.9215572098
 30
0.0
 10
338.615464679
 20
24.9215572098
 30
0.0
 10
338.615464679
 20
24.9215572098
 30
0.0
 10
338.6204370862
 20
24.5970422113
 30
0.0
 10
338.8515231698
 20
24.4002395671
 30
0.0
 10
339.171850878
 20
24.4002395671
 30
0.0
 10
339.6198909404
 20
24.4002395671
 30
0.0
 10
339.7334711899
 20
24.6854987189
 30
0.0
 10
339.7334711899
 20
25.0822444751
 30
0.0
 10
339.7334711899
 20
25.0822444751
 30
0.0
 10
339.7334711899
 20
26.2128128569
 30
0.0
 10
339.7334711899
 20
26.2128128569
 30
0.0
  0
SPLINE
  5
253
330
227
100
AcDbEntity
  8
0
  6
Continuous
 62
     7
100
AcDbSpline
 70
     3
 71
     3
 72
    44
 73
    40
 74
     0
 42
0.000000001
 43
0.0000001
 40
0.0
 40
0.0
 40
0.0
 40
0.0
 40
1.0
 40
1.0
 40
1.0
 40
2.0
 40
2.0
 40
2.0
 40
3.0
 40
3.0
 40
3.0
 40
4.0
 40
4.0
 40
4.0
 40
5.0
 40
5.0
 40
5.0
 40
6.0
 40
6.0
 40
6.0
 40
7.0
 40
7.0
 40
7.0
 40
8.0
 40
8.0
 40
8.0
 40
9.0
 40
9.0
 40
9.0
 40
10.0
 40
10.0
 40
10.0
 40
11.0
 40
11.0
 40
11.0
 40
12.0
 40
12.0
 40
12.0
 40
13.0
 40
13.0
 40
13.0
 40
13.0
 10
341.3023965253
 20
27.1978729007
 30
0.0
 10
341.3023965253
 20
27.1978729007
 30
0.0
 10
341.3023965253
 20
25.0597377898
 30
0.0
 10
341.3023965253
 20
25.0597377898
 30
0.0
 10
341.3023965253
 20
25.0597377898
 30
0.0
 10
341.5237995001
 20
25.0597377898
 30
0.0
 10
341.5237995001
 20
25.0597377898
 30
0.0
 10
341.5237995001
 20
25.0597377898
 30
0.0
 10
341.5237995001
 20
25.5894300131
 30
0.0
 10
341.5237995001
 20
25.5894300131
 30
0.0
 10
341.5237995001
 20
25.7993179395
 30
0.0
 10
341.5237995001
 20
26.0500319464
 30
0.0
 10
341.8090586519
 20
26.0500319464
 30
0.0
 10
342.0359574452
 20
26.0500319464
 30
0.0
 10
342.0629131266
 20
25.9170854793
 30
0.0
 10
342.0629131266
 20
25.7208062464
 30
0.0
 10
342.0629131266
 20
25.7208062464
 30
0.0
 10
342.0629131266
 20
25.0597377898
 30
0.0
 10
342.0629131266
 20
25.0597377898
 30
0.0
 10
342.0629131266
 20
25.0597377898
 30
0.0
 10
342.2848395126
 20
25.0597377898
 30
0.0
 10
342.2848395126
 20
25.0597377898
 30
0.0
 10
342.2848395126
 20
25.0597377898
 30
0.0
 10
342.2848395126
 20
25.7469768107
 30
0.0
 10
342.2848395126
 20
25.7469768107
 30
0.0
 10
342.2848395126
 20
26.027525261
 30
0.0
 10
342.2008320009
 20
26.2473580019
 30
0.0
 10
341.8757935911
 20
26.2473580019
 30
0.0
 10
341.7360427773
 20
26.2473580019
 30
0.0
 10
341.5978621973
 20
26.1808847684
 30
0.0
 10
341.5285102016
 20
26.0578831157
 30
0.0
 10
341.5285102016
 20
26.0578831157
 30
0.0
 10
341.5237995001
 20
26.0578831157
 30
0.0
 10
341.5237995001
 20
26.0578831157
 30
0.0
 10
341.5237995001
 20
26.0578831157
 30
0.0
 10
341.5237995001
 20
27.1978729007
 30
0.0
 10
341.5237995001
 20
27.1978729007
 30
0.0
 10
341.5237995001
 20
27.1978729007
 30
0.0
 10
341.3023965253
 20
27.1978729007
 30
0.0
 10
341.3023965253
 20
27.1978729007
 30
0.0
  0
LWPOLYLINE
  5
254
330
227
100
AcDbEntity
  8
0
  6
Continuous
 62
     7
100
AcDbPolyline
 90
        2
 70
     0
 43
0.2
 10
344.1246301895
 20
26.005541987
 10
344.341060757
 20
26.005541987
  0
LWPOLYLINE
  5
255
330
227
100
AcDbEntity
  8
0
  6
Continuous
 62
     7
100
AcDbPolyline
 90
        2
 70
     0
 43
0.2
 10
344.341060757
 20
26.005541987
 10
344.341060757
 20
26.2122894457
  0
LWPOLYLINE
  5
256
330
227
100
AcDbEntity
  8
0
  6
Continuous
 62
     7
100
AcDbPolyline
 90
        2
 70
     0
 43
0.2
 10
344.341060757
 20
26.2122894457
 10
344.1246301895
 20
26.2122894457
  0
LWPOLYLINE
  5
257
330
227
100
AcDbEntity
  8
0
  6
Continuous
 62
     7
100
AcDbPolyline
 90
        2
 70
     0
 43
0.2
 10
344.1246301895
 20
26.2122894457
 10
344.1246301895
 20
26.65300175
  0
LWPOLYLINE
  5
258
330
227
100
AcDbEntity
  8
0
  6
Continuous
 62
     7
100
AcDbPolyline
 90
        2
 70
     0
 43
0.2
 10
344.1246301895
 20
26.65300175
 10
343.9029655091
 20
26.65300175
  0
LWPOLYLINE
  5
259
330
227
100
AcDbEntity
  8
0
  6
Continuous
 62
     7
100
AcDbPolyline
 90
        2
 70
     0
 43
0.2
 10
343.9029655091
 20
26.65300175
 10
343.9029655091
 20
26.2122894457
  0
LWPOLYLINE
  5
25A
330
227
100
AcDbEntity
  8
0
  6
Continuous
 62
     7
100
AcDbPolyline
 90
        2
 70
     0
 43
0.2
 10
343.9029655091
 20
26.2122894457
 10
343.7823192072
 20
26.2122894457
  0
LWPOLYLINE
  5
25B
330
227
100
AcDbEntity
  8
0
  6
Continuous
 62
     7
100
AcDbPolyline
 90
        2
 70
     0
 43
0.2
 10
343.7823192072
 20
26.2122894457
 10
343.7823192072
 20
26.005541987
  0
LWPOLYLINE
  5
25C
330
227
100
AcDbEntity
  8
0
  6
Continuous
 62
     7
100
AcDbPolyline
 90
        2
 70
     0
 43
0.2
 10
343.7823192072
 20
26.005541987
 10
343.9029655091
 20
26.005541987
  0
LWPOLYLINE
  5
25D
330
227
100
AcDbEntity
  8
0
  6
Continuous
 62
     7
100
AcDbPolyline
 90
        2
 70
     0
 43
0.2
 10
343.9029655091
 20
26.005541987
 10
343.9029655091
 20
25.0597377898
  0
LWPOLYLINE
  5
25E
330
227
100
AcDbEntity
  8
0
  6
Continuous
 62
     7
100
AcDbPolyline
 90
        2
 70
     0
 43
0.2
 10
343.9029655091
 20
25.0597377898
 10
344.1246301895
 20
25.0597377898
  0
LWPOLYLINE
  5
25F
330
227
100
AcDbEntity
  8
0
  6
Continuous
 62
     7
100
AcDbPolyline
 90
        2
 70
     0
 43
0.2
 10
344.1246301895
 20
25.0597377898
 10
344.1246301895
 20
26.005541987
  0
SPLINE
  5
260
330
227
100
AcDbEntity
  8
0
  6
Continuous
 62
     7
100
AcDbSpline
 70
     3
 71
     3
 72
    20
 73
    16
 74
     0
 42
0.000000001
 43
0.0000001
 40
0.0
 40
0.0
 40
0.0
 40
0.0
 40
1.0
 40
1.0
 40
1.0
 40
2.0
 40
2.0
 40
2.0
 40
3.0
 40
3.0
 40
3.0
 40
4.0
 40
4.0
 40
4.0
 40
5.0
 40
5.0
 40
5.0
 40
5.0
 10
331.9066404967
 20
35.4206642332
 30
0.0
 10
331.9066404967
 20
35.4206642332
 30
0.0
 10
334.2229971512
 20
32.5911028109
 30
0.0
 10
334.2229971512
 20
32.5911028109
 30
0.0
 10
333.5713500978
 20
31.9389323462
 30
0.0
 10
332.7944768938
 20
31.2030160755
 30
0.0
 10
331.8232872491
 20
31.2030160755
 30
0.0
 10
330.8247493647
 20
31.2030160755
 30
0.0
 10
329.8814313711
 20
32.1325945228
 30
0.0
 10
329.8814313711
 20
33.1317866713
 30
0.0
 10
329.8814313711
 20
34.1309788198
 30
0.0
 10
331.0602844442
 20
34.8375840585
 30
0.0
 10
331.7818069046
 20
35.3374418384
 30
0.0
 10
331.7818069046
 20
35.3374418384
 30
0.0
 10
331.9066404967
 20
35.4206642332
 30
0.0
 10
331.9066404967
 20
35.4206642332
 30
0.0
  0
SPLINE
  5
261
330
227
100
AcDbEntity
  8
0
  6
Continuous
 62
     7
100
AcDbSpline
 70
     3
 71
     3
 72
    23
 73
    19
 74
     0
 42
0.000000001
 43
0.0000001
 40
0.0
 40
0.0
 40
0.0
 40
0.0
 40
1.0
 40
1.0
 40
1.0
 40
2.0
 40
2.0
 40
2.0
 40
3.0
 40
3.0
 40
3.0
 40
4.0
 40
4.0
 40
4.0
 40
5.0
 40
5.0
 40
5.0
 40
6.0
 40
6.0
 40
6.0
 40
6.0
 10
332.1840484793
 20
37.0584181529
 30
0.0
 10
332.1840484793
 20
37.0584181529
 30
0.0
 10
331.8375502067
 20
37.5017475137
 30
0.0
 10
331.8375502067
 20
37.5017475137
 30
0.0
 10
331.5317471618
 20
37.8898569837
 30
0.0
 10
331.2128588347
 20
38.2783590121
 30
0.0
 10
331.2128588347
 20
38.8053033262
 30
0.0
 10
331.2128588347
 20
39.4714750428
 30
0.0
 10
331.7541969591
 20
39.9151969621
 30
0.0
 10
332.3781032143
 20
39.9151969621
 30
0.0
 10
333.0718848763
 20
39.9151969621
 30
0.0
 10
333.5990908961
 20
39.5129553874
 30
0.0
 10
333.5990908961
 20
38.7779550864
 30
0.0
 10
333.5990908961
 20
38.0146905758
 30
0.0
 10
332.8778301414
 20
37.58457735
 30
0.0
 10
332.3507549745
 20
37.1688579346
 30
0.0
 10
332.3507549745
 20
37.1688579346
 30
0.0
 10
332.1840484793
 20
37.0584181529
 30
0.0
 10
332.1840484793
 20
37.0584181529
 30
0.0
  0
SPLINE
  5
262
330
227
100
AcDbEntity
  8
0
  6
Continuous
 62
     7
100
AcDbSpline
 70
     3
 71
     3
 72
    50
 73
    46
 74
     0
 42
0.000000001
 43
0.0000001
 40
0.0
 40
0.0
 40
0.0
 40
0.0
 40
1.0
 40
1.0
 40
1.0
 40
2.0
 40
2.0
 40
2.0
 40
3.0
 40
3.0
 40
3.0
 40
4.0
 40
4.0
 40
4.0
 40
5.0
 40
5.0
 40
5.0
 40
6.0
 40
6.0
 40
6.0
 40
7.0
 40
7.0
 40
7.0
 40
8.0
 40
8.0
 40
8.0
 40
9.0
 40
9.0
 40
9.0
 40
10.0
 40
10.0
 40
10.0
 40
11.0
 40
11.0
 40
11.0
 40
12.0
 40
12.0
 40
12.0
 40
13.0
 40
13.0
 40
13.0
 40
14.0
 40
14.0
 40
14.0
 40
15.0
 40
15.0
 40
15.0
 40
15.0
 10
336.1376356422
 20
30.2598289348
 30
0.0
 10
336.1376356422
 20
30.2598289348
 30
0.0
 10
337.7468636468
 20
30.2598289348
 30
0.0
 10
337.7468636468
 20
30.2598289348
 30
0.0
 10
337.7468636468
 20
30.2598289348
 30
0.0
 10
335.8738363531
 20
32.5769707062
 30
0.0
 10
335.8738363531
 20
32.5769707062
 30
0.0
 10
335.8738363531
 20
32.5769707062
 30
0.0
 10
337.1501747786
 20
34.0744504008
 30
0.0
 10
337.1501747786
 20
34.0744504008
 30
0.0
 10
337.1501747786
 20
34.0744504008
 30
0.0
 10
336.3179508309
 20
34.9354619693
 30
0.0
 10
336.3179508309
 20
34.9354619693
 30
0.0
 10
336.3179508309
 20
34.9354619693
 30
0.0
 10
335.0973557076
 20
33.5201578469
 30
0.0
 10
335.0973557076
 20
33.5201578469
 30
0.0
 10
335.0973557076
 20
33.5201578469
 30
0.0
 10
332.9194413388
 20
36.1555336813
 30
0.0
 10
332.9194413388
 20
36.1555336813
 30
0.0
 10
333.7930147782
 20
36.7935720412
 30
0.0
 10
334.8196860194
 20
37.58457735
 30
0.0
 10
334.8196860194
 20
38.7634304231
 30
0.0
 10
334.8196860194
 20
40.1371233482
 30
0.0
 10
333.6817898795
 20
40.9416064976
 30
0.0
 10
332.4064982766
 20
40.9416064976
 30
0.0
 10
331.0330670573
 20
40.9416064976
 30
0.0
 10
329.9921328585
 20
40.0953812979
 30
0.0
 10
329.9921328585
 20
38.6527289358
 30
0.0
 10
329.9921328585
 20
37.7651542444
 30
0.0
 10
330.547472235
 20
36.9882810403
 30
0.0
 10
331.1436376918
 20
36.3638513739
 30
0.0
 10
331.1436376918
 20
36.3638513739
 30
0.0
 10
330.4917289328
 20
35.8922578035
 30
0.0
 10
330.4917289328
 20
35.8922578035
 30
0.0
 10
329.4931910484
 20
35.1709970488
 30
0.0
 10
328.6603128365
 20
34.4497362942
 30
0.0
 10
328.6603128365
 20
33.1181779778
 30
0.0
 10
328.6603128365
 20
31.3145026798
 30
0.0
 10
330.1173590091
 20
30.0379025487
 30
0.0
 10
331.8648984465
 20
30.0379025487
 30
0.0
 10
333.0997565274
 20
30.0379025487
 30
0.0
 10
334.2091267521
 20
30.7460780212
 30
0.0
 10
335.000001208
 20
31.6746096459
 30
0.0
 10
335.000001208
 20
31.6746096459
 30
0.0
 10
336.1376356422
 20
30.2598289348
 30
0.0
 10
336.1376356422
 20
30.2598289348
 30
0.0
  0
LINE
  5
263
330
227
100
AcDbEntity
  8
0
  6
Continuous
 62
     7
100
AcDbLine
 10
321.9404970172
 20
28.2337038394
 30
0.0
 11
344.3544077449
 21
28.2337038394
 31
0.0
  0
LINE
  5
264
330
227
100
AcDbEntity
  8
0
  6
Continuous
 62
     7
100
AcDbLine
 10
344.3544077449
 20
28.2337038394
 30
0.0
 11
344.3544077449
 21
50.6476145671
 31
0.0
  0
LINE
  5
265
330
227
100
AcDbEntity
  8
0
  6
Continuous
 62
     7
100
AcDbLine
 10
344.3544077449
 20
50.6476145671
 30
0.0
 11
321.9404970172
 21
50.6476145671
 31
0.0
  0
LINE
  5
266
330
227
100
AcDbEntity
  8
0
  6
Continuous
 62
     7
100
AcDbLine
 10
321.9404970172
 20
50.6476145671
 30
0.0
 11
321.9404970172
 21
28.2337038394
 31
0.0
  0
ENDBLK
  5
267
330
227
100
AcDbEntity
  8
0
  6
ByBlock
 62
     0
100
AcDbBlockEnd
  0
BLOCK
  5
27C
330
228
100
AcDbEntity
  8
0
100
AcDbBlockBegin
  2
*T4
 70
     1
 10
0.0
 20
0.0
 30
0.0
  3
*T4
  1
*T4
  0
MTEXT
  5
27D
330
228
100
AcDbEntity
  8
0
  6
Continuous
 62
     0
100
AcDbMText
 10
30.28622003006668
 20
-3.0
 30
0.0
 40
3.0
 41
40.18162670675557
 71
     4
 72
     5
  1
2C3_C_001
 73
     1
 44
1.0
  0
MTEXT
  5
27E
330
228
100
AcDbEntity
  8
0
  6
Continuous
 62
     0
100
AcDbMText
 10
70.58784673682226
 20
-0.06
 30
0.0
 40
3.5
 41
20.03081335337778
 71
     1
 72
     5
  1
Rev:00
 73
     1
 44
1.0
  0
MTEXT
  5
27F
330
228
100
AcDbEntity
  8
0
  6
Continuous
 62
     0
100
AcDbMText
 10
30.28622003006668
 20
-6.06
 30
0.0
 40
3.5
 41
40.18162670675557
 71
     1
 72
     5
  1
Scale:1:1
 73
     1
 44
1.0
  0
MTEXT
  5
280
330
228
100
AcDbEntity
  8
0
  6
Continuous
 62
     0
100
AcDbMText
 10
70.58784673682226
 20
-9.0
 30
0.0
 40
3.5
 41
20.03081335337778
 71
     4
 72
     5
  1
A3
 73
     1
 44
1.0
  0
MTEXT
  5
281
330
228
100
AcDbEntity
  8
0
  6
Continuous
 62
     0
100
AcDbMText
 10
30.28622003006668
 20
-17.0
 30
0.0
 40
3.5
 41
60.33244006013336
 71
     4
 72
     5
  1
BRIGHT 3.4
 73
     1
 44
1.0
  0
MTEXT
  5
282
330
228
100
AcDbEntity
  8
0
  6
Continuous
 62
     0
100
AcDbMText
 10
30.28622003006668
 20
-24.5
 30
0.0
 40
2.5
 41
60.33244006013336
 71
     4
 72
     5
  1
DATE:24/02/2014
 73
     1
 44
1.0
  0
MTEXT
  5
283
330
228
100
AcDbEntity
  8
0
  6
Continuous
 62
     0
100
AcDbMText
 10
0.06
 20
-27.06
 30
0.0
 40
1.85
 41
90.55866009020004
 71
     1
 72
     5
  1
Any integral or partial reproductions are prohibited \Pwithout prior authorisation of L & L Luce & Light s.r.l., \Pin accordance with the law in force. \PAll rights reserved.
 73
     1
 44
1.0
  0
LINE
  5
284
330
228
100
AcDbEntity
  8
0
  6
Continuous
 62
     0
370
    -2
100
AcDbLine
 10
0.0
 20
0.0
 30
0.0
 11
10.07540667668889
 21
0.0
 31
0.0
  0
LINE
  5
285
330
228
100
AcDbEntity
  8
0
  6
Continuous
 62
     0
370
    -2
100
AcDbLine
 10
10.07540667668889
 20
0.0
 30
0.0
 11
20.15081335337779
 21
0.0
 31
0.0
  0
LINE
  5
286
330
228
100
AcDbEntity
  8
0
  6
Continuous
 62
     0
370
    -2
100
AcDbLine
 10
20.15081335337779
 20
0.0
 30
0.0
 11
30.22622003006668
 21
0.0
 31
0.0
  0
LINE
  5
287
330
228
100
AcDbEntity
  8
0
  6
Continuous
 62
     0
370
    -2
100
AcDbLine
 10
0.0
 20
0.0
 30
0.0
 11
0.0
 21
-6.0
 31
0.0
  0
LINE
  5
288
330
228
100
AcDbEntity
  8
0
  6
Continuous
 62
     0
370
    -2
100
AcDbLine
 10
0.0
 20
-6.0
 30
0.0
 11
0.0
 21
-12.0
 31
0.0
  0
LINE
  5
289
330
228
100
AcDbEntity
  8
0
  6
Continuous
 62
     0
370
    -2
100
AcDbLine
 10
0.0
 20
-12.0
 30
0.0
 11
0.0
 21
-22.0
 31
0.0
  0
LINE
  5
28A
330
228
100
AcDbEntity
  8
0
  6
Continuous
 62
     0
370
    -2
100
AcDbLine
 10
0.0
 20
-22.0
 30
0.0
 11
0.0
 21
-27.0
 31
0.0
  0
LINE
  5
28B
330
228
100
AcDbEntity
  8
0
  6
Continuous
 62
     0
370
    -2
100
AcDbLine
 10
30.22622003006668
 20
0.0
 30
0.0
 11
70.52784673682226
 21
0.0
 31
0.0
  0
LINE
  5
28C
330
228
100
AcDbEntity
  8
0
  6
Continuous
 62
     0
370
    -2
100
AcDbLine
 10
30.22622003006668
 20
0.0
 30
0.0
 11
30.22622003006668
 21
-6.0
 31
0.0
  0
LINE
  5
28D
330
228
100
AcDbEntity
  8
0
  6
Continuous
 62
     0
370
    -2
100
AcDbLine
 10
70.52784673682226
 20
0.0
 30
0.0
 11
90.67866009020004
 21
0.0
 31
0.0
  0
LINE
  5
526
330
228
100
AcDbEntity
  8
0
  6
Continuous
 62
     0
370
    -2
100
AcDbLine
 10
70.52784673682226
 20
0.0
 30
0.0
 11
70.52784673682226
 21
-6.0
 31
0.0
  0
LINE
  5
527
330
228
100
AcDbEntity
  8
0
  6
Continuous
 62
     0
370
    -2
100
AcDbLine
 10
90.67866009020004
 20
0.0
 30
0.0
 11
90.67866009020004
 21
-6.0
 31
0.0
  0
LINE
  5
528
330
228
100
AcDbEntity
  8
0
  6
Continuous
 62
     0
370
    -2
100
AcDbLine
 10
30.22622003006668
 20
-6.0
 30
0.0
 11
70.52784673682226
 21
-6.0
 31
0.0
  0
LINE
  5
529
330
228
100
AcDbEntity
  8
0
  6
Continuous
 62
     0
370
    -2
100
AcDbLine
 10
30.22622003006668
 20
-6.0
 30
0.0
 11
30.22622003006668
 21
-12.0
 31
0.0
  0
LINE
  5
52A
330
228
100
AcDbEntity
  8
0
  6
Continuous
 62
     0
370
    -2
100
AcDbLine
 10
70.52784673682226
 20
-6.0
 30
0.0
 11
90.67866009020004
 21
-6.0
 31
0.0
  0
LINE
  5
52B
330
228
100
AcDbEntity
  8
0
  6
Continuous
 62
     0
370
    -2
100
AcDbLine
 10
70.52784673682226
 20
-6.0
 30
0.0
 11
70.52784673682226
 21
-12.0
 31
0.0
  0
LINE
  5
52C
330
228
100
AcDbEntity
  8
0
  6
Continuous
 62
     0
370
    -2
100
AcDbLine
 10
90.67866009020004
 20
-6.0
 30
0.0
 11
90.67866009020004
 21
-12.0
 31
0.0
  0
LINE
  5
52D
330
228
100
AcDbEntity
  8
0
  6
Continuous
 62
     0
370
    -2
100
AcDbLine
 10
30.22622003006668
 20
-12.0
 30
0.0
 11
70.52784673682226
 21
-12.0
 31
0.0
  0
LINE
  5
52E
330
228
100
AcDbEntity
  8
0
  6
Continuous
 62
     0
370
    -2
100
AcDbLine
 10
70.52784673682226
 20
-12.0
 30
0.0
 11
90.67866009020003
 21
-12.0
 31
0.0
  0
LINE
  5
52F
330
228
100
AcDbEntity
  8
0
  6
Continuous
 62
     0
370
    -2
100
AcDbLine
 10
30.22622003006668
 20
-12.0
 30
0.0
 11
30.22622003006668
 21
-22.0
 31
0.0
  0
LINE
  5
530
330
228
100
AcDbEntity
  8
0
  6
Continuous
 62
     0
370
    -2
100
AcDbLine
 10
90.67866009020004
 20
-12.0
 30
0.0
 11
90.67866009020004
 21
-22.0
 31
0.0
  0
LINE
  5
531
330
228
100
AcDbEntity
  8
0
  6
Continuous
 62
     0
370
    -2
100
AcDbLine
 10
30.22622003006668
 20
-22.0
 30
0.0
 11
70.52784673682226
 21
-22.0
 31
0.0
  0
LINE
  5
532
330
228
100
AcDbEntity
  8
0
  6
Continuous
 62
     0
370
    -2
100
AcDbLine
 10
70.52784673682226
 20
-22.0
 30
0.0
 11
90.67866009020003
 21
-22.0
 31
0.0
  0
LINE
  5
533
330
228
100
AcDbEntity
  8
0
  6
Continuous
 62
     0
370
    -2
100
AcDbLine
 10
30.22622003006668
 20
-22.0
 30
0.0
 11
30.22622003006668
 21
-27.0
 31
0.0
  0
LINE
  5
534
330
228
100
AcDbEntity
  8
0
  6
Continuous
 62
     0
370
    -2
100
AcDbLine
 10
90.67866009020004
 20
-22.0
 30
0.0
 11
90.67866009020004
 21
-27.0
 31
0.0
  0
LINE
  5
535
330
228
100
AcDbEntity
  8
0
  6
Continuous
 62
     0
370
    -2
100
AcDbLine
 10
0.0
 20
-27.0
 30
0.0
 11
10.07540667668889
 21
-27.0
 31
0.0
  0
LINE
  5
536
330
228
100
AcDbEntity
  8
0
  6
Continuous
 62
     0
370
    -2
100
AcDbLine
 10
10.07540667668889
 20
-27.0
 30
0.0
 11
20.15081335337779
 21
-27.0
 31
0.0
  0
LINE
  5
537
330
228
100
AcDbEntity
  8
0
  6
Continuous
 62
     0
370
    -2
100
AcDbLine
 10
20.15081335337779
 20
-27.0
 30
0.0
 11
30.22622003006668
 21
-27.0
 31
0.0
  0
LINE
  5
538
330
228
100
AcDbEntity
  8
0
  6
Continuous
 62
     0
370
    -2
100
AcDbLine
 10
30.22622003006668
 20
-27.0
 30
0.0
 11
70.52784673682226
 21
-27.0
 31
0.0
  0
LINE
  5
539
330
228
100
AcDbEntity
  8
0
  6
Continuous
 62
     0
370
    -2
100
AcDbLine
 10
70.52784673682226
 20
-27.0
 30
0.0
 11
90.67866009020004
 21
-27.0
 31
0.0
  0
LINE
  5
53A
330
228
100
AcDbEntity
  8
0
  6
Continuous
 62
     0
370
    -2
100
AcDbLine
 10
0.0
 20
-27.0
 30
0.0
 11
0.0
 21
-40.0
 31
0.0
  0
LINE
  5
53B
330
228
100
AcDbEntity
  8
0
  6
Continuous
 62
     0
370
    -2
100
AcDbLine
 10
90.67866009020004
 20
-27.0
 30
0.0
 11
90.67866009020004
 21
-40.0
 31
0.0
  0
LINE
  5
53C
330
228
100
AcDbEntity
  8
0
  6
Continuous
 62
     0
370
    -2
100
AcDbLine
 10
0.0
 20
-40.0
 30
0.0
 11
10.07540667668889
 21
-40.0
 31
0.0
  0
LINE
  5
53D
330
228
100
AcDbEntity
  8
0
  6
Continuous
 62
     0
370
    -2
100
AcDbLine
 10
10.07540667668889
 20
-40.0
 30
0.0
 11
20.15081335337779
 21
-40.0
 31
0.0
  0
LINE
  5
53E
330
228
100
AcDbEntity
  8
0
  6
Continuous
 62
     0
370
    -2
100
AcDbLine
 10
20.15081335337779
 20
-40.0
 30
0.0
 11
30.22622003006668
 21
-40.0
 31
0.0
  0
LINE
  5
53F
330
228
100
AcDbEntity
  8
0
  6
Continuous
 62
     0
370
    -2
100
AcDbLine
 10
30.22622003006668
 20
-40.0
 30
0.0
 11
70.52784673682226
 21
-40.0
 31
0.0
  0
LINE
  5
540
330
228
100
AcDbEntity
  8
0
  6
Continuous
 62
     0
370
    -2
100
AcDbLine
 10
70.52784673682226
 20
-40.0
 30
0.0
 11
90.67866009020004
 21
-40.0
 31
0.0
  0
ENDBLK
  5
28E
330
228
100
AcDbEntity
  8
0
100
AcDbBlockEnd
  0
ENDSEC
  0
SECTION
  2
ENTITIES
  0
MTEXT
  5
28F
330
222
100
AcDbEntity
  8
0
  6
Continuous
 62
     2
100
AcDbMText
 10
1.6467220993
 20
53.595027386
 30
0.0
 40
4.0
 41
2.2857142857
 71
     1
 72
     1
  1
1
  7
TEXTSTYLE_2
 73
     1
 44
0.9
  0
MTEXT
  5
290
330
222
100
AcDbEntity
  8
0
  6
Continuous
 62
     2
100
AcDbMText
 10
1.6467220993
 20
153.595027386
 30
0.0
 40
4.0
 41
3.1428571429
 71
     1
 72
     1
  1
2
  7
TEXTSTYLE_2
 73
     1
 44
0.9
  0
MTEXT
  5
291
330
222
100
AcDbEntity
  8
0
  6
Continuous
 62
     2
100
AcDbMText
 10
1.6467220993
 20
253.595027386
 30
0.0
 40
4.0
 41
2.8571428571
 71
     1
 72
     1
  1
3
  7
TEXTSTYLE_2
 73
     1
 44
0.9
  0
MTEXT
  5
292
330
222
100
AcDbEntity
  8
0
  6
Continuous
 62
     2
100
AcDbMText
 10
414.6467220993
 20
60.6268709614
 30
0.0
 40
4.0
 41
2.2857142857
 71
     1
 72
     1
  1
1
  7
TEXTSTYLE_2
 73
     1
 44
0.9
  0
MTEXT
  5
293
330
222
100
AcDbEntity
  8
0
  6
Continuous
 62
     2
100
AcDbMText
 10
414.6467220993
 20
160.6268709614
 30
0.0
 40
4.0
 41
3.1428571429
 71
     1
 72
     1
  1
2
  7
TEXTSTYLE_2
 73
     1
 44
0.9
  0
MTEXT
  5
294
330
222
100
AcDbEntity
  8
0
  6
Continuous
 62
     2
100
AcDbMText
 10
414.6467220993
 20
260.6268709614
 30
0.0
 40
4.0
 41
2.8571428571
 71
     1
 72
     1
  1
3
  7
TEXTSTYLE_2
 73
     1
 44
0.9
  0
MTEXT
  5
295
330
222
100
AcDbEntity
  8
0
  6
Continuous
 62
     2
100
AcDbMText
 10
362.154890719
 20
5.35876025
 30
0.0
 40
4.0
 41
3.6
 71
     1
 72
     1
  1
A
  7
TEXTSTYLE_3
 73
     1
 44
0.9
  0
MTEXT
  5
296
330
222
100
AcDbEntity
  8
0
  6
Continuous
 62
     2
100
AcDbMText
 10
262.154890719
 20
5.35876025
 30
0.0
 40
4.0
 41
3.6
 71
     1
 72
     1
  1
B
  7
TEXTSTYLE_3
 73
     1
 44
0.9
  0
MTEXT
  5
297
330
222
100
AcDbEntity
  8
0
  6
Continuous
 62
     2
100
AcDbMText
 10
162.154890719
 20
5.35876025
 30
0.0
 40
4.0
 41
3.6
 71
     1
 72
     1
  1
C
  7
TEXTSTYLE_3
 73
     1
 44
0.9
  0
MTEXT
  5
298
330
222
100
AcDbEntity
  8
0
  6
Continuous
 62
     2
100
AcDbMText
 10
55.7978688212
 20
5.5353441916
 30
0.0
 40
4.0
 41
3.6
 71
     1
 72
     1
  1
D
  7
TEXTSTYLE_3
 73
     1
 44
0.9
  0
MTEXT
  5
299
330
222
100
AcDbEntity
  8
0
  6
Continuous
 62
     2
100
AcDbMText
 10
362.154890719
 20
295.35876025
 30
0.0
 40
4.0
 41
3.6
 71
     1
 72
     1
  1
A
  7
TEXTSTYLE_3
 73
     1
 44
0.9
  0
MTEXT
  5
29A
330
222
100
AcDbEntity
  8
0
  6
Continuous
 62
     2
100
AcDbMText
 10
262.154890719
 20
295.35876025
 30
0.0
 40
4.0
 41
3.6
 71
     1
 72
     1
  1
B
  7
TEXTSTYLE_3
 73
     1
 44
0.9
  0
MTEXT
  5
29B
330
222
100
AcDbEntity
  8
0
  6
Continuous
 62
     2
100
AcDbMText
 10
162.154890719
 20
295.35876025
 30
0.0
 40
4.0
 41
3.6
 71
     1
 72
     1
  1
C
  7
TEXTSTYLE_3
 73
     1
 44
0.9
  0
MTEXT
  5
29C
330
222
100
AcDbEntity
  8
0
  6
Continuous
 62
     2
100
AcDbMText
 10
53.9878834197
 20
295.579490177
 30
0.0
 40
4.0
 41
3.6
 71
     1
 72
     1
  1
D
  7
TEXTSTYLE_3
 73
     1
 44
0.9
  0
INSERT
  5
29F
330
222
100
AcDbEntity
  8
0
  6
Continuous
 62
     2
100
AcDbBlockReference
  2
LOGO2_BL0
 10
333.1473869546
 20
37.5239270671
 30
0.0
  0
INSERT
  5
2A0
330
222
100
AcDbEntity
  8
0
  6
Continuous
 62
     2
100
AcDbBlockReference
  2
*T4
 10
319.3213399098
 20
51.0239270671
 30
0.0
  0
LINE
  5
2A3
330
222
100
AcDbEntity
  8
0
  6
Continuous
 62
     7
100
AcDbLine
 10
0.0
 20
0.0
 30
0.0
 11
0.0
 21
297.0
 31
0.0
  0
LWPOLYLINE
  5
2A4
330
222
100
AcDbEntity
  8
0
  6
Continuous
 62
     7
100
AcDbPolyline
 90
        2
 70
     0
 43
0.1000000003
 10
7.0536312849
 20
0.0
 10
7.0536312849
 20
297.0
  0
LWPOLYLINE
  5
2A5
330
222
100
AcDbEntity
  8
0
  6
Continuous
 62
     7
100
AcDbPolyline
 90
        2
 70
     0
 43
0.4999999952
 10
10.0536312849
 20
10.0318435754
 10
10.0536312849
 20
287.0
  0
LINE
  5
2A6
330
222
100
AcDbEntity
  8
0
  6
Continuous
 62
     7
100
AcDbLine
 10
0.0
 20
0.0
 30
0.0
 11
420.0
 21
0.0
 31
0.0
  0
LWPOLYLINE
  5
2A7
330
222
100
AcDbEntity
  8
0
  6
Continuous
 62
     7
100
AcDbPolyline
 90
        2
 70
     0
 43
0.1000000003
 10
0.0
 20
7.0318435754
 10
420.0
 20
7.0318435754
  0
LWPOLYLINE
  5
2A8
330
222
100
AcDbEntity
  8
0
  6
Continuous
 62
     7
100
AcDbPolyline
 90
        2
 70
     0
 43
0.4999999952
 10
10.0536312849
 20
10.0318435754
 10
410.0
 20
10.0318435754
  0
LINE
  5
2A9
330
222
100
AcDbEntity
  8
0
  6
Continuous
 62
     7
100
AcDbLine
 10
113.0
 20
297.0
 30
0.0
 11
113.0
 21
290.0
 31
0.0
  0
LINE
  5
2AA
330
222
100
AcDbEntity
  8
0
  6
Continuous
 62
     7
100
AcDbLine
 10
113.0
 20
7.0
 30
0.0
 11
113.0
 21
0.0
 31
0.0
  0
LWPOLYLINE
  5
2AB
330
222
100
AcDbEntity
  8
0
  6
Continuous
 62
     7
100
AcDbPolyline
 90
        2
 70
     0
 43
0.1000000003
 10
123.0
 20
10.0
 10
123.0
 20
0.0
  0
LWPOLYLINE
  5
2AC
330
222
100
AcDbEntity
  8
0
  6
Continuous
 62
     7
100
AcDbPolyline
 90
        2
 70
     0
 43
0.1000000003
 10
123.0
 20
287.0
 10
123.0
 20
297.0
  0
LINE
  5
2AD
330
222
100
AcDbEntity
  8
0
  6
Continuous
 62
     7
100
AcDbLine
 10
0.0
 20
99.9681564246
 30
0.0
 11
7.0
 21
99.9681564246
 31
0.0
  0
LINE
  5
2AE
330
222
100
AcDbEntity
  8
0
  6
Continuous
 62
     7
100
AcDbLine
 10
413.0
 20
107.0
 30
0.0
 11
420.0
 21
107.0
 31
0.0
  0
LWPOLYLINE
  5
2AF
330
222
100
AcDbEntity
  8
0
  6
Continuous
 62
     7
100
AcDbPolyline
 90
        2
 70
     0
 43
0.1000000003
 10
210.0
 20
10.0
 10
210.0
 20
0.0
  0
LWPOLYLINE
  5
2B0
330
222
100
AcDbEntity
  8
0
  6
Continuous
 62
     7
100
AcDbPolyline
 90
        2
 70
     0
 43
0.1000000003
 10
210.0
 20
287.0
 10
210.0
 20
297.0
  0
LWPOLYLINE
  5
2B1
330
222
100
AcDbEntity
  8
0
  6
Continuous
 62
     7
100
AcDbPolyline
 90
        2
 70
     0
 43
0.1000000003
 10
10.0
 20
148.5
 10
0.0
 20
148.5
  0
LWPOLYLINE
  5
2B2
330
222
100
AcDbEntity
  8
0
  6
Continuous
 62
     7
100
AcDbPolyline
 90
        2
 70
     0
 43
0.1000000003
 10
410.0
 20
148.5
 10
420.0
 20
148.5
  0
LINE
  5
2B3
330
222
100
AcDbEntity
  8
0
  6
Continuous
 62
     7
100
AcDbLine
 10
0.0
 20
199.9681564246
 30
0.0
 11
7.0
 21
199.9681564246
 31
0.0
  0
LWPOLYLINE
  5
2B4
330
222
100
AcDbEntity
  8
0
  6
Continuous
 62
     7
100
AcDbPolyline
 90
        2
 70
     0
 43
0.1000000003
 10
10.0
 20
202.9681564246
 10
0.0
 20
202.9681564246
  0
LWPOLYLINE
  5
2B5
330
222
100
AcDbEntity
  8
0
  6
Continuous
 62
     7
100
AcDbPolyline
 90
        2
 70
     0
 43
0.1000000003
 10
410.0
 20
210.0
 10
420.0
 20
210.0
  0
LINE
  5
2B6
330
222
100
AcDbEntity
  8
0
  6
Continuous
 62
     7
100
AcDbLine
 10
313.0
 20
297.0
 30
0.0
 11
313.0
 21
290.0
 31
0.0
  0
LINE
  5
2B7
330
222
100
AcDbEntity
  8
0
  6
Continuous
 62
     7
100
AcDbLine
 10
313.0
 20
7.0
 30
0.0
 11
313.0
 21
0.0
 31
0.0
  0
LWPOLYLINE
  5
2B8
330
222
100
AcDbEntity
  8
0
  6
Continuous
 62
     7
100
AcDbPolyline
 90
        2
 70
     0
 43
0.4999999952
 10
10.0536312849
 20
287.0
 10
410.0
 20
287.0
  0
LWPOLYLINE
  5
2B9
330
222
100
AcDbEntity
  8
0
  6
Continuous
 62
     7
100
AcDbPolyline
 90
        2
 70
     0
 43
0.1000000003
 10
0.0
 20
290.0
 10
420.0
 20
290.0
  0
LINE
  5
2BA
330
222
100
AcDbEntity
  8
0
  6
Continuous
 62
     7
100
AcDbLine
 10
0.0
 20
297.0
 30
0.0
 11
420.0
 21
297.0
 31
0.0
  0
LWPOLYLINE
  5
2BB
330
222
100
AcDbEntity
  8
0
  6
Continuous
 62
     7
100
AcDbPolyline
 90
        2
 70
     0
 43
0.4999999952
 10
410.0
 20
10.0318435754
 10
410.0
 20
287.0
  0
LWPOLYLINE
  5
2BC
330
222
100
AcDbEntity
  8
0
  6
Continuous
 62
     7
100
AcDbPolyline
 90
        2
 70
     0
 43
0.1000000003
 10
413.0
 20
0.0
 10
413.0
 20
297.0
  0
LINE
  5
2BD
330
222
100
AcDbEntity
  8
0
  6
Continuous
 62
     7
100
AcDbLine
 10
420.0
 20
0.0
 30
0.0
 11
420.0
 21
297.0
 31
0.0
  0
LINE
  5
2BE
330
222
100
AcDbEntity
  8
02___PRT_ALL_AXES
  6
Continuous
 62
     7
100
AcDbLine
 10
20.2926360461
 20
256.3802594369
 30
0.0
 11
20.2926360461
 21
257.3802593182334
 31
0.0
  0
LINE
  5
2BF
330
222
100
AcDbEntity
  8
7_ALL_FEATURES
  6
Continuous
 62
     7
100
AcDbLine
 10
33.39266795423333
 20
256.3802594369
 30
0.0
 11
32.8926360461
 21
255.8802271886334
 31
0.0
  0
LINE
  5
2C0
330
222
100
AcDbEntity
  8
7_ALL_FEATURES
  6
Continuous
 62
     7
100
AcDbLine
 10
26.29263744063333
 20
259.3802562025
 30
0.0
 11
20.29263724356667
 21
257.3802557258333
 31
0.0
  0
LINE
  5
2C1
330
222
100
AcDbEntity
  8
02___PRT_ALL_AXES
  6
Continuous
 62
     7
100
AcDbLine
 10
32.8926360461
 20
255.8802271886334
 30
0.0
 11
32.8926360461
 21
240.1302611463667
 31
0.0
  0
LINE
  5
2C2
330
222
100
AcDbEntity
  8
02___PRT_ALL_AXES
  6
Continuous
 62
     7
100
AcDbLine
 10
75.45108147916667
 20
168.1302594369
 30
0.0
 11
85.13419061303333
 21
168.1302594369
 31
0.0
  0
LINE
  5
2C3
330
222
100
AcDbEntity
  8
02___PRT_ALL_AXES
  6
Continuous
 62
     9
100
AcDbLine
 10
89.34270144903334
 20
172.3867158223667
 30
0.0
 11
88.59713549183333
 21
172.3867158223667
 31
0.0
  0
LINE
  5
2C4
330
222
100
AcDbEntity
  8
02___PRT_ALL_AXES
  6
Continuous
 62
     9
100
AcDbLine
 10
84.0089518805
 20
172.3867158223667
 30
0.0
 11
81.22646184783332
 21
172.3867158223667
 31
0.0
  0
LINE
  5
2C5
330
222
100
AcDbEntity
  8
02___PRT_ALL_AXES
  6
Continuous
 62
     9
100
AcDbLine
 10
72.9219624021
 20
172.3867158223667
 30
0.0
 11
74.95888647756667
 21
172.3867158223667
 31
0.0
  0
LINE
  5
2C6
330
222
100
AcDbEntity
  8
02___PRT_ALL_AXES
  6
Continuous
 62
     7
100
AcDbLine
 10
89.34270144903334
 20
172.4134208429
 30
0.0
 11
88.59713549183333
 21
172.4134208429
 31
0.0
  0
LINE
  5
2C7
330
222
100
AcDbEntity
  8
02___PRT_ALL_AXES
  6
Continuous
 62
     7
100
AcDbLine
 10
84.0089518805
 20
172.4134208429
 30
0.0
 11
81.22646184783332
 21
172.4134208429
 31
0.0
  0
LINE
  5
2C8
330
222
100
AcDbEntity
  8
02___PRT_ALL_AXES
  6
Continuous
 62
     7
100
AcDbLine
 10
72.9219624021
 20
172.4134208429
 30
0.0
 11
74.95888647756667
 21
172.4134208429
 31
0.0
  0
LINE
  5
2C9
330
222
100
AcDbEntity
  8
7_ALL_FEATURES
  6
Continuous
 62
     7
100
AcDbLine
 10
46.79262871596666
 20
188.1302512331667
 30
0.0
 11
45.79262759103333
 21
189.1302518943667
 31
0.0
  0
LINE
  5
2CA
330
222
100
AcDbEntity
  8
7_ALL_FEATURES
  6
Continuous
 62
     7
100
AcDbLine
 10
41.07778688276666
 20
255.8802594369
 30
0.0
 11
41.07778688276666
 21
253.3802594369
 31
0.0
  0
LINE
  5
2CB
330
222
100
AcDbEntity
  8
7_ALL_FEATURES
  6
Continuous
 62
     7
100
AcDbLine
 10
45.7926360461
 20
238.6302594557
 30
0.0
 11
45.7926360461
 21
228.1302594369
 31
0.0
  0
LINE
  5
2CC
330
222
100
AcDbEntity
  8
7_ALL_FEATURES
  6
Continuous
 62
     7
100
AcDbLine
 10
45.7926360461
 20
224.6302594369
 30
0.0
 11
45.7926360461
 21
221.6302594369
 31
0.0
  0
LINE
  5
2CD
330
222
100
AcDbEntity
  8
7_ALL_FEATURES
  6
Continuous
 62
     7
100
AcDbLine
 10
45.7926360461
 20
218.1302594369
 30
0.0
 11
45.7926360461
 21
215.1302594369
 31
0.0
  0
LINE
  5
2CE
330
222
100
AcDbEntity
  8
7_ALL_FEATURES
  6
Continuous
 62
     7
100
AcDbLine
 10
45.7926360461
 20
211.6302594369
 30
0.0
 11
45.7926360461
 21
208.6302594369
 31
0.0
  0
LINE
  5
2CF
330
222
100
AcDbEntity
  8
7_ALL_FEATURES
  6
Continuous
 62
     7
100
AcDbLine
 10
45.7926360461
 20
205.1302594369
 30
0.0
 11
45.7926360461
 21
202.1302594369
 31
0.0
  0
LINE
  5
2D0
330
222
100
AcDbEntity
  8
7_ALL_FEATURES
  6
Continuous
 62
     7
100
AcDbLine
 10
45.7926360461
 20
198.6302594369
 30
0.0
 11
45.7926360461
 21
195.6302594369
 31
0.0
  0
LINE
  5
2D1
330
222
100
AcDbEntity
  8
7_ALL_FEATURES
  6
Continuous
 62
     7
100
AcDbLine
 10
45.7926360461
 20
192.1302594369
 30
0.0
 11
45.7926360461
 21
189.1302603494334
 31
0.0
  0
LINE
  5
2D2
330
222
100
AcDbEntity
  8
02___PRT_ALL_AXES
  6
Continuous
 62
     7
100
AcDbLine
 10
46.84415123623333
 20
254.8802594369
 30
0.0
 11
46.84415123623333
 21
256.3802594369
 31
0.0
  0
LINE
  5
2D3
330
222
100
AcDbEntity
  8
02___PRT_ALL_AXES
  6
Continuous
 62
     7
100
AcDbLine
 10
47.59415123623333
 20
253.3802594369
 30
0.0
 11
47.59415123623333
 21
254.8802594369
 31
0.0
  0
LINE
  5
2D4
330
222
100
AcDbEntity
  8
7_ALL_FEATURES
  6
Continuous
 62
     7
100
AcDbLine
 10
48.2926360461
 20
215.1302594369
 30
0.0
 11
48.2926360461
 21
211.6302594369
 31
0.0
  0
LINE
  5
2D5
330
222
100
AcDbEntity
  8
7_ALL_FEATURES
  6
Continuous
 62
     7
100
AcDbLine
 10
48.2926360461
 20
208.6302594369
 30
0.0
 11
48.2926360461
 21
205.1302594369
 31
0.0
  0
LINE
  5
2D6
330
222
100
AcDbEntity
  8
7_ALL_FEATURES
  6
Continuous
 62
     7
100
AcDbLine
 10
49.7926360461
 20
228.1302594369
 30
0.0
 11
49.7926360461
 21
224.6302594369
 31
0.0
  0
LINE
  5
2D7
330
222
100
AcDbEntity
  8
7_ALL_FEATURES
  6
Continuous
 62
     7
100
AcDbLine
 10
49.7926360461
 20
221.6302594369
 30
0.0
 11
49.7926360461
 21
218.1302594369
 31
0.0
  0
LINE
  5
2D8
330
222
100
AcDbEntity
  8
02___PRT_ALL_AXES
  6
Continuous
 62
     7
100
AcDbLine
 10
89.77315415503332
 20
180.6302594369
 30
0.0
 11
70.81211793703334
 21
180.6302594369
 31
0.0
  0
LINE
  5
2D9
330
222
100
AcDbEntity
  8
7_ALL_FEATURES
  6
Continuous
 62
     7
100
AcDbLine
 10
51.7926360461
 20
195.6302594369
 30
0.0
 11
51.7926360461
 21
192.1302594369
 31
0.0
  0
LINE
  5
2DA
330
222
100
AcDbEntity
  8
02___PRT_ALL_AXES
  6
Continuous
 62
     7
100
AcDbLine
 10
53.59415123623333
 20
253.3802594369
 30
0.0
 11
53.59415123623333
 21
254.8802594369
 31
0.0
  0
LINE
  5
2DB
330
222
100
AcDbEntity
  8
7_ALL_FEATURES
  6
Continuous
 62
     7
100
AcDbLine
 10
53.6664157905
 20
255.8802594369
 30
0.0
 11
53.6664157905
 21
253.3802594369
 31
0.0
  0
LINE
  5
2DC
330
222
100
AcDbEntity
  8
7_ALL_FEATURES
  6
Continuous
 62
     7
100
AcDbLine
 10
54.7926360461
 20
202.1302594369
 30
0.0
 11
54.7926360461
 21
198.6302594369
 31
0.0
  0
LINE
  5
2DD
330
222
100
AcDbEntity
  8
02___PRT_ALL_AXES
  6
Continuous
 62
     7
100
AcDbLine
 10
89.77315415503332
 20
184.6302594369
 30
0.0
 11
70.81211793703334
 21
184.6302594369
 31
0.0
  0
LINE
  5
2DE
330
222
100
AcDbEntity
  8
7_ALL_FEATURES
  6
Continuous
 62
     7
100
AcDbLine
 10
113.7924777557
 20
188.1302594369
 30
0.0
 11
46.79279433636666
 21
188.1302594369
 31
0.0
  0
LINE
  5
2DF
330
222
100
AcDbEntity
  8
7_ALL_FEATURES
  6
Continuous
 62
     7
100
AcDbLine
 10
114.7926360450333
 20
189.1302609457
 30
0.0
 11
45.79263604703333
 21
189.1302609457
 31
0.0
  0
LINE
  5
2E0
330
222
100
AcDbEntity
  8
7_ALL_FEATURES
  6
Continuous
 62
     7
100
AcDbLine
 10
114.7924087181
 20
192.1302594369
 30
0.0
 11
45.79286337396667
 21
192.1302594369
 31
0.0
  0
LINE
  5
2E1
330
222
100
AcDbEntity
  8
7_ALL_FEATURES
  6
Continuous
 62
     7
100
AcDbLine
 10
114.7924087181
 20
195.6302594369
 30
0.0
 11
45.79286337396667
 21
195.6302594369
 31
0.0
  0
LINE
  5
2E2
330
222
100
AcDbEntity
  8
7_ALL_FEATURES
  6
Continuous
 62
     7
100
AcDbLine
 10
114.7924087181
 20
198.6302594369
 30
0.0
 11
45.79286337396667
 21
198.6302594369
 31
0.0
  0
LINE
  5
2E3
330
222
100
AcDbEntity
  8
7_ALL_FEATURES
  6
Continuous
 62
     7
100
AcDbLine
 10
33.39263941743333
 20
239.6302611323667
 30
0.0
 11
32.8926377517
 21
240.1302628521
 31
0.0
  0
LINE
  5
2E4
330
222
100
AcDbEntity
  8
02___PRT_ALL_AXES
  6
Continuous
 62
     7
100
AcDbLine
 10
70.81211793703334
 20
188.1302594369
 30
0.0
 11
70.81211793703334
 21
184.6302594369
 31
0.0
  0
LINE
  5
2E5
330
222
100
AcDbEntity
  8
02___PRT_ALL_AXES
  6
Continuous
 62
     7
100
AcDbLine
 10
70.81211793703334
 20
180.6302594369
 30
0.0
 11
70.81211793703334
 21
173.1302594369
 31
0.0
  0
LINE
  5
2E6
330
222
100
AcDbEntity
  8
7_ALL_FEATURES
  6
Continuous
 62
     7
100
AcDbLine
 10
114.7924087181
 20
202.1302594369
 30
0.0
 11
45.79286337396667
 21
202.1302594369
 31
0.0
  0
LINE
  5
2E7
330
222
100
AcDbEntity
  8
02___PRT_ALL_AXES
  6
Continuous
 62
     7
100
AcDbLine
 10
71.24257064316666
 20
172.3867158223667
 30
0.0
 11
71.24257064316666
 21
172.4134208429
 31
0.0
  0
LINE
  5
2E8
330
222
100
AcDbEntity
  8
02___PRT_ALL_AXES
  6
Continuous
 62
     7
100
AcDbLine
 10
72.7926360461
 20
180.6302594369
 30
0.0
 11
72.7926360461
 21
184.6302594369
 31
0.0
  0
LINE
  5
2E9
330
222
100
AcDbEntity
  8
02___PRT_ALL_AXES
  6
Continuous
 62
     7
100
AcDbLine
 10
72.9219624021
 20
172.3867158223667
 30
0.0
 11
72.9219624021
 21
172.4134208429
 31
0.0
  0
LINE
  5
2EA
330
222
100
AcDbEntity
  8
02___PRT_ALL_AXES
  6
Continuous
 62
     7
100
AcDbLine
 10
73.35241510823333
 20
188.1302594369
 30
0.0
 11
73.35241510823333
 21
184.6302594369
 31
0.0
  0
LINE
  5
2EB
330
222
100
AcDbEntity
  8
02___PRT_ALL_AXES
  6
Continuous
 62
     7
100
AcDbLine
 10
73.35241510823333
 20
180.6302594369
 30
0.0
 11
73.35241510823333
 21
173.1302594369
 31
0.0
  0
LINE
  5
2EC
330
222
100
AcDbEntity
  8
02___PRT_ALL_AXES
  6
Continuous
 62
     7
100
AcDbLine
 10
74.95888647756667
 20
172.3867158223667
 30
0.0
 11
74.95888647756667
 21
172.4134208429
 31
0.0
  0
LINE
  5
2ED
330
222
100
AcDbEntity
  8
7_ALL_FEATURES
  6
Continuous
 62
     7
100
AcDbLine
 10
114.7924087181
 20
205.1302594369
 30
0.0
 11
45.79286337396667
 21
205.1302594369
 31
0.0
  0
LINE
  5
2EE
330
222
100
AcDbEntity
  8
7_ALL_FEATURES
  6
Continuous
 62
     7
100
AcDbLine
 10
114.7926353457
 20
208.6302594369
 30
0.0
 11
45.7929729885
 21
208.6302594369
 31
0.0
  0
LINE
  5
2EF
330
222
100
AcDbEntity
  8
7_ALL_FEATURES
  6
Continuous
 62
     7
100
AcDbLine
 10
45.7926241377
 20
238.6302475471667
 30
0.0
 11
44.79262381236666
 21
239.6302471826334
 31
0.0
  0
LINE
  5
2F0
330
222
100
AcDbEntity
  8
7_ALL_FEATURES
  6
Continuous
 62
     7
100
AcDbLine
 10
45.7927740201
 20
211.6302594369
 30
0.0
 11
114.7922074874333
 21
211.6302594369
 31
0.0
  0
LINE
  5
2F1
330
222
100
AcDbEntity
  8
02___PRT_ALL_AXES
  6
Continuous
 62
     7
100
AcDbLine
 10
81.22646184783332
 20
172.3867158223667
 30
0.0
 11
81.22646184783332
 21
172.4134208429
 31
0.0
  0
LINE
  5
2F2
330
222
100
AcDbEntity
  8
02___PRT_ALL_AXES
  6
Continuous
 62
     7
100
AcDbLine
 10
82.83293321716666
 20
188.1302594369
 30
0.0
 11
82.83293321716666
 21
184.6302594369
 31
0.0
  0
LINE
  5
2F3
330
222
100
AcDbEntity
  8
02___PRT_ALL_AXES
  6
Continuous
 62
     7
100
AcDbLine
 10
82.83293321716666
 20
180.6302594369
 30
0.0
 11
82.83293321716666
 21
173.1302594369
 31
0.0
  0
LINE
  5
2F4
330
222
100
AcDbEntity
  8
02___PRT_ALL_AXES
  6
Continuous
 62
     7
100
AcDbLine
 10
84.0089518805
 20
172.3867158223667
 30
0.0
 11
84.0089518805
 21
172.4134208429
 31
0.0
  0
LINE
  5
2F5
330
222
100
AcDbEntity
  8
7_ALL_FEATURES
  6
Continuous
 62
     7
100
AcDbLine
 10
114.7924451287667
 20
215.1302594369
 30
0.0
 11
45.79286337396667
 21
215.1302594369
 31
0.0
  0
LINE
  5
2F6
330
222
100
AcDbEntity
  8
7_ALL_FEATURES
  6
Continuous
 62
     7
100
AcDbLine
 10
114.7924087181
 20
218.1302594369
 30
0.0
 11
45.79286337396667
 21
218.1302594369
 31
0.0
  0
LINE
  5
2F7
330
222
100
AcDbEntity
  8
02___PRT_ALL_AXES
  6
Continuous
 62
     7
100
AcDbLine
 10
87.7926360461
 20
180.6302594369
 30
0.0
 11
87.7926360461
 21
184.6302594369
 31
0.0
  0
LINE
  5
2F8
330
222
100
AcDbEntity
  8
02___PRT_ALL_AXES
  6
Continuous
 62
     7
100
AcDbLine
 10
88.59713549183333
 20
172.3867158223667
 30
0.0
 11
88.59713549183333
 21
172.4134208429
 31
0.0
  0
LINE
  5
2F9
330
222
100
AcDbEntity
  8
02___PRT_ALL_AXES
  6
Continuous
 62
     7
100
AcDbLine
 10
89.34270144903334
 20
172.3867158223667
 30
0.0
 11
89.34270144903334
 21
172.4134208429
 31
0.0
  0
LINE
  5
2FA
330
222
100
AcDbEntity
  8
02___PRT_ALL_AXES
  6
Continuous
 62
     7
100
AcDbLine
 10
89.77315415503332
 20
188.1302594369
 30
0.0
 11
89.77315415503332
 21
184.6302594369
 31
0.0
  0
LINE
  5
2FB
330
222
100
AcDbEntity
  8
02___PRT_ALL_AXES
  6
Continuous
 62
     7
100
AcDbLine
 10
89.77315415503332
 20
180.6302594369
 30
0.0
 11
89.77315415503332
 21
173.1302594369
 31
0.0
  0
LINE
  5
2FC
330
222
100
AcDbEntity
  8
7_ALL_FEATURES
  6
Continuous
 62
     7
100
AcDbLine
 10
114.7926479545
 20
238.6302475471667
 30
0.0
 11
115.7926482798333
 21
239.6302471826334
 31
0.0
  0
LINE
  5
2FD
330
222
100
AcDbEntity
  8
7_ALL_FEATURES
  6
Continuous
 62
     7
100
AcDbLine
 10
114.7924087181
 20
221.6302594369
 30
0.0
 11
45.79286337396667
 21
221.6302594369
 31
0.0
  0
LINE
  5
2FE
330
222
100
AcDbEntity
  8
7_ALL_FEATURES
  6
Continuous
 62
     7
100
AcDbLine
 10
127.1926326747667
 20
239.6302611323667
 30
0.0
 11
127.6926343403667
 21
240.1302628521
 31
0.0
  0
LINE
  5
2FF
330
222
100
AcDbEntity
  8
7_ALL_FEATURES
  6
Continuous
 62
     7
100
AcDbLine
 10
114.7924087181
 20
224.6302594369
 30
0.0
 11
45.79286337396667
 21
224.6302594369
 31
0.0
  0
LINE
  5
300
330
222
100
AcDbEntity
  8
7_ALL_FEATURES
  6
Continuous
 62
     7
100
AcDbLine
 10
114.7924087181
 20
228.1302594369
 30
0.0
 11
45.79286337396667
 21
228.1302594369
 31
0.0
  0
LINE
  5
301
330
222
100
AcDbEntity
  8
7_ALL_FEATURES
  6
Continuous
 62
     7
100
AcDbLine
 10
105.7926360461
 20
202.1302594369
 30
0.0
 11
105.7926360461
 21
198.6302594369
 31
0.0
  0
LINE
  5
302
330
222
100
AcDbEntity
  8
7_ALL_FEATURES
  6
Continuous
 62
     7
100
AcDbLine
 10
45.7926360605
 20
238.6302599722333
 30
0.0
 11
114.7926360317
 21
238.6302599722333
 31
0.0
  0
LINE
  5
303
330
222
100
AcDbEntity
  8
7_ALL_FEATURES
  6
Continuous
 62
     7
100
AcDbLine
 10
106.9188563015667
 20
255.8802594369
 30
0.0
 11
106.9188563015667
 21
253.3802594369
 31
0.0
  0
LINE
  5
304
330
222
100
AcDbEntity
  8
02___PRT_ALL_AXES
  6
Continuous
 62
     7
100
AcDbLine
 10
106.9911208559667
 20
253.3802594369
 30
0.0
 11
106.9911208559667
 21
254.8802594369
 31
0.0
  0
LINE
  5
305
330
222
100
AcDbEntity
  8
7_ALL_FEATURES
  6
Continuous
 62
     7
100
AcDbLine
 10
108.7926360461
 20
195.6302594369
 30
0.0
 11
108.7926360461
 21
192.1302594369
 31
0.0
  0
LINE
  5
306
330
222
100
AcDbEntity
  8
7_ALL_FEATURES
  6
Continuous
 62
     7
100
AcDbLine
 10
110.7926360461
 20
228.1302594369
 30
0.0
 11
110.7926360461
 21
224.6302594369
 31
0.0
  0
LINE
  5
307
330
222
100
AcDbEntity
  8
7_ALL_FEATURES
  6
Continuous
 62
     7
100
AcDbLine
 10
110.7926360461
 20
221.6302594369
 30
0.0
 11
110.7926360461
 21
218.1302594369
 31
0.0
  0
LINE
  5
308
330
222
100
AcDbEntity
  8
7_ALL_FEATURES
  6
Continuous
 62
     7
100
AcDbLine
 10
33.39272809463333
 20
239.6302594369
 30
0.0
 11
127.1925439975667
 21
239.6302594369
 31
0.0
  0
LINE
  5
309
330
222
100
AcDbEntity
  8
7_ALL_FEATURES
  6
Continuous
 62
     7
100
AcDbLine
 10
32.89263604689999
 20
240.1302615026334
 30
0.0
 11
127.6926360451667
 21
240.1302615026334
 31
0.0
  0
LINE
  5
30A
330
222
100
AcDbEntity
  8
7_ALL_FEATURES
  6
Continuous
 62
     7
100
AcDbLine
 10
112.2926360461
 20
215.1302594369
 30
0.0
 11
112.2926360461
 21
211.6302594369
 31
0.0
  0
LINE
  5
30B
330
222
100
AcDbEntity
  8
7_ALL_FEATURES
  6
Continuous
 62
     7
100
AcDbLine
 10
112.2926360461
 20
208.6302594369
 30
0.0
 11
112.2926360461
 21
205.1302594369
 31
0.0
  0
LINE
  5
30C
330
222
100
AcDbEntity
  8
02___PRT_ALL_AXES
  6
Continuous
 62
     7
100
AcDbLine
 10
112.9911208559667
 20
253.3802594369
 30
0.0
 11
112.9911208559667
 21
254.8802594369
 31
0.0
  0
LINE
  5
30D
330
222
100
AcDbEntity
  8
02___PRT_ALL_AXES
  6
Continuous
 62
     7
100
AcDbLine
 10
113.7411208559667
 20
254.8802594369
 30
0.0
 11
113.7411208559667
 21
256.3802594369
 31
0.0
  0
LINE
  5
30E
330
222
100
AcDbEntity
  8
7_ALL_FEATURES
  6
Continuous
 62
     7
100
AcDbLine
 10
114.7926360461
 20
238.6302594557
 30
0.0
 11
114.7926360461
 21
228.1302594369
 31
0.0
  0
LINE
  5
30F
330
222
100
AcDbEntity
  8
7_ALL_FEATURES
  6
Continuous
 62
     7
100
AcDbLine
 10
114.7926360461
 20
224.6302594369
 30
0.0
 11
114.7926360461
 21
221.6302594369
 31
0.0
  0
LINE
  5
310
330
222
100
AcDbEntity
  8
7_ALL_FEATURES
  6
Continuous
 62
     7
100
AcDbLine
 10
114.7926360461
 20
218.1302594369
 30
0.0
 11
114.7926360461
 21
215.1302594369
 31
0.0
  0
LINE
  5
311
330
222
100
AcDbEntity
  8
7_ALL_FEATURES
  6
Continuous
 62
     7
100
AcDbLine
 10
114.7926360461
 20
211.6302594369
 30
0.0
 11
114.7926360461
 21
208.6302594369
 31
0.0
  0
LINE
  5
312
330
222
100
AcDbEntity
  8
7_ALL_FEATURES
  6
Continuous
 62
     7
100
AcDbLine
 10
114.7926360461
 20
205.1302594369
 30
0.0
 11
114.7926360461
 21
202.1302594369
 31
0.0
  0
LINE
  5
313
330
222
100
AcDbEntity
  8
7_ALL_FEATURES
  6
Continuous
 62
     7
100
AcDbLine
 10
114.7926360461
 20
198.6302594369
 30
0.0
 11
114.7926360461
 21
195.6302594369
 31
0.0
  0
LINE
  5
314
330
222
100
AcDbEntity
  8
7_ALL_FEATURES
  6
Continuous
 62
     7
100
AcDbLine
 10
114.7926360461
 20
192.1302594369
 30
0.0
 11
114.7926360461
 21
189.1302603494334
 31
0.0
  0
LINE
  5
315
330
222
100
AcDbEntity
  8
7_ALL_FEATURES
  6
Continuous
 62
     7
100
AcDbLine
 10
119.5074852094333
 20
255.8802594369
 30
0.0
 11
119.5074852094333
 21
253.3802594369
 31
0.0
  0
LINE
  5
316
330
222
100
AcDbEntity
  8
02___PRT_ALL_AXES
  6
Continuous
 62
     7
100
AcDbLine
 10
119.5074852094333
 20
253.3802594369
 30
0.0
 11
106.9188563015667
 21
253.3802594369
 31
0.0
  0
LINE
  5
317
330
222
100
AcDbEntity
  8
02___PRT_ALL_AXES
  6
Continuous
 62
     7
100
AcDbLine
 10
53.6664157905
 20
253.3802594369
 30
0.0
 11
41.07778688276666
 21
253.3802594369
 31
0.0
  0
LINE
  5
318
330
222
100
AcDbEntity
  8
02___PRT_ALL_AXES
  6
Continuous
 62
     7
100
AcDbLine
 10
106.9911208559667
 20
253.9802594369
 30
0.0
 11
106.9188563015667
 21
253.9802594369
 31
0.0
  0
LINE
  5
319
330
222
100
AcDbEntity
  8
02___PRT_ALL_AXES
  6
Continuous
 62
     7
100
AcDbLine
 10
53.6664157905
 20
253.9802594369
 30
0.0
 11
53.59415123623333
 21
253.9802594369
 31
0.0
  0
LINE
  5
31A
330
222
100
AcDbEntity
  8
7_ALL_FEATURES
  6
Continuous
 62
     7
100
AcDbLine
 10
113.7926433762333
 20
188.1302512331667
 30
0.0
 11
114.7926445011666
 21
189.1302518943667
 31
0.0
  0
LINE
  5
31B
330
222
100
AcDbEntity
  8
02___PRT_ALL_AXES
  6
Continuous
 62
     7
100
AcDbLine
 10
46.84416841463333
 20
254.8802594369
 30
0.0
 11
53.6664157905
 21
254.8802594369
 31
0.0
  0
LINE
  5
31C
330
222
100
AcDbEntity
  8
02___PRT_ALL_AXES
  6
Continuous
 62
     7
100
AcDbLine
 10
106.9188563015667
 20
254.8802594369
 30
0.0
 11
113.7411036774333
 21
254.8802594369
 31
0.0
  0
LINE
  5
31D
330
222
100
AcDbEntity
  8
7_ALL_FEATURES
  6
Continuous
 62
     7
100
AcDbLine
 10
106.9188563015667
 20
255.8802594369
 30
0.0
 11
53.6664157905
 21
255.8802594369
 31
0.0
  0
LINE
  5
31E
330
222
100
AcDbEntity
  8
7_ALL_FEATURES
  6
Continuous
 62
     7
100
AcDbLine
 10
41.07778688276666
 20
255.8802594369
 30
0.0
 11
32.8926360461
 21
255.8802271886334
 31
0.0
  0
LINE
  5
31F
330
222
100
AcDbEntity
  8
7_ALL_FEATURES
  6
Continuous
 62
     7
100
AcDbLine
 10
127.6926360461
 20
255.8802247530334
 30
0.0
 11
119.5074852094333
 21
255.8802594369
 31
0.0
  0
LINE
  5
320
330
222
100
AcDbEntity
  8
02___PRT_ALL_AXES
  6
Continuous
 62
     7
100
AcDbLine
 10
20.29321980463333
 20
256.3802594369
 30
0.0
 11
140.2920522874333
 21
256.3802594369
 31
0.0
  0
LINE
  5
321
330
222
100
AcDbEntity
  8
7_ALL_FEATURES
  6
Continuous
 62
     7
100
AcDbLine
 10
20.2926360461
 20
257.3802592975667
 30
0.0
 11
140.2926360461
 21
257.3802592975667
 31
0.0
  0
LINE
  5
322
330
222
100
AcDbEntity
  8
7_ALL_FEATURES
  6
Continuous
 62
     7
100
AcDbLine
 10
26.29285708503333
 20
259.3802594369
 30
0.0
 11
134.2924150071667
 21
259.3802594369
 31
0.0
  0
LINE
  5
323
330
222
100
AcDbEntity
  8
02___PRT_ALL_AXES
  6
Continuous
 62
     7
100
AcDbLine
 10
127.6926360461
 20
255.8802247530334
 30
0.0
 11
127.6926360461
 21
240.1302611463667
 31
0.0
  0
LINE
  5
324
330
222
100
AcDbEntity
  8
02___PRT_ALL_AXES
  6
Continuous
 62
     7
100
AcDbLine
 10
140.2926360461
 20
256.3802594369
 30
0.0
 11
140.2926360461
 21
257.3802593182334
 31
0.0
  0
LINE
  5
325
330
222
100
AcDbEntity
  8
7_ALL_FEATURES
  6
Continuous
 62
     7
100
AcDbLine
 10
134.2926346515667
 20
259.3802562025
 30
0.0
 11
140.2926348486333
 21
257.3802557258333
 31
0.0
  0
LINE
  5
326
330
222
100
AcDbEntity
  8
7_ALL_FEATURES
  6
Continuous
 62
     7
100
AcDbLine
 10
127.1926017281
 20
256.3802594369
 30
0.0
 11
127.6926360461
 21
255.8802247530334
 31
0.0
  0
LINE
  5
327
330
222
100
AcDbEntity
  8
02___PRT_ALL_AXES
  6
Continuous
 62
     7
100
AcDbLine
 10
170.2893777781082
 20
256.3802594369
 30
0.0
 11
170.2893777781082
 21
257.3802590883666
 31
0.0
  0
LINE
  5
328
330
222
100
AcDbEntity
  8
7_ALL_FEATURES
  6
Continuous
 62
     7
100
AcDbLine
 10
183.3894057051749
 20
256.3802594369
 30
0.0
 11
182.8893777781083
 21
255.8802312121
 31
0.0
  0
LINE
  5
329
330
222
100
AcDbEntity
  8
7_ALL_FEATURES
  6
Continuous
 62
     7
100
AcDbLine
 10
176.2893797234416
 20
259.3802563861
 30
0.0
 11
170.2893789066416
 21
257.3802557027667
 31
0.0
  0
LINE
  5
32A
330
222
100
AcDbEntity
  8
02___PRT_ALL_AXES
  6
Continuous
 62
     7
100
AcDbLine
 10
182.8893777781083
 20
255.8802312121
 30
0.0
 11
182.8893777781083
 21
240.1302608423667
 31
0.0
  0
LINE
  5
32B
330
222
100
AcDbEntity
  8
02___PRT_ALL_AXES
  6
Continuous
 62
     7
100
AcDbLine
 10
225.4478232111749
 20
168.1302594369
 30
0.0
 11
235.1309323450416
 21
168.1302594369
 31
0.0
  0
LINE
  5
32C
330
222
100
AcDbEntity
  8
02___PRT_ALL_AXES
  6
Continuous
 62
     9
100
AcDbLine
 10
221.2393123751749
 20
172.3867158223667
 30
0.0
 11
221.9848783323749
 21
172.3867158223667
 31
0.0
  0
LINE
  5
32D
330
222
100
AcDbEntity
  8
02___PRT_ALL_AXES
  6
Continuous
 62
     9
100
AcDbLine
 10
226.5730619437083
 20
172.3867158223667
 30
0.0
 11
229.3555519763749
 21
172.3867158223667
 31
0.0
  0
LINE
  5
32E
330
222
100
AcDbEntity
  8
02___PRT_ALL_AXES
  6
Continuous
 62
     9
100
AcDbLine
 10
235.6231273467749
 20
172.3867158223667
 30
0.0
 11
237.6600514221083
 21
172.3867158223667
 31
0.0
  0
LINE
  5
32F
330
222
100
AcDbEntity
  8
02___PRT_ALL_AXES
  6
Continuous
 62
     7
100
AcDbLine
 10
221.2393123751749
 20
172.4134208429
 30
0.0
 11
221.9848783323749
 21
172.4134208429
 31
0.0
  0
LINE
  5
330
330
222
100
AcDbEntity
  8
02___PRT_ALL_AXES
  6
Continuous
 62
     7
100
AcDbLine
 10
226.5730619437083
 20
172.4134208429
 30
0.0
 11
229.3555519763749
 21
172.4134208429
 31
0.0
  0
LINE
  5
331
330
222
100
AcDbEntity
  8
02___PRT_ALL_AXES
  6
Continuous
 62
     7
100
AcDbLine
 10
235.6231273467749
 20
172.4134208429
 30
0.0
 11
237.6600514221083
 21
172.4134208429
 31
0.0
  0
LINE
  5
332
330
222
100
AcDbEntity
  8
7_ALL_FEATURES
  6
Continuous
 62
     7
100
AcDbLine
 10
196.7893701381082
 20
188.1302515430333
 30
0.0
 11
195.7893696467749
 21
189.1302515707667
 31
0.0
  0
LINE
  5
333
330
222
100
AcDbEntity
  8
7_ALL_FEATURES
  6
Continuous
 62
     7
100
AcDbLine
 10
191.0745286147749
 20
255.8802594369
 30
0.0
 11
191.0745286147749
 21
253.3802594369
 31
0.0
  0
LINE
  5
334
330
222
100
AcDbEntity
  8
7_ALL_FEATURES
  6
Continuous
 62
     7
100
AcDbLine
 10
195.7893777781082
 20
238.6302594938333
 30
0.0
 11
195.7893777781082
 21
228.1302594369
 31
0.0
  0
LINE
  5
335
330
222
100
AcDbEntity
  8
7_ALL_FEATURES
  6
Continuous
 62
     7
100
AcDbLine
 10
195.7893777781082
 20
224.6302594369
 30
0.0
 11
195.7893777781082
 21
221.6302594369
 31
0.0
  0
LINE
  5
336
330
222
100
AcDbEntity
  8
7_ALL_FEATURES
  6
Continuous
 62
     7
100
AcDbLine
 10
195.7893777781082
 20
218.1302594369
 30
0.0
 11
195.7893777781082
 21
215.1302594369
 31
0.0
  0
LINE
  5
337
330
222
100
AcDbEntity
  8
7_ALL_FEATURES
  6
Continuous
 62
     7
100
AcDbLine
 10
195.7893777781082
 20
211.6302594369
 30
0.0
 11
195.7893777781082
 21
208.6302594369
 31
0.0
  0
LINE
  5
338
330
222
100
AcDbEntity
  8
7_ALL_FEATURES
  6
Continuous
 62
     7
100
AcDbLine
 10
195.7893777781082
 20
205.1302594369
 30
0.0
 11
195.7893777781082
 21
202.1302594369
 31
0.0
  0
LINE
  5
339
330
222
100
AcDbEntity
  8
7_ALL_FEATURES
  6
Continuous
 62
     7
100
AcDbLine
 10
195.7893777781082
 20
198.6302594369
 30
0.0
 11
195.7893777781082
 21
195.6302594369
 31
0.0
  0
LINE
  5
33A
330
222
100
AcDbEntity
  8
7_ALL_FEATURES
  6
Continuous
 62
     7
100
AcDbLine
 10
195.7893777781082
 20
192.1302594369
 30
0.0
 11
195.7893777781082
 21
189.1302597021
 31
0.0
  0
LINE
  5
33B
330
222
100
AcDbEntity
  8
02___PRT_ALL_AXES
  6
Continuous
 62
     7
100
AcDbLine
 10
196.8408929683749
 20
254.8802594369
 30
0.0
 11
196.8408929683749
 21
256.3802594369
 31
0.0
  0
LINE
  5
33C
330
222
100
AcDbEntity
  8
02___PRT_ALL_AXES
  6
Continuous
 62
     7
100
AcDbLine
 10
197.5908929683749
 20
253.3802594369
 30
0.0
 11
197.5908929683749
 21
254.8802594369
 31
0.0
  0
LINE
  5
33D
330
222
100
AcDbEntity
  8
7_ALL_FEATURES
  6
Continuous
 62
     7
100
AcDbLine
 10
198.2893777781082
 20
215.1302594369
 30
0.0
 11
198.2893777781082
 21
211.6302594369
 31
0.0
  0
LINE
  5
33E
330
222
100
AcDbEntity
  8
7_ALL_FEATURES
  6
Continuous
 62
     7
100
AcDbLine
 10
198.2893777781082
 20
208.6302594369
 30
0.0
 11
198.2893777781082
 21
205.1302594369
 31
0.0
  0
LINE
  5
33F
330
222
100
AcDbEntity
  8
7_ALL_FEATURES
  6
Continuous
 62
     7
100
AcDbLine
 10
199.7893777781082
 20
228.1302594369
 30
0.0
 11
199.7893777781082
 21
224.6302594369
 31
0.0
  0
LINE
  5
340
330
222
100
AcDbEntity
  8
7_ALL_FEATURES
  6
Continuous
 62
     7
100
AcDbLine
 10
199.7893777781082
 20
221.6302594369
 30
0.0
 11
199.7893777781082
 21
218.1302594369
 31
0.0
  0
LINE
  5
341
330
222
100
AcDbEntity
  8
02___PRT_ALL_AXES
  6
Continuous
 62
     7
100
AcDbLine
 10
239.7698958871749
 20
180.6302594369
 30
0.0
 11
220.8088596691749
 21
180.6302594369
 31
0.0
  0
LINE
  5
342
330
222
100
AcDbEntity
  8
7_ALL_FEATURES
  6
Continuous
 62
     7
100
AcDbLine
 10
201.7893777781082
 20
195.6302594369
 30
0.0
 11
201.7893777781082
 21
192.1302594369
 31
0.0
  0
LINE
  5
343
330
222
100
AcDbEntity
  8
02___PRT_ALL_AXES
  6
Continuous
 62
     7
100
AcDbLine
 10
203.5908929683749
 20
253.3802594369
 30
0.0
 11
203.5908929683749
 21
254.8802594369
 31
0.0
  0
LINE
  5
344
330
222
100
AcDbEntity
  8
7_ALL_FEATURES
  6
Continuous
 62
     7
100
AcDbLine
 10
203.6631575226416
 20
255.8802594369
 30
0.0
 11
203.6631575226416
 21
253.3802594369
 31
0.0
  0
LINE
  5
345
330
222
100
AcDbEntity
  8
7_ALL_FEATURES
  6
Continuous
 62
     7
100
AcDbLine
 10
204.7893777781082
 20
202.1302594369
 30
0.0
 11
204.7893777781082
 21
198.6302594369
 31
0.0
  0
LINE
  5
346
330
222
100
AcDbEntity
  8
02___PRT_ALL_AXES
  6
Continuous
 62
     7
100
AcDbLine
 10
239.7698958871749
 20
184.6302594369
 30
0.0
 11
220.8088596691749
 21
184.6302594369
 31
0.0
  0
LINE
  5
347
330
222
100
AcDbEntity
  8
7_ALL_FEATURES
  6
Continuous
 62
     7
100
AcDbLine
 10
263.7892204927749
 20
188.1302594369
 30
0.0
 11
196.7895350635749
 21
188.1302594369
 31
0.0
  0
LINE
  5
348
330
222
100
AcDbEntity
  8
7_ALL_FEATURES
  6
Continuous
 62
     7
100
AcDbLine
 10
264.7893777771749
 20
189.1302600861
 30
0.0
 11
195.7893777791749
 21
189.1302600861
 31
0.0
  0
LINE
  5
349
330
222
100
AcDbEntity
  8
7_ALL_FEATURES
  6
Continuous
 62
     7
100
AcDbLine
 10
264.7891504502416
 20
192.1302594369
 30
0.0
 11
195.7896051061083
 21
192.1302594369
 31
0.0
  0
LINE
  5
34A
330
222
100
AcDbEntity
  8
7_ALL_FEATURES
  6
Continuous
 62
     7
100
AcDbLine
 10
264.7891504502416
 20
195.6302594369
 30
0.0
 11
195.7896051061083
 21
195.6302594369
 31
0.0
  0
LINE
  5
34B
330
222
100
AcDbEntity
  8
7_ALL_FEATURES
  6
Continuous
 62
     7
100
AcDbLine
 10
264.7891504502416
 20
198.6302594369
 30
0.0
 11
195.7896051061083
 21
198.6302594369
 31
0.0
  0
LINE
  5
34C
330
222
100
AcDbEntity
  8
7_ALL_FEATURES
  6
Continuous
 62
     7
100
AcDbLine
 10
183.3893810005083
 20
239.6302612814333
 30
0.0
 11
182.8893796358416
 21
240.1302627001
 31
0.0
  0
LINE
  5
34D
330
222
100
AcDbEntity
  8
02___PRT_ALL_AXES
  6
Continuous
 62
     7
100
AcDbLine
 10
220.8088596691749
 20
188.1302594369
 30
0.0
 11
220.8088596691749
 21
184.6302594369
 31
0.0
  0
LINE
  5
34E
330
222
100
AcDbEntity
  8
02___PRT_ALL_AXES
  6
Continuous
 62
     7
100
AcDbLine
 10
220.8088596691749
 20
180.6302594369
 30
0.0
 11
220.8088596691749
 21
173.1302594369
 31
0.0
  0
LINE
  5
34F
330
222
100
AcDbEntity
  8
7_ALL_FEATURES
  6
Continuous
 62
     7
100
AcDbLine
 10
264.7891504502416
 20
202.1302594369
 30
0.0
 11
195.7896051061083
 21
202.1302594369
 31
0.0
  0
LINE
  5
350
330
222
100
AcDbEntity
  8
02___PRT_ALL_AXES
  6
Continuous
 62
     7
100
AcDbLine
 10
221.2393123751749
 20
172.3867158223667
 30
0.0
 11
221.2393123751749
 21
172.4134208429
 31
0.0
  0
LINE
  5
351
330
222
100
AcDbEntity
  8
02___PRT_ALL_AXES
  6
Continuous
 62
     7
100
AcDbLine
 10
221.9848783323749
 20
172.3867158223667
 30
0.0
 11
221.9848783323749
 21
172.4134208429
 31
0.0
  0
LINE
  5
352
330
222
100
AcDbEntity
  8
02___PRT_ALL_AXES
  6
Continuous
 62
     7
100
AcDbLine
 10
222.7893777781082
 20
180.6302594369
 30
0.0
 11
222.7893777781082
 21
184.6302594369
 31
0.0
  0
LINE
  5
353
330
222
100
AcDbEntity
  8
7_ALL_FEATURES
  6
Continuous
 62
     7
100
AcDbLine
 10
264.7891504502416
 20
205.1302594369
 30
0.0
 11
195.7896051061083
 21
205.1302594369
 31
0.0
  0
LINE
  5
354
330
222
100
AcDbEntity
  8
7_ALL_FEATURES
  6
Continuous
 62
     7
100
AcDbLine
 10
264.789042065175
 20
208.6302594369
 30
0.0
 11
195.7893783717083
 21
208.6302594369
 31
0.0
  0
LINE
  5
355
330
222
100
AcDbEntity
  8
7_ALL_FEATURES
  6
Continuous
 62
     7
100
AcDbLine
 10
195.7893658506416
 20
238.6302475663666
 30
0.0
 11
194.7893655642416
 21
239.6302471629
 31
0.0
  0
LINE
  5
356
330
222
100
AcDbEntity
  8
02___PRT_ALL_AXES
  6
Continuous
 62
     7
100
AcDbLine
 10
226.5730619437083
 20
172.3867158223667
 30
0.0
 11
226.5730619437083
 21
172.4134208429
 31
0.0
  0
LINE
  5
357
330
222
100
AcDbEntity
  8
02___PRT_ALL_AXES
  6
Continuous
 62
     7
100
AcDbLine
 10
227.7490806070416
 20
188.1302594369
 30
0.0
 11
227.7490806070416
 21
184.6302594369
 31
0.0
  0
LINE
  5
358
330
222
100
AcDbEntity
  8
02___PRT_ALL_AXES
  6
Continuous
 62
     7
100
AcDbLine
 10
227.7490806070416
 20
180.6302594369
 30
0.0
 11
227.7490806070416
 21
173.1302594369
 31
0.0
  0
LINE
  5
359
330
222
100
AcDbEntity
  8
02___PRT_ALL_AXES
  6
Continuous
 62
     7
100
AcDbLine
 10
229.3555519763749
 20
172.3867158223667
 30
0.0
 11
229.3555519763749
 21
172.4134208429
 31
0.0
  0
LINE
  5
35A
330
222
100
AcDbEntity
  8
7_ALL_FEATURES
  6
Continuous
 62
     7
100
AcDbLine
 10
195.7898062657083
 20
211.6302594369
 30
0.0
 11
264.7892384629083
 21
211.6302594369
 31
0.0
  0
LINE
  5
35B
330
222
100
AcDbEntity
  8
02___PRT_ALL_AXES
  6
Continuous
 62
     7
100
AcDbLine
 10
235.6231273467749
 20
172.3867158223667
 30
0.0
 11
235.6231273467749
 21
172.4134208429
 31
0.0
  0
LINE
  5
35C
330
222
100
AcDbEntity
  8
7_ALL_FEATURES
  6
Continuous
 62
     7
100
AcDbLine
 10
264.7891504502416
 20
215.1302594369
 30
0.0
 11
195.7895686954416
 21
215.1302594369
 31
0.0
  0
LINE
  5
35D
330
222
100
AcDbEntity
  8
7_ALL_FEATURES
  6
Continuous
 62
     7
100
AcDbLine
 10
264.7891504502416
 20
218.1302594369
 30
0.0
 11
195.7896051061083
 21
218.1302594369
 31
0.0
  0
LINE
  5
35E
330
222
100
AcDbEntity
  8
02___PRT_ALL_AXES
  6
Continuous
 62
     7
100
AcDbLine
 10
237.2295987161083
 20
188.1302594369
 30
0.0
 11
237.2295987161083
 21
184.6302594369
 31
0.0
  0
LINE
  5
35F
330
222
100
AcDbEntity
  8
02___PRT_ALL_AXES
  6
Continuous
 62
     7
100
AcDbLine
 10
237.2295987161083
 20
180.6302594369
 30
0.0
 11
237.2295987161083
 21
173.1302594369
 31
0.0
  0
LINE
  5
360
330
222
100
AcDbEntity
  8
02___PRT_ALL_AXES
  6
Continuous
 62
     7
100
AcDbLine
 10
237.6600514221083
 20
172.3867158223667
 30
0.0
 11
237.6600514221083
 21
172.4134208429
 31
0.0
  0
LINE
  5
361
330
222
100
AcDbEntity
  8
02___PRT_ALL_AXES
  6
Continuous
 62
     7
100
AcDbLine
 10
237.7893777781082
 20
180.6302594369
 30
0.0
 11
237.7893777781082
 21
184.6302594369
 31
0.0
  0
LINE
  5
362
330
222
100
AcDbEntity
  8
02___PRT_ALL_AXES
  6
Continuous
 62
     7
100
AcDbLine
 10
239.3394431811749
 20
172.3867158223667
 30
0.0
 11
239.3394431811749
 21
172.4134208429
 31
0.0
  0
LINE
  5
363
330
222
100
AcDbEntity
  8
02___PRT_ALL_AXES
  6
Continuous
 62
     7
100
AcDbLine
 10
239.7698958871749
 20
188.1302594369
 30
0.0
 11
239.7698958871749
 21
184.6302594369
 31
0.0
  0
LINE
  5
364
330
222
100
AcDbEntity
  8
02___PRT_ALL_AXES
  6
Continuous
 62
     7
100
AcDbLine
 10
239.7698958871749
 20
180.6302594369
 30
0.0
 11
239.7698958871749
 21
173.1302594369
 31
0.0
  0
LINE
  5
365
330
222
100
AcDbEntity
  8
7_ALL_FEATURES
  6
Continuous
 62
     7
100
AcDbLine
 10
264.7893897057082
 20
238.6302475663666
 30
0.0
 11
265.7893899921082
 21
239.6302471629
 31
0.0
  0
LINE
  5
366
330
222
100
AcDbEntity
  8
7_ALL_FEATURES
  6
Continuous
 62
     7
100
AcDbLine
 10
264.7891504502416
 20
221.6302594369
 30
0.0
 11
195.7896051061083
 21
221.6302594369
 31
0.0
  0
LINE
  5
367
330
222
100
AcDbEntity
  8
7_ALL_FEATURES
  6
Continuous
 62
     7
100
AcDbLine
 10
277.1893745558416
 20
239.6302612814333
 30
0.0
 11
277.6893759205083
 21
240.1302627001
 31
0.0
  0
LINE
  5
368
330
222
100
AcDbEntity
  8
7_ALL_FEATURES
  6
Continuous
 62
     7
100
AcDbLine
 10
264.7891504502416
 20
224.6302594369
 30
0.0
 11
195.7896051061083
 21
224.6302594369
 31
0.0
  0
LINE
  5
369
330
222
100
AcDbEntity
  8
7_ALL_FEATURES
  6
Continuous
 62
     7
100
AcDbLine
 10
264.7891504502416
 20
228.1302594369
 30
0.0
 11
195.7896051061083
 21
228.1302594369
 31
0.0
  0
LINE
  5
36A
330
222
100
AcDbEntity
  8
7_ALL_FEATURES
  6
Continuous
 62
     7
100
AcDbLine
 10
255.7893777781082
 20
202.1302594369
 30
0.0
 11
255.7893777781082
 21
198.6302594369
 31
0.0
  0
LINE
  5
36B
330
222
100
AcDbEntity
  8
7_ALL_FEATURES
  6
Continuous
 62
     7
100
AcDbLine
 10
195.7893777923749
 20
238.6302600587667
 30
0.0
 11
264.7893777639749
 21
238.6302600587667
 31
0.0
  0
LINE
  5
36C
330
222
100
AcDbEntity
  8
7_ALL_FEATURES
  6
Continuous
 62
     7
100
AcDbLine
 10
256.9155980337083
 20
255.8802594369
 30
0.0
 11
256.9155980337083
 21
253.3802594369
 31
0.0
  0
LINE
  5
36D
330
222
100
AcDbEntity
  8
02___PRT_ALL_AXES
  6
Continuous
 62
     7
100
AcDbLine
 10
256.987862587975
 20
253.3802594369
 30
0.0
 11
256.987862587975
 21
254.8802594369
 31
0.0
  0
LINE
  5
36E
330
222
100
AcDbEntity
  8
7_ALL_FEATURES
  6
Continuous
 62
     7
100
AcDbLine
 10
258.7893777781082
 20
195.6302594369
 30
0.0
 11
258.7893777781082
 21
192.1302594369
 31
0.0
  0
LINE
  5
36F
330
222
100
AcDbEntity
  8
7_ALL_FEATURES
  6
Continuous
 62
     7
100
AcDbLine
 10
260.7893777781082
 20
228.1302594369
 30
0.0
 11
260.7893777781082
 21
224.6302594369
 31
0.0
  0
LINE
  5
370
330
222
100
AcDbEntity
  8
7_ALL_FEATURES
  6
Continuous
 62
     7
100
AcDbLine
 10
260.7893777781082
 20
221.6302594369
 30
0.0
 11
260.7893777781082
 21
218.1302594369
 31
0.0
  0
LINE
  5
371
330
222
100
AcDbEntity
  8
7_ALL_FEATURES
  6
Continuous
 62
     7
100
AcDbLine
 10
183.3894695250416
 20
239.6302594369
 30
0.0
 11
277.1892860313083
 21
239.6302594369
 31
0.0
  0
LINE
  5
372
330
222
100
AcDbEntity
  8
7_ALL_FEATURES
  6
Continuous
 62
     7
100
AcDbLine
 10
182.8893777790416
 20
240.1302611499667
 30
0.0
 11
277.6893777773082
 21
240.1302611499667
 31
0.0
  0
LINE
  5
373
330
222
100
AcDbEntity
  8
7_ALL_FEATURES
  6
Continuous
 62
     7
100
AcDbLine
 10
262.2893777781082
 20
215.1302594369
 30
0.0
 11
262.2893777781082
 21
211.6302594369
 31
0.0
  0
LINE
  5
374
330
222
100
AcDbEntity
  8
7_ALL_FEATURES
  6
Continuous
 62
     7
100
AcDbLine
 10
262.2893777781082
 20
208.6302594369
 30
0.0
 11
262.2893777781082
 21
205.1302594369
 31
0.0
  0
LINE
  5
375
330
222
100
AcDbEntity
  8
02___PRT_ALL_AXES
  6
Continuous
 62
     7
100
AcDbLine
 10
262.987862587975
 20
253.3802594369
 30
0.0
 11
262.987862587975
 21
254.8802594369
 31
0.0
  0
LINE
  5
376
330
222
100
AcDbEntity
  8
02___PRT_ALL_AXES
  6
Continuous
 62
     7
100
AcDbLine
 10
263.737862587975
 20
254.8802594369
 30
0.0
 11
263.737862587975
 21
256.3802594369
 31
0.0
  0
LINE
  5
377
330
222
100
AcDbEntity
  8
7_ALL_FEATURES
  6
Continuous
 62
     7
100
AcDbLine
 10
264.7893777781082
 20
238.6302594938333
 30
0.0
 11
264.7893777781082
 21
228.1302594369
 31
0.0
  0
LINE
  5
378
330
222
100
AcDbEntity
  8
7_ALL_FEATURES
  6
Continuous
 62
     7
100
AcDbLine
 10
264.7893777781082
 20
224.6302594369
 30
0.0
 11
264.7893777781082
 21
221.6302594369
 31
0.0
  0
LINE
  5
379
330
222
100
AcDbEntity
  8
7_ALL_FEATURES
  6
Continuous
 62
     7
100
AcDbLine
 10
264.7893777781082
 20
218.1302594369
 30
0.0
 11
264.7893777781082
 21
215.1302594369
 31
0.0
  0
LINE
  5
37A
330
222
100
AcDbEntity
  8
7_ALL_FEATURES
  6
Continuous
 62
     7
100
AcDbLine
 10
264.7893777781082
 20
211.6302594369
 30
0.0
 11
264.7893777781082
 21
208.6302594369
 31
0.0
  0
LINE
  5
37B
330
222
100
AcDbEntity
  8
7_ALL_FEATURES
  6
Continuous
 62
     7
100
AcDbLine
 10
264.7893777781082
 20
205.1302594369
 30
0.0
 11
264.7893777781082
 21
202.1302594369
 31
0.0
  0
LINE
  5
37C
330
222
100
AcDbEntity
  8
7_ALL_FEATURES
  6
Continuous
 62
     7
100
AcDbLine
 10
264.7893777781082
 20
198.6302594369
 30
0.0
 11
264.7893777781082
 21
195.6302594369
 31
0.0
  0
LINE
  5
37D
330
222
100
AcDbEntity
  8
7_ALL_FEATURES
  6
Continuous
 62
     7
100
AcDbLine
 10
264.7893777781082
 20
192.1302594369
 30
0.0
 11
264.7893777781082
 21
189.1302597021
 31
0.0
  0
LINE
  5
37E
330
222
100
AcDbEntity
  8
7_ALL_FEATURES
  6
Continuous
 62
     7
100
AcDbLine
 10
269.5042269414416
 20
255.8802594369
 30
0.0
 11
269.5042269414416
 21
253.3802594369
 31
0.0
  0
LINE
  5
37F
330
222
100
AcDbEntity
  8
02___PRT_ALL_AXES
  6
Continuous
 62
     7
100
AcDbLine
 10
269.5042269414416
 20
253.3802594369
 30
0.0
 11
256.9155980337083
 21
253.3802594369
 31
0.0
  0
LINE
  5
380
330
222
100
AcDbEntity
  8
02___PRT_ALL_AXES
  6
Continuous
 62
     7
100
AcDbLine
 10
203.6631575226416
 20
253.3802594369
 30
0.0
 11
191.0745286147749
 21
253.3802594369
 31
0.0
  0
LINE
  5
381
330
222
100
AcDbEntity
  8
7_ALL_FEATURES
  6
Continuous
 62
     7
100
AcDbLine
 10
203.5908929683749
 20
253.4802520226333
 30
0.0
 11
203.6631564818416
 21
253.4802527747666
 31
0.0
  0
LINE
  5
382
330
222
100
AcDbEntity
  8
02___PRT_ALL_AXES
  6
Continuous
 62
     7
100
AcDbLine
 10
256.987862587975
 20
253.9802594369
 30
0.0
 11
256.9155980337083
 21
253.9802594369
 31
0.0
  0
LINE
  5
383
330
222
100
AcDbEntity
  8
02___PRT_ALL_AXES
  6
Continuous
 62
     7
100
AcDbLine
 10
203.6631575226416
 20
253.9802594369
 30
0.0
 11
203.5908929683749
 21
253.9802594369
 31
0.0
  0
LINE
  5
384
330
222
100
AcDbEntity
  8
7_ALL_FEATURES
  6
Continuous
 62
     7
100
AcDbLine
 10
263.7893854182416
 20
188.1302515430333
 30
0.0
 11
264.7893859095749
 21
189.1302515707667
 31
0.0
  0
LINE
  5
385
330
222
100
AcDbEntity
  8
02___PRT_ALL_AXES
  6
Continuous
 62
     7
100
AcDbLine
 10
196.8409101467749
 20
254.8802594369
 30
0.0
 11
203.6631575226416
 21
254.8802594369
 31
0.0
  0
LINE
  5
386
330
222
100
AcDbEntity
  8
02___PRT_ALL_AXES
  6
Continuous
 62
     7
100
AcDbLine
 10
256.9155980337083
 20
254.8802594369
 30
0.0
 11
263.7378454095749
 21
254.8802594369
 31
0.0
  0
LINE
  5
387
330
222
100
AcDbEntity
  8
7_ALL_FEATURES
  6
Continuous
 62
     7
100
AcDbLine
 10
256.9155980337083
 20
255.8802594369
 30
0.0
 11
203.6631575226416
 21
255.8802594369
 31
0.0
  0
LINE
  5
388
330
222
100
AcDbEntity
  8
7_ALL_FEATURES
  6
Continuous
 62
     7
100
AcDbLine
 10
277.6893777781082
 20
255.8802320761
 30
0.0
 11
269.5042269414416
 21
255.8802594369
 31
0.0
  0
LINE
  5
389
330
222
100
AcDbEntity
  8
7_ALL_FEATURES
  6
Continuous
 62
     7
100
AcDbLine
 10
191.0745286147749
 20
255.8802594369
 30
0.0
 11
182.8893777781083
 21
255.8802312121
 31
0.0
  0
LINE
  5
38A
330
222
100
AcDbEntity
  8
02___PRT_ALL_AXES
  6
Continuous
 62
     7
100
AcDbLine
 10
170.2899615367749
 20
256.3802594369
 30
0.0
 11
290.2887940195749
 21
256.3802594369
 31
0.0
  0
LINE
  5
38B
330
222
100
AcDbEntity
  8
7_ALL_FEATURES
  6
Continuous
 62
     7
100
AcDbLine
 10
170.2893777782416
 20
257.3802590553
 30
0.0
 11
290.2893777781082
 21
257.3802590553
 31
0.0
  0
LINE
  5
38C
330
222
100
AcDbEntity
  8
7_ALL_FEATURES
  6
Continuous
 62
     7
100
AcDbLine
 10
176.2895993285083
 20
259.3802594369
 30
0.0
 11
284.2891562278415
 21
259.3802594369
 31
0.0
  0
LINE
  5
38D
330
222
100
AcDbEntity
  8
02___PRT_ALL_AXES
  6
Continuous
 62
     7
100
AcDbLine
 10
277.6893777781082
 20
255.8802320761
 30
0.0
 11
277.6893777781082
 21
240.1302608423667
 31
0.0
  0
LINE
  5
38E
330
222
100
AcDbEntity
  8
02___PRT_ALL_AXES
  6
Continuous
 62
     7
100
AcDbLine
 10
290.2893777781082
 20
256.3802594369
 30
0.0
 11
290.2893777781082
 21
257.3802590883666
 31
0.0
  0
LINE
  5
38F
330
222
100
AcDbEntity
  8
7_ALL_FEATURES
  6
Continuous
 62
     7
100
AcDbLine
 10
284.2893758329083
 20
259.3802563861
 30
0.0
 11
290.2893766495749
 21
257.3802557027667
 31
0.0
  0
LINE
  5
390
330
222
100
AcDbEntity
  8
7_ALL_FEATURES
  6
Continuous
 62
     7
100
AcDbLine
 10
277.1893507061083
 20
256.3802594369
 30
0.0
 11
277.6893777781082
 21
255.8802320761
 31
0.0
  0
LINE
  5
391
330
222
100
AcDbEntity
  8
02___PRT_ALL_AXES
  6
Continuous
 62
     7
100
AcDbLine
 10
287.1674134084
 20
148.7369738183
 30
0.0
 11
287.1623414504
 21
149.4452937716
 31
0.0
  0
LINE
  5
392
330
222
100
AcDbEntity
  8
7_ALL_FEATURES
  6
Continuous
 62
     7
100
AcDbLine
 10
308.9788869443
 20
97.6743242539
 30
0.0
 11
308.2713214705
 21
98.2918373139
 31
0.0
  0
LINE
  5
393
330
222
100
AcDbEntity
  8
02___PRT_ALL_AXES
  6
Continuous
 62
     7
100
AcDbLine
 10
296.6818100752
 20
139.7775455533
 30
0.0
 11
296.6995904375
 21
137.2944442676
 31
0.0
  0
LINE
  5
394
330
222
100
AcDbEntity
  8
7_ALL_FEATURES
  6
Continuous
 62
     7
100
AcDbLine
 10
310.6936156092
 20
152.7966583163
 30
0.0
 11
310.344289017
 21
152.4828655647
 31
0.0
  0
LINE
  5
395
330
222
100
AcDbEntity
  8
02___PRT_ALL_AXES
  6
Continuous
 62
     7
100
AcDbLine
 10
326.2007693268
 20
88.7576343637
 30
0.0
 11
325.8650527649
 21
89.0506241698
 31
0.0
  0
LINE
  5
396
330
222
100
AcDbEntity
  8
02___PRT_ALL_AXES
  6
Continuous
 62
     7
100
AcDbLine
 10
325.8664347976
 20
89.04942505
 30
0.0
 11
325.8196402082
 21
89.0975929347
 31
0.0
  0
LINE
  5
397
330
222
100
AcDbEntity
  8
7_ALL_FEATURES
  6
Continuous
 62
     7
100
AcDbLine
 10
306.4326661545
 20
129.2185683836
 30
0.0
 11
306.4352059365
 21
128.8638772997
 31
0.0
  0
LINE
  5
398
330
222
100
AcDbEntity
  8
7_ALL_FEATURES
  6
Continuous
 62
     7
100
AcDbLine
 10
306.4529577892
 20
126.3847574905
 30
0.0
 11
306.468173663
 21
124.259797654
 31
0.0
  0
LINE
  5
399
330
222
100
AcDbEntity
  8
7_ALL_FEATURES
  6
Continuous
 62
     7
100
AcDbLine
 10
306.4859255157
 20
121.7806778448
 30
0.0
 11
306.5011413895
 21
119.6557180083
 31
0.0
  0
LINE
  5
39A
330
222
100
AcDbEntity
  8
7_ALL_FEATURES
  6
Continuous
 62
     7
100
AcDbLine
 10
306.5188932423
 20
117.1765981991
 30
0.0
 11
306.534109116
 21
115.0516383626
 31
0.0
  0
LINE
  5
39B
330
222
100
AcDbEntity
  8
7_ALL_FEATURES
  6
Continuous
 62
     7
100
AcDbLine
 10
306.5518609688
 20
112.5725185533
 30
0.0
 11
306.5670768425
 21
110.4475587169
 31
0.0
  0
LINE
  5
39C
330
222
100
AcDbEntity
  8
7_ALL_FEATURES
  6
Continuous
 62
     7
100
AcDbLine
 10
306.5848286953
 20
107.9684389076
 30
0.0
 11
306.600044569
 21
105.8434790711
 31
0.0
  0
LINE
  5
39D
330
222
100
AcDbEntity
  8
7_ALL_FEATURES
  6
Continuous
 62
     7
100
AcDbLine
 10
306.6177964218
 20
103.3643592619
 30
0.0
 11
306.6330122977
 21
101.2393991202
 31
0.0
  0
LINE
  5
39E
330
222
100
AcDbEntity
  8
7_ALL_FEATURES
  6
Continuous
 62
     7
100
AcDbLine
 10
308.2893066299
 20
115.1930639639
 30
0.0
 11
308.2980915187
 21
113.9662178303
 31
0.0
  0
LINE
  5
39F
330
222
100
AcDbEntity
  8
7_ALL_FEATURES
  6
Continuous
 62
     7
100
AcDbLine
 10
308.2980915187
 20
113.9662178303
 30
0.0
 11
308.7445653715
 21
113.0156208711
 31
0.0
  0
LINE
  5
3A0
330
222
100
AcDbEntity
  8
7_ALL_FEATURES
  6
Continuous
 62
     7
100
AcDbLine
 10
309.1734694467
 20
114.518716179
 30
0.0
 11
308.7269955939
 21
115.4693131383
 31
0.0
  0
LINE
  5
3A1
330
222
100
AcDbEntity
  8
7_ALL_FEATURES
  6
Continuous
 62
     7
100
AcDbLine
 10
309.1822543355
 20
113.2918700454
 30
0.0
 11
309.1734694467
 21
114.518716179
 31
0.0
  0
LINE
  5
3A2
330
222
100
AcDbEntity
  8
7_ALL_FEATURES
  6
Continuous
 62
     7
100
AcDbLine
 10
309.0102224004
 20
111.5352123715
 30
0.0
 11
308.9026429651
 21
111.5322666467
 31
0.0
  0
LINE
  5
3A3
330
222
100
AcDbEntity
  8
7_ALL_FEATURES
  6
Continuous
 62
     7
100
AcDbLine
 10
309.0839118012
 20
111.5588847609
 30
0.0
 11
309.0083750639
 21
111.5477926971
 31
0.0
  0
LINE
  5
3A4
330
222
100
AcDbEntity
  8
02___PRT_ALL_AXES
  6
Continuous
 62
     7
100
AcDbLine
 10
309.2533385425
 20
111.6653165023
 30
0.0
 11
309.1861190646
 21
111.6554457723
 31
0.0
  0
LINE
  5
3A5
330
222
100
AcDbEntity
  8
7_ALL_FEATURES
  6
Continuous
 62
     7
100
AcDbLine
 10
308.574510658
 20
111.9900355072
 30
0.0
 11
308.3463693917
 21
111.9565344907
 31
0.0
  0
LINE
  5
3A6
330
222
100
AcDbEntity
  8
7_ALL_FEATURES
  6
Continuous
 62
     7
100
AcDbLine
 10
311.5220038089
 20
113.3346418032
 30
0.0
 11
309.7877299096
 21
113.0799753003
 31
0.0
  0
LINE
  5
3A7
330
222
100
AcDbEntity
  8
02___PRT_ALL_AXES
  6
Continuous
 62
     7
100
AcDbLine
 10
325.7935542255
 20
92.7406085369
 30
0.0
 11
325.8196402082
 21
89.0975929347
 31
0.0
  0
LINE
  5
3A8
330
222
100
AcDbEntity
  8
02___PRT_ALL_AXES
  6
Continuous
 62
     7
100
AcDbLine
 10
326.8213955316
 20
88.3313799422
 30
0.0
 11
326.8212600849
 21
88.3502956409
 31
0.0
  0
LINE
  5
3A9
330
222
100
AcDbEntity
  8
7_ALL_FEATURES
  6
Continuous
 62
     7
100
AcDbLine
 10
308.7269955939
 20
115.4693131383
 30
0.0
 11
308.2893066299
 21
115.1930639639
 31
0.0
  0
LINE
  5
3AA
330
222
100
AcDbEntity
  8
7_ALL_FEATURES
  6
Continuous
 62
     7
100
AcDbLine
 10
308.2980915187
 20
113.9662178303
 30
0.0
 11
309.1765020073
 21
114.0952065254
 31
0.0
  0
LINE
  5
3AB
330
222
100
AcDbEntity
  8
7_ALL_FEATURES
  6
Continuous
 62
     7
100
AcDbLine
 10
307.7396023059
 20
114.7040836149
 30
0.0
 11
307.6714262884
 21
114.6940724235
 31
0.0
  0
LINE
  5
3AC
330
222
100
AcDbEntity
  8
7_ALL_FEATURES
  6
Continuous
 62
     7
100
AcDbLine
 10
308.2893066299
 20
115.1930639639
 30
0.0
 11
308.8201330218
 21
115.2710122631
 31
0.0
  0
LINE
  5
3AD
330
222
100
AcDbEntity
  8
02___PRT_ALL_AXES
  6
Continuous
 62
     7
100
AcDbLine
 10
308.4591718956
 20
116.8549993228
 30
0.0
 11
308.4233714254
 21
116.8497422636
 31
0.0
  0
LINE
  5
3AE
330
222
100
AcDbEntity
  8
7_ALL_FEATURES
  6
Continuous
 62
     7
100
AcDbLine
 10
308.4308284695
 20
116.8703444055
 30
0.0
 11
308.0243425824
 21
116.8106546764
 31
0.0
  0
LINE
  5
3AF
330
222
100
AcDbEntity
  8
7_ALL_FEATURES
  6
Continuous
 62
     9
100
AcDbLine
 10
308.4233714254
 20
116.8497422636
 30
0.0
 11
308.4243732756
 21
116.8498879302
 31
0.0
  0
LINE
  5
3B0
330
222
100
AcDbEntity
  8
02___PRT_ALL_AXES
  6
Continuous
 62
     7
100
AcDbLine
 10
330.7149853545
 20
87.3968012022
 30
0.0
 11
330.7148499077
 21
87.4157169009
 31
0.0
  0
LINE
  5
3B1
330
222
100
AcDbEntity
  8
02___PRT_ALL_AXES
  6
Continuous
 62
     7
100
AcDbLine
 10
331.6749843992
 20
92.4620255869
 30
0.0
 11
331.709198234
 21
87.6839217548
 31
0.0
  0
LINE
  5
3B2
330
222
100
AcDbEntity
  8
02___PRT_ALL_AXES
  6
Continuous
 62
     7
100
AcDbLine
 10
332.8599510673
 20
87.3256815474
 30
0.0
 11
332.8598156205
 21
87.344597246
 31
0.0
  0
LINE
  5
3B3
330
222
100
AcDbEntity
  8
7_ALL_FEATURES
  6
Continuous
 62
     7
100
AcDbLine
 10
308.7445653715
 20
113.0156208711
 30
0.0
 11
309.1822543355
 21
113.2918700454
 31
0.0
  0
LINE
  5
3B4
330
222
100
AcDbEntity
  8
02___PRT_ALL_AXES
  6
Continuous
 62
     7
100
AcDbLine
 10
337.3348479343
 20
87.9827901715
 30
0.0
 11
337.3347124875
 21
88.0017058702
 31
0.0
  0
LINE
  5
3B5
330
222
100
AcDbEntity
  8
02___PRT_ALL_AXES
  6
Continuous
 62
     7
100
AcDbLine
 10
338.448964343
 20
92.740978496
 30
0.0
 11
338.4780583237
 21
88.6778835092
 31
0.0
  0
LINE
  5
3B6
330
222
100
AcDbEntity
  8
02___PRT_ALL_AXES
  6
Continuous
 62
     7
100
AcDbLine
 10
338.6308270555
 20
88.5591895217
 30
0.0
 11
338.6306916088
 21
88.5781052204
 31
0.0
  0
LINE
  5
3B7
330
222
100
AcDbEntity
  8
02___PRT_ALL_AXES
  6
Continuous
 62
     7
100
AcDbLine
 10
339.2121340996
 20
90.1508768859
 30
0.0
 11
339.2119986529
 21
90.1697925846
 31
0.0
  0
LINE
  5
3B8
330
222
100
AcDbEntity
  8
02___PRT_ALL_AXES
  6
Continuous
 62
     7
100
AcDbLine
 10
339.3449158059
 20
92.8234538551
 30
0.0
 11
339.3573603876
 21
91.0855164435
 31
0.0
  0
LINE
  5
3B9
330
222
100
AcDbEntity
  8
7_ALL_FEATURES
  6
Continuous
 62
     7
100
AcDbLine
 10
358.1813544665
 20
129.5870278153
 30
0.0
 11
358.1838792876
 21
129.2344260829
 31
0.0
  0
LINE
  5
3BA
330
222
100
AcDbEntity
  8
7_ALL_FEATURES
  6
Continuous
 62
     7
100
AcDbLine
 10
358.2016311403
 20
126.7553062736
 30
0.0
 11
358.2168470141
 21
124.6303464372
 31
0.0
  0
LINE
  5
3BB
330
222
100
AcDbEntity
  8
7_ALL_FEATURES
  6
Continuous
 62
     7
100
AcDbLine
 10
358.2345988668
 20
122.1512266279
 30
0.0
 11
358.2498147406
 21
120.0262667914
 31
0.0
  0
LINE
  5
3BC
330
222
100
AcDbEntity
  8
7_ALL_FEATURES
  6
Continuous
 62
     7
100
AcDbLine
 10
358.2675665934
 20
117.5471469822
 30
0.0
 11
358.2827824671
 21
115.4221871457
 31
0.0
  0
LINE
  5
3BD
330
222
100
AcDbEntity
  8
7_ALL_FEATURES
  6
Continuous
 62
     7
100
AcDbLine
 10
358.3005343199
 20
112.9430673365
 30
0.0
 11
358.3157501936
 21
110.8181075
 31
0.0
  0
LINE
  5
3BE
330
222
100
AcDbEntity
  8
7_ALL_FEATURES
  6
Continuous
 62
     7
100
AcDbLine
 10
358.3335020464
 20
108.3389876908
 30
0.0
 11
358.3487179202
 21
106.2140278543
 31
0.0
  0
LINE
  5
3BF
330
222
100
AcDbEntity
  8
7_ALL_FEATURES
  6
Continuous
 62
     7
100
AcDbLine
 10
358.3664697729
 20
103.7349080451
 30
0.0
 11
358.3816856488
 21
101.6099479033
 31
0.0
  0
LINE
  5
3C0
330
222
100
AcDbEntity
  8
02___PRT_ALL_AXES
  6
Continuous
 62
     7
100
AcDbLine
 10
367.7798477479
 20
140.3061468606
 30
0.0
 11
367.7977677372
 21
137.803546074
 31
0.0
  0
LINE
  5
3C1
330
222
100
AcDbEntity
  8
7_ALL_FEATURES
  6
Continuous
 62
     7
100
AcDbLine
 10
356.0871041952
 20
98.0116443826
 30
0.0
 11
356.7857551432
 21
98.6392276453
 31
0.0
  0
LINE
  5
3C2
330
222
100
AcDbEntity
  8
7_ALL_FEATURES
  6
Continuous
 62
     7
100
AcDbLine
 10
353.5831810519
 20
153.1037703553
 30
0.0
 11
353.9369638593
 21
152.7950136494
 31
0.0
  0
LINE
  5
3C3
330
222
100
AcDbEntity
  8
02___PRT_ALL_AXES
  6
Continuous
 62
     7
100
AcDbLine
 10
377.1651061929
 20
149.3814064847
 30
0.0
 11
377.160034235
 21
150.0897264379
 31
0.0
  0
CIRCLE
  5
3C4
330
222
100
AcDbEntity
  8
7_ALL_FEATURES
  6
Continuous
 62
     7
100
AcDbCircle
 10
80.29263604609996
 20
88.8378918050364
 30
0.0
 40
60.0
  0
CIRCLE
  5
3C5
330
222
100
AcDbEntity
  8
7_ALL_FEATURES
  6
Continuous
 62
     7
100
AcDbCircle
 10
80.29263604609996
 20
88.8378918050364
 30
0.0
 40
53.99999561946667
  0
CIRCLE
  5
3C6
330
222
100
AcDbEntity
  8
7_ALL_FEATURES
  6
Continuous
 62
     7
100
AcDbCircle
 10
80.29263604609996
 20
88.8378918050364
 30
0.0
 40
31.87500331093333
  0
CIRCLE
  5
3C7
330
222
100
AcDbEntity
  8
7_ALL_FEATURES
  6
Continuous
 62
     7
100
AcDbCircle
 10
80.29263604609996
 20
88.8378918050364
 30
0.0
 40
31.375
  0
CIRCLE
  5
3C8
330
222
100
AcDbEntity
  8
7_ALL_FEATURES
  6
Continuous
 62
     7
100
AcDbCircle
 10
80.29263604609996
 20
88.8378918050364
 30
0.0
 40
31.0
  0
CIRCLE
  5
3C9
330
222
100
AcDbEntity
  8
7_ALL_FEATURES
  6
Continuous
 62
     7
100
AcDbCircle
 10
80.29263604609996
 20
88.8378918050364
 30
0.0
 40
30.50000026533333
  0
CIRCLE
  5
3CA
330
222
100
AcDbEntity
  8
02___PRT_ALL_AXES
  6
Continuous
 62
     7
100
AcDbCircle
 10
122.2926360460999
 20
88.8378918050364
 30
0.0
 40
5.0
  0
CIRCLE
  5
3CB
330
222
100
AcDbEntity
  8
02___PRT_ALL_AXES
  6
Continuous
 62
     7
100
AcDbCircle
 10
38.29263604609996
 20
88.8378918050364
 30
0.0
 40
5.0
  0
CIRCLE
  5
3CC
330
222
100
AcDbEntity
  8
02___PRT_ALL_AXES
  6
Continuous
 62
     7
100
AcDbCircle
 10
38.29263604609996
 20
88.8378918050364
 30
0.0
 40
3.5
  0
CIRCLE
  5
3CD
330
222
100
AcDbEntity
  8
02___PRT_ALL_AXES
  6
Continuous
 62
     7
100
AcDbCircle
 10
122.2926360460999
 20
88.8378918050364
 30
0.0
 40
3.5
  0
ARC
  5
3CE
330
222
100
AcDbEntity
  8
7_ALL_FEATURES
  6
Continuous
 62
     7
100
AcDbCircle
 10
37.77458930276666
 20
275.0581392229
 30
0.0
 40
24.90665016013333
100
AcDbArc
 50
309.6469794607
 51
311.4169524341
  0
ARC
  5
3CF
330
222
100
AcDbEntity
  8
7_ALL_FEATURES
  6
Continuous
 62
     7
100
AcDbCircle
 10
122.7977539862333
 20
275.0430186297
 30
0.0
 40
24.88675815693333
100
AcDbArc
 50
228.5823401392
 51
230.353727966
  0
ARC
  5
3D0
330
222
100
AcDbEntity
  8
7_ALL_FEATURES
  6
Continuous
 62
     7
100
AcDbCircle
 10
51.87409593636666
 20
251.6600732465
 30
0.0
 40
11.5918186952
100
AcDbArc
 50
155.9709487714999
 51
158.6498905903998
  0
ARC
  5
3D1
330
222
100
AcDbEntity
  8
7_ALL_FEATURES
  6
Continuous
 62
     7
100
AcDbCircle
 10
109.0386265931667
 20
251.7969787674334
 30
0.0
 40
11.23700056746667
100
AcDbArc
 50
21.30780636729992
 51
24.07135427069973
  0
ARC
  5
3D2
330
222
100
AcDbEntity
  8
02___PRT_ALL_AXES
  6
Continuous
 62
     7
100
AcDbCircle
 10
85.13429564276666
 20
172.3867158223667
 30
0.0
 40
4.256456385466667
100
AcDbArc
 50
270.0
 51
338.4246501717
  0
ARC
  5
3D3
330
222
100
AcDbEntity
  8
02___PRT_ALL_AXES
  6
Continuous
 62
     7
100
AcDbCircle
 10
75.4509764493
 20
172.3867158223667
 30
0.0
 40
4.256456385466667
100
AcDbArc
 50
201.5753498283001
 51
270.0
  0
ARC
  5
3D4
330
222
100
AcDbEntity
  8
7_ALL_FEATURES
  6
Continuous
 62
     7
100
AcDbCircle
 10
272.8055241129083
 20
275.0559166425001
 30
0.0
 40
24.90372622866666
100
AcDbArc
 50
228.5829436519
 51
230.3531244532999
  0
ARC
  5
3D5
330
222
100
AcDbEntity
  8
7_ALL_FEATURES
  6
Continuous
 62
     7
100
AcDbCircle
 10
187.7847326977083
 20
275.0424656071667
 30
0.0
 40
24.88603062426667
100
AcDbArc
 50
309.6462461390998
 51
311.4176857556999
  0
ARC
  5
3D6
330
222
100
AcDbEntity
  8
7_ALL_FEATURES
  6
Continuous
 62
     7
100
AcDbCircle
 10
201.8765579246416
 20
251.6576816337
 30
0.0
 40
11.59801709413333
100
AcDbArc
 50
155.9716647634999
 51
158.6491745984999
  0
ARC
  5
3D7
330
222
100
AcDbEntity
  8
7_ALL_FEATURES
  6
Continuous
 62
     7
100
AcDbCircle
 10
259.0413009918416
 20
251.7994591881
 30
0.0
 40
11.230572118
100
AcDbArc
 50
21.30701527780015
 51
24.07214536029989
  0
ARC
  5
3D8
330
222
100
AcDbEntity
  8
02___PRT_ALL_AXES
  6
Continuous
 62
     7
100
AcDbCircle
 10
235.1310373749083
 20
172.3867158223667
 30
0.0
 40
4.256456385466667
100
AcDbArc
 50
270.0
 51
338.6298099800997
  0
ARC
  5
3D9
330
222
100
AcDbEntity
  8
02___PRT_ALL_AXES
  6
Continuous
 62
     7
100
AcDbCircle
 10
225.4477181814416
 20
172.3867158223667
 30
0.0
 40
4.256456385466667
100
AcDbArc
 50
201.3701900199
 51
270.0
  0
ARC
  5
3DA
330
222
100
AcDbEntity
  8
7_ALL_FEATURES
  6
Continuous
 62
     7
100
AcDbCircle
 10
330.8405342843
 20
51.754339092
 30
0.0
 40
112.6943344819
100
AcDbArc
 50
97.4708195034
 51
98.34854509960002
  0
ARC
  5
3DB
330
222
100
AcDbEntity
  8
7_ALL_FEATURES
  6
Continuous
 62
     7
100
AcDbCircle
 10
330.2639037222
 20
67.7678212341
 30
0.0
 40
96.5787676592
100
AcDbArc
 50
98.35159120299998
 51
99.4053340563
  0
ARC
  5
3DC
330
222
100
AcDbEntity
  8
7_ALL_FEATURES
  6
Continuous
 62
     7
100
AcDbCircle
 10
321.6287680052
 20
139.9657182626
 30
0.0
 40
25.2830401478
100
AcDbArc
 50
248.4184830842
 51
248.9089479129
  0
ARC
  5
3DD
330
222
100
AcDbEntity
  8
7_ALL_FEATURES
  6
Continuous
 62
     7
100
AcDbCircle
 10
323.5994575457
 20
139.8015046046
 30
0.0
 40
24.4070785095
100
AcDbArc
 50
249.5444596532
 51
250.2876515266
  0
ARC
  5
3DE
330
222
100
AcDbEntity
  8
7_ALL_FEATURES
  6
Continuous
 62
     7
100
AcDbCircle
 10
307.7734951133
 20
143.5214438801
 30
0.0
 40
13.5470217895
100
AcDbArc
 50
232.6746065206
 51
234.4720529514
  0
ARC
  5
3DF
330
222
100
AcDbEntity
  8
7_ALL_FEATURES
  6
Continuous
 62
     7
100
AcDbCircle
 10
307.1273050536
 20
142.6760729396
 30
0.0
 40
12.4829673414
100
AcDbArc
 50
231.2035654601
 51
232.6804379345
  0
ARC
  5
3E0
330
222
100
AcDbEntity
  8
7_ALL_FEATURES
  6
Continuous
 62
     7
100
AcDbCircle
 10
307.2449836488
 20
142.0767393909
 30
0.0
 40
12.1084745707
100
AcDbArc
 50
230.4895037214
 51
232.6961517011
  0
ARC
  5
3E1
330
222
100
AcDbEntity
  8
7_ALL_FEATURES
  6
Continuous
 62
     7
100
AcDbCircle
 10
306.4318579154
 20
141.8193497645
 30
0.0
 40
11.3795221438
100
AcDbArc
 50
228.9120851188
 51
231.2299035787
  0
ARC
  5
3E2
330
222
100
AcDbEntity
  8
7_ALL_FEATURES
  6
Continuous
 62
     7
100
AcDbCircle
 10
306.5986833509
 20
141.2944822812
 30
0.0
 40
11.0937680618
100
AcDbArc
 50
228.8936041952
 51
230.494351288
  0
ARC
  5
3E3
330
222
100
AcDbEntity
  8
7_ALL_FEATURES
  6
Continuous
 62
     7
100
AcDbCircle
 10
315.0654691457
 20
120.2376120039
 30
0.0
 40
10.6659957022
100
AcDbArc
 50
234.7039540893
 51
235.1513266673
  0
ARC
  5
3E4
330
222
100
AcDbEntity
  8
7_ALL_FEATURES
  6
Continuous
 62
     7
100
AcDbCircle
 10
315.4291570887
 20
154.8537518151
 30
0.0
 40
8.6747305161
100
AcDbArc
 50
232.2692421804
 51
232.6646946511
  0
ARC
  5
3E5
330
222
100
AcDbEntity
  8
7_ALL_FEATURES
  6
Continuous
 62
     7
100
AcDbCircle
 10
315.0348195796
 20
154.3490333069
 30
0.0
 40
8.0342361598
100
AcDbArc
 50
228.9593042606
 51
232.2907525573999
  0
ARC
  5
3E6
330
222
100
AcDbEntity
  8
7_ALL_FEATURES
  6
Continuous
 62
     7
100
AcDbCircle
 10
315.0512093662
 20
147.940969479
 30
0.0
 40
6.5242725635
100
AcDbArc
 50
131.9083623901
 51
135.5844180571
  0
ARC
  5
3E7
330
222
100
AcDbEntity
  8
7_ALL_FEATURES
  6
Continuous
 62
     7
100
AcDbCircle
 10
314.5807215395
 20
148.4130322692
 30
0.0
 40
5.8578400029
100
AcDbArc
 50
135.6618021692
 51
136.1668493904
  0
ARC
  5
3E8
330
222
100
AcDbEntity
  8
7_ALL_FEATURES
  6
Continuous
 62
     7
100
AcDbCircle
 10
292.1902419706
 20
149.4990055925
 30
0.0
 40
5.0291930986
100
AcDbArc
 50
188.6390000007
 51
190.703204354
  0
ARC
  5
3E9
330
222
100
AcDbEntity
  8
7_ALL_FEATURES
  6
Continuous
 62
     9
100
AcDbCircle
 10
304.82966458
 20
113.3967793681
 30
0.0
 40
5.0062299522
100
AcDbArc
 50
356.4225528342
 51
356.7989635396
  0
ARC
  5
3EA
330
222
100
AcDbEntity
  8
7_ALL_FEATURES
  6
Continuous
 62
     7
100
AcDbCircle
 10
292.0749912802
 20
149.4823603597
 30
0.0
 40
4.912749822
100
AcDbArc
 50
180.4323424711
 51
188.6489742902
  0
ARC
  5
3EB
330
222
100
AcDbEntity
  8
02___PRT_ALL_AXES
  6
Continuous
 62
     7
100
AcDbCircle
 10
303.4515387622
 20
149.4094430039
 30
0.0
 40
4.5057552084
100
AcDbArc
 50
75.388759699
 51
77.5686064116
  0
ARC
  5
3EC
330
222
100
AcDbEntity
  8
02___PRT_ALL_AXES
  6
Continuous
 62
     7
100
AcDbCircle
 10
311.7514568435
 20
148.7552279103
 30
0.0
 40
3.1385870399
100
AcDbArc
 50
156.3635518643
 51
159.2389383403
  0
ARC
  5
3ED
330
222
100
AcDbEntity
  8
7_ALL_FEATURES
  6
Continuous
 62
     7
100
AcDbCircle
 10
311.5233251655
 20
112.7365108256
 30
0.0
 40
3.1153816532
100
AcDbArc
 50
199.3637208051
 51
204.3684534992
  0
ARC
  5
3EE
330
222
100
AcDbEntity
  8
02___PRT_ALL_AXES
  6
Continuous
 62
     7
100
AcDbCircle
 10
311.6495118889
 20
148.7945893776
 30
0.0
 40
3.0293092509
100
AcDbArc
 50
159.2515919192
 51
160.0981121672
  0
ARC
  5
3EF
330
222
100
AcDbEntity
  8
7_ALL_FEATURES
  6
Continuous
 62
     7
100
AcDbCircle
 10
311.3355296078
 20
112.6705362219
 30
0.0
 40
2.9163343743
100
AcDbArc
 50
195.3502044816
 51
199.3641846371
  0
ARC
  5
3F0
330
222
100
AcDbEntity
  8
7_ALL_FEATURES
  6
Continuous
 62
     7
100
AcDbCircle
 10
311.2307050351
 20
112.6408751067
 30
0.0
 40
2.8073976259
100
AcDbArc
 50
193.6289987373
 51
195.3327750076
  0
ARC
  5
3F1
330
222
100
AcDbEntity
  8
7_ALL_FEATURES
  6
Continuous
 62
     7
100
AcDbCircle
 10
311.4415405649
 20
149.8324956143
 30
0.0
 40
2.5313390816
100
AcDbArc
 50
180.430124476
 51
187.3345397363
  0
ARC
  5
3F2
330
222
100
AcDbEntity
  8
7_ALL_FEATURES
  6
Continuous
 62
     7
100
AcDbCircle
 10
309.3644926808
 20
112.5544358868
 30
0.0
 40
0.9686405283
100
AcDbArc
 50
229.7711037239
 51
232.6255326485
  0
ARC
  5
3F3
330
222
100
AcDbEntity
  8
7_ALL_FEATURES
  6
Continuous
 62
     9
100
AcDbCircle
 10
309.2206198039
 20
112.4459364203
 30
0.0
 40
0.7699945966
100
AcDbArc
 50
232.6076288527
 51
236.1877332154
  0
ARC
  5
3F4
330
222
100
AcDbEntity
  8
7_ALL_FEATURES
  6
Continuous
 62
     9
100
AcDbCircle
 10
308.475667912
 20
116.4919306563
 30
0.0
 40
0.3616211812
100
AcDbArc
 50
91.6334272147
 51
94.3900231021
  0
ARC
  5
3F5
330
222
100
AcDbEntity
  8
7_ALL_FEATURES
  6
Continuous
 62
     9
100
AcDbCircle
 10
308.4754296799
 20
116.495191331
 30
0.0
 40
0.3583518376
100
AcDbArc
 50
94.3919507715
 51
98.1911129057
  0
ARC
  5
3F6
330
222
100
AcDbEntity
  8
7_ALL_FEATURES
  6
Continuous
 62
     7
100
AcDbCircle
 10
331.4629898083
 20
258.3404015713
 30
0.0
 40
120.4675875122
100
AcDbArc
 50
272.7335999059
 51
272.8690987841
  0
ARC
  5
3F7
330
222
100
AcDbEntity
  8
02___PRT_ALL_AXES
  6
Continuous
 62
     7
100
AcDbCircle
 10
321.4301330225
 20
204.9944717549
 30
0.0
 40
69.8589878866
100
AcDbArc
 50
254.2352751401
 51
256.6226344941
  0
ARC
  5
3F8
330
222
100
AcDbEntity
  8
02___PRT_ALL_AXES
  6
Continuous
 62
     7
100
AcDbCircle
 10
319.1724936693
 20
196.9916503215
 30
0.0
 40
61.5438159932
100
AcDbArc
 50
252.8865079668
 51
254.2338324921
  0
ARC
  5
3F9
330
222
100
AcDbEntity
  8
7_ALL_FEATURES
  6
Continuous
 62
     7
100
AcDbCircle
 10
321.9928080576
 20
199.7328616949
 30
0.0
 40
61.0128239242
100
AcDbArc
 50
254.393248897
 51
255.4022036848
  0
ARC
  5
3FA
330
222
100
AcDbEntity
  8
7_ALL_FEATURES
  6
Continuous
 62
     7
100
AcDbCircle
 10
321.3850462773
 20
197.5474122461
 30
0.0
 40
58.7444419835
100
AcDbArc
 50
254.1332700346
 51
254.3907085679
  0
ARC
  5
3FB
330
222
100
AcDbEntity
  8
7_ALL_FEATURES
  6
Continuous
 62
     7
100
AcDbCircle
 10
320.6108455014
 20
194.8524878943
 30
0.0
 40
55.940527148
100
AcDbArc
 50
253.1492517452
 51
254.1413713128
  0
ARC
  5
3FC
330
222
100
AcDbEntity
  8
7_ALL_FEATURES
  6
Continuous
 62
     7
100
AcDbCircle
 10
318.8130504688
 20
189.025147729
 30
0.0
 40
49.8422605533
100
AcDbArc
 50
251.0619778031
 51
253.1853200813999
  0
ARC
  5
3FD
330
222
100
AcDbEntity
  8
7_ALL_FEATURES
  6
Continuous
 62
     7
100
AcDbCircle
 10
333.8558889466
 20
144.4129289085
 30
0.0
 40
42.4346145523
100
AcDbArc
 50
278.2903948447001
 51
281.4225883541
  0
ARC
  5
3FE
330
222
100
AcDbEntity
  8
7_ALL_FEATURES
  6
Continuous
 62
     7
100
AcDbCircle
 10
338.6355054158
 20
144.040298455
 30
0.0
 40
33.8905640149
100
AcDbArc
 50
285.6076308282
 51
287.9003661847
  0
ARC
  5
3FF
330
222
100
AcDbEntity
  8
02___PRT_ALL_AXES
  6
Continuous
 62
     7
100
AcDbCircle
 10
332.4502350005
 20
107.373259842
 30
0.0
 40
20.0328500635
100
AcDbArc
 50
265.0304114946
 51
271.1715195832
  0
ARC
  5
400
330
222
100
AcDbEntity
  8
02___PRT_ALL_AXES
  6
Continuous
 62
     9
100
AcDbCircle
 10
332.4503704472
 20
107.3543441434
 30
0.0
 40
20.0328500635
100
AcDbArc
 50
265.0304114946
 51
271.1715195832
  0
ARC
  5
401
330
222
100
AcDbEntity
  8
7_ALL_FEATURES
  6
Continuous
 62
     7
100
AcDbCircle
 10
357.8683978061
 20
142.3441514806
 30
0.0
 40
11.584329774
100
AcDbArc
 50
309.6303826739
 51
311.9019064058
  0
ARC
  5
402
330
222
100
AcDbEntity
  8
7_ALL_FEATURES
  6
Continuous
 62
     7
100
AcDbCircle
 10
349.8941184056
 20
106.5125823582
 30
0.0
 40
10.4671598246
100
AcDbArc
 50
306.1250798846
 51
306.4252597307
  0
ARC
  5
403
330
222
100
AcDbEntity
  8
7_ALL_FEATURES
  6
Continuous
 62
     7
100
AcDbCircle
 10
348.9944922438
 20
154.8734805563
 30
0.0
 40
8.393601614
100
AcDbArc
 50
308.6287570132
 51
309.3927608731
  0
ARC
  5
404
330
222
100
AcDbEntity
  8
7_ALL_FEATURES
  6
Continuous
 62
     7
100
AcDbCircle
 10
349.451930838
 20
154.3238791463
 30
0.0
 40
7.6785579599
100
AcDbArc
 50
309.3575433303999
 51
311.9183214132
  0
ARC
  5
405
330
222
100
AcDbEntity
  8
7_ALL_FEATURES
  6
Continuous
 62
     7
100
AcDbCircle
 10
372.2456107163
 20
150.0566576157
 30
0.0
 40
4.9144949312
100
AcDbArc
 50
352.19777929
 51
0.3855799880999999
  0
ARC
  5
406
330
222
100
AcDbEntity
  8
02___PRT_ALL_AXES
  6
Continuous
 62
     7
100
AcDbCircle
 10
361.9468539748
 20
142.1846479663
 30
0.0
 40
4.3911278583
100
AcDbArc
 50
75.360304437
 51
77.5970616736
  0
ARC
  5
407
330
222
100
AcDbEntity
  8
02___PRT_ALL_AXES
  6
Continuous
 62
     7
100
AcDbCircle
 10
352.6427300596
 20
149.0720169836
 30
0.0
 40
3.0743138014
100
AcDbArc
 50
20.743808408
 51
22.7935006745
  0
ARC
  5
408
330
222
100
AcDbEntity
  8
02___PRT_ALL_AXES
  6
Continuous
 62
     7
100
AcDbCircle
 10
352.7297481015
 20
149.1051615618
 30
0.0
 40
2.981197363
100
AcDbArc
 50
19.248630539
 51
20.740444839
  0
ARC
  5
409
330
222
100
AcDbEntity
  8
7_ALL_FEATURES
  6
Continuous
 62
     7
100
AcDbCircle
 10
352.891609691
 20
150.1284365955
 30
0.0
 40
2.5175149513
100
AcDbArc
 50
355.8286262981
 51
0.4115674575
  0
ARC
  5
40A
330
222
100
AcDbEntity
  8
7_ALL_FEATURES
  6
Continuous
 62
     7
100
AcDbCircle
 10
334.479401015
 20
231.7161603259
 30
0.0
 40
93.6609524334
100
AcDbArc
 50
278.3408253004001
 51
280.8169292973
  0
ARC
  5
40B
330
222
100
AcDbEntity
  8
7_ALL_FEATURES
  6
Continuous
 62
     7
100
AcDbCircle
 10
332.9986936261
 20
168.4167988725
 30
0.0
 40
66.2398630386
100
AcDbArc
 50
276.045151244
 51
278.342360276
  0
SPLINE
  5
40C
330
222
100
AcDbEntity
  8
02___PRT_ALL_AXES
  6
Continuous
 62
     7
100
AcDbSpline
210
0.0
220
0.0
230
1.0
 70
     8
 71
     3
 72
    11
 73
     7
 74
     0
 42
0.000000001
 43
0.0000001
 40
0.0
 40
0.0
 40
0.0
 40
0.0
 40
0.2966417642
 40
0.5690549749
 40
0.8041883655
 40
1.0
 40
1.0
 40
1.0
 40
1.0
 10
89.34270144903334
 20
172.3867158223667
 30
0.0
 10
89.34270144903334
 20
172.2291862186334
 30
0.0
 10
89.33064978503333
 20
171.9268415307667
 30
0.0
 10
89.27877641529999
 20
171.5024344399667
 30
0.0
 10
89.20082107009999
 20
171.1366401422333
 30
0.0
 10
89.13074951903332
 20
170.9181891710334
 30
0.0
 10
89.09251347276665
 20
170.8214897938334
 30
0.0
  0
SPLINE
  5
40D
330
222
100
AcDbEntity
  8
02___PRT_ALL_AXES
  6
Continuous
 62
     7
100
AcDbSpline
210
0.0
220
0.0
230
1.0
 70
     8
 71
     3
 72
     9
 73
     5
 74
     0
 42
0.000000001
 43
0.0000001
 40
0.0
 40
0.0
 40
0.0
 40
0.0
 40
0.5240182247
 40
1.0
 40
1.0
 40
1.0
 40
1.0
 10
89.77315415503332
 20
173.1302594369
 30
0.0
 10
89.70596834556667
 20
173.0004664197
 30
0.0
 10
89.57185253676667
 20
172.7557700281
 30
0.0
 10
89.4206803941
 20
172.5208582325
 30
0.0
 10
89.34270144903334
 20
172.4134208429
 30
0.0
  0
SPLINE
  5
40E
330
222
100
AcDbEntity
  8
02___PRT_ALL_AXES
  6
Continuous
 62
     7
100
AcDbSpline
210
0.0
220
0.0
230
1.0
 70
     8
 71
     3
 72
     9
 73
     5
 74
     0
 42
0.000000001
 43
0.0000001
 40
0.0
 40
0.0
 40
0.0
 40
0.0
 40
0.5240182247
 40
1.0
 40
1.0
 40
1.0
 40
1.0
 10
70.81211793703334
 20
173.1302594369
 30
0.0
 10
70.87930374663333
 20
173.0004664197
 30
0.0
 10
71.01341955543333
 20
172.7557700281
 30
0.0
 10
71.16459169796666
 20
172.5208582325
 30
0.0
 10
71.24257064316666
 20
172.4134208429
 30
0.0
  0
SPLINE
  5
40F
330
222
100
AcDbEntity
  8
02___PRT_ALL_AXES
  6
Continuous
 62
     7
100
AcDbSpline
210
0.0
220
0.0
230
1.0
 70
     8
 71
     3
 72
    11
 73
     7
 74
     0
 42
0.000000001
 43
0.0000001
 40
0.0
 40
0.0
 40
0.0
 40
0.0
 40
0.2966417642
 40
0.5690549749
 40
0.8041883655
 40
1.0
 40
1.0
 40
1.0
 40
1.0
 10
71.24257064316666
 20
172.3867158223667
 30
0.0
 10
71.24257064316666
 20
172.2291862186334
 30
0.0
 10
71.25462230716667
 20
171.9268415307667
 30
0.0
 10
71.3064956769
 20
171.5024344399667
 30
0.0
 10
71.38445102196667
 20
171.1366401422333
 30
0.0
 10
71.45452257303333
 20
170.9181891710334
 30
0.0
 10
71.49275861929999
 20
170.8214897938334
 30
0.0
  0
SPLINE
  5
410
330
222
100
AcDbEntity
  8
02___PRT_ALL_AXES
  6
Continuous
 62
     7
100
AcDbSpline
210
0.0
220
0.0
230
1.0
 70
     8
 71
     3
 72
     9
 73
     5
 74
     0
 42
0.000000001
 43
0.0000001
 40
0.0
 40
0.0
 40
0.0
 40
0.0
 40
0.2503519107
 40
1.0
 40
1.0
 40
1.0
 40
1.0
 10
73.35241510823333
 20
173.1302594369
 30
0.0
 10
73.4828301245
 20
173.0627516569
 30
0.0
 10
74.00709915596666
 20
172.7997137917
 30
0.0
 10
74.54637063156666
 20
172.5657107705
 30
0.0
 10
74.95888647756667
 20
172.4134208429
 30
0.0
  0
SPLINE
  5
411
330
222
100
AcDbEntity
  8
02___PRT_ALL_AXES
  6
Continuous
 62
     7
100
AcDbSpline
210
0.0
220
0.0
230
1.0
 70
     8
 71
     3
 72
    21
 73
    17
 74
     0
 42
0.000000001
 43
0.0000001
 40
0.0
 40
0.0
 40
0.0
 40
0.0
 40
0.0757978139
 40
0.1477199372
 40
0.2143827427
 40
0.2763840284
 40
0.3349392434
 40
0.3911975693
 40
0.5000056115
 40
0.6088138995
 40
0.6650727281
 40
0.7236285732
 40
0.7856285468
 40
0.8522892775
 40
0.9242080782
 40
1.0
 40
1.0
 40
1.0
 40
1.0
 10
84.0089518805
 20
172.3867158223667
 30
0.0
 10
84.0089518805
 20
172.2092469718334
 30
0.0
 10
84.0522629673
 20
171.8618012306333
 30
0.0
 10
84.23447712929999
 20
171.3892179873
 30
0.0
 10
84.5012249749
 20
170.9979338987667
 30
0.0
 10
84.82113827596666
 20
170.6939368181
 30
0.0
 10
85.17245672303333
 20
170.4704495325001
 30
0.0
 10
85.65852453316666
 20
170.2701151098334
 30
0.0
 10
86.30308421836666
 20
170.1719378678333
 30
0.0
 10
86.94764160996667
 20
170.2701382286334
 30
0.0
 10
87.43370534956665
 20
170.4704905439667
 30
0.0
 10
87.78501703383333
 20
170.6939880990334
 30
0.0
 10
88.10491234409999
 20
170.9979948441
 30
0.0
 10
88.3716376953
 20
171.3892745137
 30
0.0
 10
88.5538309653
 20
171.8618369001
 30
0.0
 10
88.59713549183333
 20
172.2092607674334
 30
0.0
 10
88.59713549183333
 20
172.3867158223667
 30
0.0
  0
SPLINE
  5
412
330
222
100
AcDbEntity
  8
02___PRT_ALL_AXES
  6
Continuous
 62
     7
100
AcDbSpline
210
0.0
220
0.0
230
1.0
 70
     8
 71
     3
 72
     9
 73
     5
 74
     0
 42
0.000000001
 43
0.0000001
 40
0.0
 40
0.0
 40
0.0
 40
0.0
 40
0.4759818969
 40
1.0
 40
1.0
 40
1.0
 40
1.0
 10
72.9219624021
 20
172.4134208429
 30
0.0
 10
72.99994136716667
 20
172.5208582599667
 30
0.0
 10
73.15111351263333
 20
172.7557700542334
 30
0.0
 10
73.28522931423332
 20
173.0004664498333
 30
0.0
 10
73.35241510823333
 20
173.1302594369
 30
0.0
  0
SPLINE
  5
413
330
222
100
AcDbEntity
  8
02___PRT_ALL_AXES
  6
Continuous
 62
     7
100
AcDbSpline
210
0.0
220
0.0
230
1.0
 70
     8
 71
     3
 72
     9
 73
     5
 74
     0
 42
0.000000001
 43
0.0000001
 40
0.0
 40
0.0
 40
0.0
 40
0.0
 40
0.2535842523
 40
1.0
 40
1.0
 40
1.0
 40
1.0
 10
82.83293321716666
 20
173.1302594369
 30
0.0
 10
82.9280334513
 20
173.0630134165
 30
0.0
 10
83.30684033610001
 20
172.8033417125
 30
0.0
 10
83.70283890063334
 20
172.5677937438334
 30
0.0
 10
84.0089518805
 20
172.4134208429
 30
0.0
  0
SPLINE
  5
414
330
222
100
AcDbEntity
  8
02___PRT_ALL_AXES
  6
Continuous
 62
     7
100
AcDbSpline
210
0.0
220
0.0
230
1.0
 70
     8
 71
     3
 72
    22
 73
    18
 74
     0
 42
0.000000001
 43
0.0000001
 40
0.0
 40
0.0
 40
0.0
 40
0.0
 40
0.0666700745
 40
0.1222050592
 40
0.1684950687
 40
0.207582743
 40
0.2417963325
 40
0.2738751254
 40
0.3068349149
 40
0.3435677081
 40
0.3865707126
 40
0.4379875692
 40
0.499762231
 40
0.5737022184
 40
0.6613023932
 40
0.7631493848
 40
1.0
 40
1.0
 40
1.0
 40
1.0
 10
71.49275861929999
 20
170.8214897938334
 30
0.0
 10
71.52040552836667
 20
170.7515704601001
 30
0.0
 10
71.5773074949
 20
170.6256576147667
 30
0.0
 10
71.67734490716667
 20
170.4633768554334
 30
0.0
 10
71.78184819303333
 20
170.3425185734334
 30
0.0
 10
71.8900302445
 20
170.2599726615667
 30
0.0
 10
72.00161853876665
 20
170.2143907770334
 30
0.0
 10
72.11529192236667
 20
170.2064034250334
 30
0.0
 10
72.22803636636667
 20
170.2363335859667
 30
0.0
 10
72.33769167703332
 20
170.3033232007667
 30
0.0
 10
72.44378716396668
 20
170.4077871257
 30
0.0
 10
72.54585204423333
 20
170.5522290170334
 30
0.0
 10
72.64260739356666
 20
170.7403965989
 30
0.0
 10
72.7317552149
 20
170.9764068797
 30
0.0
 10
72.80983226583332
 20
171.2634191345
 30
0.0
 10
72.89685792116666
 20
171.7366218962334
 30
0.0
 10
72.9219624021
 20
172.1196086443667
 30
0.0
 10
72.9219624021
 20
172.3867158223667
 30
0.0
  0
SPLINE
  5
415
330
222
100
AcDbEntity
  8
02___PRT_ALL_AXES
  6
Continuous
 62
     7
100
AcDbSpline
210
0.0
220
0.0
230
1.0
 70
     8
 71
     3
 72
     9
 73
     5
 74
     0
 42
0.000000001
 43
0.0000001
 40
0.0
 40
0.0
 40
0.0
 40
0.0
 40
0.2464701132
 40
1.0
 40
1.0
 40
1.0
 40
1.0
 10
88.59713549183333
 20
172.4134208429
 30
0.0
 10
88.69822309263333
 20
172.4643993613
 30
0.0
 10
89.10355987049999
 20
172.6807638003667
 30
0.0
 10
89.49054094316665
 20
172.9304217182334
 30
0.0
 10
89.77315415503332
 20
173.1302594369
 30
0.0
  0
SPLINE
  5
416
330
222
100
AcDbEntity
  8
02___PRT_ALL_AXES
  6
Continuous
 62
     7
100
AcDbSpline
210
0.0
220
0.0
230
1.0
 70
     8
 71
     3
 72
     9
 73
     5
 74
     0
 42
0.000000001
 43
0.0000001
 40
0.0
 40
0.0
 40
0.0
 40
0.0
 40
0.2497571678
 40
1.0
 40
1.0
 40
1.0
 40
1.0
 10
81.22646184783332
 20
172.4134208429
 30
0.0
 10
81.3639044425
 20
172.4641610095667
 30
0.0
 10
81.9104121921
 20
172.6775934505
 30
0.0
 10
82.44209346303333
 20
172.9279458930334
 30
0.0
 10
82.83293321716666
 20
173.1302594369
 30
0.0
  0
SPLINE
  5
417
330
222
100
AcDbEntity
  8
02___PRT_ALL_AXES
  6
Continuous
 62
     7
100
AcDbSpline
210
0.0
220
0.0
230
1.0
 70
     8
 71
     3
 72
    19
 73
    15
 74
     0
 42
0.000000001
 43
0.0000001
 40
0.0
 40
0.0
 40
0.0
 40
0.0
 40
0.0637445686
 40
0.1271127482
 40
0.1899898845
 40
0.2524574515
 40
0.3763216056
 40
0.4998556008
 40
0.6234243596
 40
0.7473509561
 40
0.8098660446
 40
0.8727998324
 40
0.9362155993
 40
1.0
 40
1.0
 40
1.0
 40
1.0
 10
74.95888647756667
 20
172.3867158223667
 30
0.0
 10
74.95888647756667
 20
172.2081430469
 30
0.0
 10
75.0216185669
 20
171.8493973359667
 30
0.0
 10
75.2776432077
 20
171.3744949586334
 30
0.0
 10
75.64450179423334
 20
170.9869417605
 30
0.0
 10
76.22299971623333
 20
170.5893338195667
 30
0.0
 10
77.05057311356666
 20
170.2862844651667
 30
0.0
 10
78.09153924383332
 20
170.1734565773
 30
0.0
 10
79.13274946716666
 20
170.2857575959667
 30
0.0
 10
79.9608406473
 20
170.5885746085
 30
0.0
 10
80.53994328143332
 20
170.9861339079667
 30
0.0
 10
80.90725443063332
 20
171.3738562950334
 30
0.0
 10
81.16364058369999
 20
171.8490350194334
 30
0.0
 10
81.22646184783332
 20
172.2080314619667
 30
0.0
 10
81.22646184783332
 20
172.3867158223667
 30
0.0
  0
SPLINE
  5
418
330
222
100
AcDbEntity
  8
02___PRT_ALL_AXES
  6
Continuous
 62
     7
100
AcDbSpline
210
0.0
220
0.0
230
1.0
 70
     8
 71
     3
 72
    11
 73
     7
 74
     0
 42
0.000000001
 43
0.0000001
 40
0.0
 40
0.0
 40
0.0
 40
0.0
 40
0.1965153749
 40
0.431970596
 40
0.7041013179
 40
1.0
 40
1.0
 40
1.0
 40
1.0
 10
239.0930374122416
 20
170.8311011315667
 30
0.0
 10
239.1307338283749
 20
170.9276882879667
 30
0.0
 10
239.1997843957082
 20
171.1454586577
 30
0.0
 10
239.2765629967749
 20
171.5094179683666
 30
0.0
 10
239.3276000787749
 20
171.9307540131666
 30
0.0
 10
239.3394431811749
 20
172.2305979155667
 30
0.0
 10
239.3394431811749
 20
172.3867158223667
 30
0.0
  0
SPLINE
  5
419
330
222
100
AcDbEntity
  8
02___PRT_ALL_AXES
  6
Continuous
 62
     7
100
AcDbSpline
210
0.0
220
0.0
230
1.0
 70
     8
 71
     3
 72
    11
 73
     7
 74
     0
 42
0.000000001
 43
0.0000001
 40
0.0
 40
0.0
 40
0.0
 40
0.0
 40
0.1965153749
 40
0.431970596
 40
0.7041013179
 40
1.0
 40
1.0
 40
1.0
 40
1.0
 10
221.4857181439749
 20
170.8311011315667
 30
0.0
 10
221.4480217279749
 20
170.9276882879667
 30
0.0
 10
221.3789711606416
 20
171.1454586577
 30
0.0
 10
221.3021925595749
 20
171.5094179683666
 30
0.0
 10
221.2511554775749
 20
171.9307540131666
 30
0.0
 10
221.2393123751749
 20
172.2305979155667
 30
0.0
 10
221.2393123751749
 20
172.3867158223667
 30
0.0
  0
SPLINE
  5
41A
330
222
100
AcDbEntity
  8
02___PRT_ALL_AXES
  6
Continuous
 62
     7
100
AcDbSpline
210
0.0
220
0.0
230
1.0
 70
     8
 71
     3
 72
     9
 73
     5
 74
     0
 42
0.000000001
 43
0.0000001
 40
0.0
 40
0.0
 40
0.0
 40
0.0
 40
0.4759818969
 40
1.0
 40
1.0
 40
1.0
 40
1.0
 10
239.3394431811749
 20
172.4134208429
 30
0.0
 10
239.4174221461083
 20
172.5208582599666
 30
0.0
 10
239.568594291575
 20
172.7557700542334
 30
0.0
 10
239.7027100931749
 20
173.0004664498333
 30
0.0
 10
239.7698958871749
 20
173.1302594369
 30
0.0
  0
SPLINE
  5
41B
330
222
100
AcDbEntity
  8
02___PRT_ALL_AXES
  6
Continuous
 62
     7
100
AcDbSpline
210
0.0
220
0.0
230
1.0
 70
     8
 71
     3
 72
     9
 73
     5
 74
     0
 42
0.000000001
 43
0.0000001
 40
0.0
 40
0.0
 40
0.0
 40
0.0
 40
0.4759818969
 40
1.0
 40
1.0
 40
1.0
 40
1.0
 10
221.2393123751749
 20
172.4134208429
 30
0.0
 10
221.1613334101083
 20
172.5208582599666
 30
0.0
 10
221.010161264775
 20
172.7557700542334
 30
0.0
 10
220.8760454630416
 20
173.0004664498333
 30
0.0
 10
220.8088596691749
 20
173.1302594369
 30
0.0
  0
SPLINE
  5
41C
330
222
100
AcDbEntity
  8
02___PRT_ALL_AXES
  6
Continuous
 62
     7
100
AcDbSpline
210
0.0
220
0.0
230
1.0
 70
     8
 71
     3
 72
     9
 73
     5
 74
     0
 42
0.000000001
 43
0.0000001
 40
0.0
 40
0.0
 40
0.0
 40
0.0
 40
0.5240182247
 40
1.0
 40
1.0
 40
1.0
 40
1.0
 10
237.2295987161083
 20
173.1302594369
 30
0.0
 10
237.2967845255749
 20
173.0004664197
 30
0.0
 10
237.4309003343749
 20
172.7557700281
 30
0.0
 10
237.5820724770416
 20
172.5208582325
 30
0.0
 10
237.6600514221083
 20
172.4134208429
 30
0.0
  0
SPLINE
  5
41D
330
222
100
AcDbEntity
  8
02___PRT_ALL_AXES
  6
Continuous
 62
     7
100
AcDbSpline
210
0.0
220
0.0
230
1.0
 70
     8
 71
     3
 72
     9
 73
     5
 74
     0
 42
0.000000001
 43
0.0000001
 40
0.0
 40
0.0
 40
0.0
 40
0.0
 40
0.2503519107
 40
1.0
 40
1.0
 40
1.0
 40
1.0
 10
227.7490806070416
 20
173.1302594369
 30
0.0
 10
227.8794956233083
 20
173.0627516569
 30
0.0
 10
228.4037646547749
 20
172.7997137917
 30
0.0
 10
228.9430361303749
 20
172.5657107705
 30
0.0
 10
229.3555519763749
 20
172.4134208429
 30
0.0
  0
SPLINE
  5
41E
330
222
100
AcDbEntity
  8
02___PRT_ALL_AXES
  6
Continuous
 62
     7
100
AcDbSpline
210
0.0
220
0.0
230
1.0
 70
     8
 71
     3
 72
     9
 73
     5
 74
     0
 42
0.000000001
 43
0.0000001
 40
0.0
 40
0.0
 40
0.0
 40
0.0
 40
0.2497571678
 40
1.0
 40
1.0
 40
1.0
 40
1.0
 10
235.6231273467749
 20
172.4134208429
 30
0.0
 10
235.7605699413083
 20
172.4641610095667
 30
0.0
 10
236.3070776910416
 20
172.6775934505
 30
0.0
 10
236.8387589618416
 20
172.9279458930333
 30
0.0
 10
237.2295987161083
 20
173.1302594369
 30
0.0
  0
SPLINE
  5
41F
330
222
100
AcDbEntity
  8
02___PRT_ALL_AXES
  6
Continuous
 62
     7
100
AcDbSpline
210
0.0
220
0.0
230
1.0
 70
     8
 71
     3
 72
    20
 73
    16
 74
     0
 42
0.000000001
 43
0.0000001
 40
0.0
 40
0.0
 40
0.0
 40
0.0
 40
0.0320135405
 40
0.0639703746
 40
0.1273407445
 40
0.1902217611
 40
0.2526934217
 40
0.3765655995
 40
0.5001025754
 40
0.6236356537
 40
0.7475089911
 40
0.8099832605
 40
0.8728683607
 40
0.9362454255
 40
1.0
 40
1.0
 40
1.0
 40
1.0
 10
229.3555519763749
 20
172.3867158223667
 30
0.0
 10
229.3555519763749
 20
172.2970135767667
 30
0.0
 10
229.3710687371749
 20
172.1173791513
 30
0.0
 10
229.4611826078416
 20
171.7707026993
 30
0.0
 10
229.6744618793083
 20
171.3739569950334
 30
0.0
 10
230.0414868379749
 20
170.9867367935667
 30
0.0
 10
230.6202260279749
 20
170.5889974098334
 30
0.0
 10
231.4480850623749
 20
170.2860867438334
 30
0.0
 10
232.4892461189083
 20
170.1734418350333
 30
0.0
 10
233.5304136705082
 20
170.2860320357
 30
0.0
 10
234.3582874978416
 20
170.5889576751667
 30
0.0
 10
234.9370679695749
 20
170.9865521495667
 30
0.0
 10
235.3041442922416
 20
171.3741579802333
 30
0.0
 10
235.5603453895749
 20
171.8491938715667
 30
0.0
 10
235.6231273467749
 20
172.2080748971667
 30
0.0
 10
235.6231273467749
 20
172.3867158223667
 30
0.0
  0
SPLINE
  5
420
330
222
100
AcDbEntity
  8
02___PRT_ALL_AXES
  6
Continuous
 62
     7
100
AcDbSpline
210
0.0
220
0.0
230
1.0
 70
     8
 71
     3
 72
     9
 73
     5
 74
     0
 42
0.000000001
 43
0.0000001
 40
0.0
 40
0.0
 40
0.0
 40
0.0
 40
0.2535842523
 40
1.0
 40
1.0
 40
1.0
 40
1.0
 10
220.8088596691749
 20
173.1302594369
 30
0.0
 10
220.9039599031749
 20
173.0630134165
 30
0.0
 10
221.2827667881083
 20
172.8033417125
 30
0.0
 10
221.6787653525082
 20
172.5677937438333
 30
0.0
 10
221.9848783323749
 20
172.4134208429
 30
0.0
  0
SPLINE
  5
421
330
222
100
AcDbEntity
  8
02___PRT_ALL_AXES
  6
Continuous
 62
     7
100
AcDbSpline
210
0.0
220
0.0
230
1.0
 70
     8
 71
     3
 72
     9
 73
     5
 74
     0
 42
0.000000001
 43
0.0000001
 40
0.0
 40
0.0
 40
0.0
 40
0.0
 40
0.2464701132
 40
1.0
 40
1.0
 40
1.0
 40
1.0
 10
226.5730619437083
 20
172.4134208429
 30
0.0
 10
226.6741495446416
 20
172.4643993613
 30
0.0
 10
227.0794863225083
 20
172.6807638003667
 30
0.0
 10
227.4664673950416
 20
172.9304217182333
 30
0.0
 10
227.7490806070416
 20
173.1302594369
 30
0.0
  0
SPLINE
  5
422
330
222
100
AcDbEntity
  8
02___PRT_ALL_AXES
  6
Continuous
 62
     7
100
AcDbSpline
210
0.0
220
0.0
230
1.0
 70
     8
 71
     3
 72
    21
 73
    17
 74
     0
 42
0.000000001
 43
0.0000001
 40
0.0
 40
0.0
 40
0.0
 40
0.0
 40
0.0757978139
 40
0.1477199372
 40
0.2143827427
 40
0.2763840284
 40
0.3349392434
 40
0.3911975693
 40
0.5000056115
 40
0.6088138995
 40
0.6650727281
 40
0.7236285732
 40
0.7856285468
 40
0.8522892775
 40
0.9242080782
 40
1.0
 40
1.0
 40
1.0
 40
1.0
 10
221.9848783323749
 20
172.3867158223667
 30
0.0
 10
221.9848783323749
 20
172.2092469718333
 30
0.0
 10
222.0281894193082
 20
171.8618012306333
 30
0.0
 10
222.2104035813082
 20
171.3892179873
 30
0.0
 10
222.477151426775
 20
170.9979338987667
 30
0.0
 10
222.7970647278416
 20
170.6939368181
 30
0.0
 10
223.1483831749083
 20
170.4704495325
 30
0.0
 10
223.6344509850416
 20
170.2701151098333
 30
0.0
 10
224.2790106702416
 20
170.1719378678333
 30
0.0
 10
224.9235680618416
 20
170.2701382286333
 30
0.0
 10
225.4096318014416
 20
170.4704905439667
 30
0.0
 10
225.7609434857083
 20
170.6939880990333
 30
0.0
 10
226.0808387961083
 20
170.9979948441
 30
0.0
 10
226.3475641473083
 20
171.3892745137
 30
0.0
 10
226.5297574173082
 20
171.8618369001
 30
0.0
 10
226.5730619437083
 20
172.2092607674333
 30
0.0
 10
226.5730619437083
 20
172.3867158223667
 30
0.0
  0
SPLINE
  5
423
330
222
100
AcDbEntity
  8
02___PRT_ALL_AXES
  6
Continuous
 62
     7
100
AcDbSpline
210
0.0
220
0.0
230
1.0
 70
     8
 71
     3
 72
    22
 73
    18
 74
     0
 42
0.000000001
 43
0.0000001
 40
0.0
 40
0.0
 40
0.0
 40
0.0
 40
0.2366441222
 40
0.3383397042
 40
0.4257643556
 40
0.4995186534
 40
0.5611073128
 40
0.6123474549
 40
0.6551931783
 40
0.691801998
 40
0.7246917625
 40
0.7567756055
 40
0.7910814255
 40
0.8303520388
 40
0.8769240975
 40
0.9328352486
 40
1.0
 40
1.0
 40
1.0
 40
1.0
 10
237.6600514221083
 20
172.3867158223667
 30
0.0
 10
237.6600514221083
 20
172.1190281707667
 30
0.0
 10
237.6852551694416
 20
171.7352739426333
 30
0.0
 10
237.7726507479749
 20
171.2612599071666
 30
0.0
 10
237.8510188883749
 20
170.9739863887667
 30
0.0
 10
237.9404750713082
 20
170.7379297106333
 30
0.0
 10
238.0375454682416
 20
170.5498924457
 30
0.0
 10
238.1399292051749
 20
170.4057293145
 30
0.0
 10
238.2463576773083
 20
170.3016808290333
 30
0.0
 10
238.3563748563749
 20
170.2352669701
 30
0.0
 10
238.4694845959749
 20
170.2061059954333
 30
0.0
 10
238.5834731719749
 20
170.2150946446334
 30
0.0
 10
238.6952921549083
 20
170.2618910271667
 30
0.0
 10
238.8037145891749
 20
170.3458280499667
 30
0.0
 10
238.9083588838416
 20
170.4684599419667
 30
0.0
 10
239.0085318155749
 20
170.6328606035667
 30
0.0
 10
239.0654146015749
 20
170.7603249410333
 30
0.0
 10
239.0930374122416
 20
170.8311011315667
 30
0.0
  0
SPLINE
  5
424
330
222
100
AcDbEntity
  8
7_ALL_FEATURES
  6
Continuous
 62
     7
100
AcDbSpline
 70
     0
 71
     3
 72
    11
 73
     7
 74
     0
 42
0.000000001
 43
0.0000001
 40
0.0
 40
0.0
 40
0.0
 40
0.0
 40
0.2719063679
 40
0.5253255147
 40
0.7656110562
 40
1.0
 40
1.0
 40
1.0
 40
1.0
 10
308.7765067973
 20
111.7846715892
 30
0.0
 10
308.8082636553
 20
111.7604507484
 30
0.0
 10
308.8728084542
 20
111.7175452776
 30
0.0
 10
308.9762180203
 20
111.6717471014
 30
0.0
 10
309.0815351537
 20
111.6488675875
 30
0.0
 10
309.152055856
 20
111.6504438184
 30
0.0
 10
309.1861190646
 20
111.6554457723
 30
0.0
  0
SPLINE
  5
425
330
222
100
AcDbEntity
  8
7_ALL_FEATURES
  6
Continuous
 62
     7
100
AcDbSpline
 70
     0
 71
     3
 72
    10
 73
     6
 74
     0
 42
0.000000001
 43
0.0000001
 40
0.0
 40
0.0
 40
0.0
 40
0.0
 40
0.2418513652
 40
0.4861105157
 40
1.0
 40
1.0
 40
1.0
 40
1.0
 10
308.4233714254
 20
116.8497422636
 30
0.0
 10
308.3978813454
 20
116.8459992161
 30
0.0
 10
308.3472145529
 20
116.8337166407
 30
0.0
 10
308.24940501
 20
116.7904427884
 30
0.0
 10
308.1847838249
 20
116.7394432717
 30
0.0
 10
308.1461950619
 20
116.7006147617
 30
0.0
  0
SPLINE
  5
426
330
222
100
AcDbEntity
  8
7_ALL_FEATURES
  6
Continuous
 62
     7
100
AcDbSpline
 70
     0
 71
     3
 72
    23
 73
    19
 74
     0
 42
0.000000001
 43
0.0000001
 40
0.0
 40
0.0
 40
0.0
 40
0.0
 40
0.0387139879
 40
0.0827965128
 40
0.1328662103
 40
0.1889217933
 40
0.2505269142
 40
0.3169419498
 40
0.3872146818
 40
0.4602450696
 40
0.534836662
 40
0.609741199
 40
0.6837002693
 40
0.7554863356
 40
0.8239457944
 40
0.888045341
 40
0.9469327598
 40
1.0
 40
1.0
 40
1.0
 40
1.0
 10
308.1461950619
 20
116.7006147617
 30
0.0
 10
308.1020488393
 20
116.6561942642
 30
0.0
 10
308.0206333321
 20
116.5481568989
 30
0.0
 10
307.9248663263
 20
116.3549143635
 30
0.0
 10
307.8472476792
 20
116.1240245959
 30
0.0
 10
307.7880735624
 20
115.858836734
 30
0.0
 10
307.7478466672
 20
115.563495584
 30
0.0
 10
307.7271468917
 20
115.2431605198
 30
0.0
 10
307.7262929828
 20
114.9037109418
 30
0.0
 10
307.7452843563
 20
114.5515665504
 30
0.0
 10
307.7837497598
 20
114.1934883441
 30
0.0
 10
307.8409441418
 20
113.8364010659
 30
0.0
 10
307.9157604149
 20
113.4872202072
 30
0.0
 10
308.0067583168
 20
113.1526784284
 30
0.0
 10
308.1122122172
 20
112.8391680406
 30
0.0
 10
308.2301876921
 20
112.5525298264
 30
0.0
 10
308.3586285404
 20
112.29801035
 30
0.0
 10
308.4551583397
 20
112.1442830356
 30
0.0
 10
308.5052998314
 20
112.0746035069
 30
0.0
  0
SPLINE
  5
427
330
222
100
AcDbEntity
  8
7_ALL_FEATURES
  6
Continuous
 62
     7
100
AcDbSpline
 70
     0
 71
     3
 72
     9
 73
     5
 74
     0
 42
0.000000001
 43
0.0000001
 40
0.0
 40
0.0
 40
0.0
 40
0.0
 40
0.255565676
 40
1.0
 40
1.0
 40
1.0
 40
1.0
 10
308.5052998314
 20
112.0746035069
 30
0.0
 10
308.510906701
 20
112.0668118752
 30
0.0
 10
308.5330648268
 20
112.0364827532
 30
0.0
 10
308.5561186845
 20
112.0068047361
 30
0.0
 10
308.5738261287
 20
111.9851644463
 30
0.0
  0
SPLINE
  5
428
330
222
100
AcDbEntity
  8
7_ALL_FEATURES
  6
Continuous
 62
     7
100
AcDbSpline
 70
     0
 71
     3
 72
     9
 73
     5
 74
     0
 42
0.000000001
 43
0.0000001
 40
0.0
 40
0.0
 40
0.0
 40
0.0
 40
0.2639510745
 40
1.0
 40
1.0
 40
1.0
 40
1.0
 10
308.5738261287
 20
111.9851644463
 30
0.0
 10
308.5870492052
 20
111.9690045078
 30
0.0
 10
308.638296097
 20
111.9087530633
 30
0.0
 10
308.6944397512
 20
111.8525023253
 30
0.0
 10
308.7389031555
 20
111.8149075108
 30
0.0
  0
SPLINE
  5
429
330
222
100
AcDbEntity
  8
7_ALL_FEATURES
  6
Continuous
 62
     9
100
AcDbSpline
 70
     0
 71
     3
 72
     9
 73
     5
 74
     0
 42
0.000000001
 43
0.0000001
 40
0.0
 40
0.0
 40
0.0
 40
0.0
 40
0.2329082891
 40
1.0
 40
1.0
 40
1.0
 40
1.0
 10
308.7530251396
 20
111.83417919
 30
0.0
 10
308.7390236713
 20
111.8448580593
 30
0.0
 10
308.6803641755
 20
111.8926167627
 30
0.0
 10
308.6273867866
 20
111.9471001372
 30
0.0
 10
308.5894532085
 20
111.9909702987
 30
0.0
  0
SPLINE
  5
42A
330
222
100
AcDbEntity
  8
7_ALL_FEATURES
  6
Continuous
 62
     9
100
AcDbSpline
 70
     0
 71
     3
 72
    30
 73
    26
 74
     0
 42
0.000000001
 43
0.0000001
 40
0.0
 40
0.0
 40
0.0
 40
0.0
 40
0.0266536221
 40
0.0557901811
 40
0.1210653598
 40
0.194543471
 40
0.2743254079
 40
0.3581478184
 40
0.4435423817
 40
0.5279638853
 40
0.6089155767
 40
0.6840779564
 40
0.7514529088
 40
0.7817453985
 40
0.8095902634
 40
0.8349310563
 40
0.8577917232
 40
0.8783074908
 40
0.8967604583
 40
0.9136192961
 40
0.9295561813
 40
0.9453933881
 40
0.9619707176
 40
0.9800010798
 40
1.0
 40
1.0
 40
1.0
 40
1.0
 10
308.5894532085
 20
111.9909702987
 30
0.0
 10
308.5572052854
 20
112.0282650033
 30
0.0
 10
308.4936189946
 20
112.1097547416
 30
0.0
 10
308.3702928283
 20
112.2968880974
 30
0.0
 10
308.2267243861
 20
112.5731991298
 30
0.0
 10
308.0770398622
 20
112.9492313133
 30
0.0
 10
307.9491309735
 20
113.3691926536
 30
0.0
 10
307.8474453861
 20
113.8188054156
 30
0.0
 10
307.7755117934
 20
114.2828027656
 30
0.0
 10
307.7357975033
 20
114.7453346493
 30
0.0
 10
307.7295931777
 20
115.1906657143
 30
0.0
 10
307.7570293625
 20
115.6036265618
 30
0.0
 10
307.8086168225
 20
115.9198820209
 30
0.0
 10
307.8678942146
 20
116.1445312668
 30
0.0
 10
307.9182327517
 20
116.2906875981
 30
0.0
 10
307.9755981252
 20
116.4193651517
 30
0.0
 10
308.039598739
 20
116.5295314175
 30
0.0
 10
308.1098435346
 20
116.6203090257
 30
0.0
 10
308.1860191321
 20
116.6908858619
 30
0.0
 10
308.2678156741
 20
116.7403321458
 30
0.0
 10
308.3545613754
 20
116.7675386434
 30
0.0
 10
308.4448766896
 20
116.7717064014
 30
0.0
 10
308.5371417083
 20
116.7529970725
 30
0.0
 10
308.6302356051
 20
116.7122673163
 30
0.0
 10
308.6891211424
 20
116.6731892921
 30
0.0
 10
308.7185358258
 20
116.6507548193
 30
0.0
  0
SPLINE
  5
42B
330
222
100
AcDbEntity
  8
7_ALL_FEATURES
  6
Continuous
 62
     9
100
AcDbSpline
 70
     0
 71
     3
 72
    13
 73
     9
 74
     0
 42
0.000000001
 43
0.0000001
 40
0.0
 40
0.0
 40
0.0
 40
0.0
 40
0.1158571344
 40
0.2383006876
 40
0.4952116513
 40
0.7545826032
 40
0.8800381964
 40
1.0
 40
1.0
 40
1.0
 40
1.0
 10
309.3922018205
 20
115.8069059851
 30
0.0
 10
309.4321202847
 20
115.7087448562
 30
0.0
 10
309.5071579438
 20
115.5039165561
 30
0.0
 10
309.6373533861
 20
115.0698822452
 30
0.0
 10
309.7590160381
 20
114.4973534514
 30
0.0
 10
309.8244006119
 20
113.912988664
 30
0.0
 10
309.8395200912
 20
113.4513525931
 30
0.0
 10
309.8342115216
 20
113.2267840966
 30
0.0
 10
309.8280835831
 20
113.1172336582
 30
0.0
  0
SPLINE
  5
42C
330
222
100
AcDbEntity
  8
7_ALL_FEATURES
  6
Continuous
 62
     9
100
AcDbSpline
 70
     0
 71
     3
 72
     9
 73
     5
 74
     0
 42
0.000000001
 43
0.0000001
 40
0.0
 40
0.0
 40
0.0
 40
0.0
 40
0.2528423312
 40
1.0
 40
1.0
 40
1.0
 40
1.0
 10
309.2686789123
 20
111.6777819042
 30
0.0
 10
309.2619757776
 20
111.6751057226
 30
0.0
 10
309.2351733664
 20
111.6652683195
 30
0.0
 10
309.2072208896
 20
111.658545645
 30
0.0
 10
309.1861189803
 20
111.655446346
 30
0.0
  0
SPLINE
  5
42D
330
222
100
AcDbEntity
  8
7_ALL_FEATURES
  6
Continuous
 62
     9
100
AcDbSpline
 70
     0
 71
     3
 72
    28
 73
    24
 74
     0
 42
0.000000001
 43
0.0000001
 40
0.0
 40
0.0
 40
0.0
 40
0.0
 40
0.0736471887
 40
0.1525663482
 40
0.2351388588
 40
0.3196114559
 40
0.4041632518
 40
0.4869710432
 40
0.5662742723
 40
0.6404437652
 40
0.7080593056
 40
0.7680064871
 40
0.819618394
 40
0.8422975116
 40
0.8629841638
 40
0.8818618209
 40
0.8992237323
 40
0.9154882288
 40
0.9311904033
 40
0.9469368936
 40
0.9633279536
 40
0.980882427
 40
1.0
 40
1.0
 40
1.0
 40
1.0
 10
309.2612224794
 20
115.8593597228
 30
0.0
 10
309.3082450742
 20
115.7523810625
 30
0.0
 10
309.3960290599
 20
115.5264682736
 30
0.0
 10
309.5063211611
 20
115.1697823426
 30
0.0
 10
309.5978445646
 20
114.7901348929
 30
0.0
 10
309.6682872725
 20
114.3969586942
 30
0.0
 10
309.7158936028
 20
113.9999909375
 30
0.0
 10
309.7394922269
 20
113.6090804102
 30
0.0
 10
309.738531399
 20
113.2338982579
 30
0.0
 10
309.7130927216
 20
112.8836972167
 30
0.0
 10
309.6638732074
 20
112.566952666
 30
0.0
 10
309.5921395128
 20
112.2913168593
 30
0.0
 10
309.5118023151
 20
112.092957808
 30
0.0
 10
309.4358095426
 20
111.9625303372
 30
0.0
 10
309.3767713797
 20
111.8830516481
 30
0.0
 10
309.3134938791
 20
111.8181446118
 30
0.0
 10
309.2462069981
 20
111.7683121853
 30
0.0
 10
309.1752296109
 20
111.7340965586
 30
0.0
 10
309.101097615
 20
111.7160465117
 30
0.0
 10
309.0246225629
 20
111.7144535697
 30
0.0
 10
308.9466458988
 20
111.7292020106
 30
0.0
 10
308.8678177377
 20
111.7598864828
 30
0.0
 10
308.817347787
 20
111.7893034472
 30
0.0
 10
308.7921382057
 20
111.8061745905
 30
0.0
  0
SPLINE
  5
42E
330
222
100
AcDbEntity
  8
02___PRT_ALL_AXES
  6
Continuous
 62
     7
100
AcDbSpline
 70
     0
 71
     3
 72
    12
 73
     8
 74
     0
 42
0.000000001
 43
0.0000001
 40
0.0
 40
0.0
 40
0.0
 40
0.0
 40
0.0615885743
 40
0.1395428293
 40
0.3504155549
 40
0.6396476064
 40
1.0
 40
1.0
 40
1.0
 40
1.0
 10
326.0678541945
 20
88.10522989
 30
0.0
 10
326.0608393174
 20
88.1214146969
 30
0.0
 10
326.0476435163
 20
88.1592455371
 30
0.0
 10
326.0229902204
 20
88.2566030106
 30
0.0
 10
325.9983969104
 20
88.4206631522
 30
0.0
 10
325.9788870378
 20
88.666403172
 30
0.0
 10
325.9736409662
 20
88.8524692455
 30
0.0
 10
325.9726082163
 20
88.955672867
 30
0.0
  0
SPLINE
  5
42F
330
222
100
AcDbEntity
  8
02___PRT_ALL_AXES
  6
Continuous
 62
     7
100
AcDbSpline
 70
     0
 71
     3
 72
    11
 73
     7
 74
     0
 42
0.000000001
 43
0.0000001
 40
0.0
 40
0.0
 40
0.0
 40
0.0
 40
0.2554424656
 40
0.5078710057
 40
0.7560411252
 40
1.0
 40
1.0
 40
1.0
 40
1.0
 10
326.0678432312
 20
88.1052879044
 30
0.0
 10
326.1364253231
 20
87.9469525336
 30
0.0
 10
326.2951664036
 20
87.6413340383
 30
0.0
 10
326.5910089991
 20
87.2232823775
 30
0.0
 10
326.9326355053
 20
86.8524293786
 30
0.0
 10
327.1862323022
 20
86.6361884535
 30
0.0
 10
327.3172639786
 20
86.5362510675
 30
0.0
  0
SPLINE
  5
430
330
222
100
AcDbEntity
  8
02___PRT_ALL_AXES
  6
Continuous
 62
     7
100
AcDbSpline
 70
     0
 71
     3
 72
    16
 73
    12
 74
     0
 42
0.000000001
 43
0.0000001
 40
0.0
 40
0.0
 40
0.0
 40
0.0
 40
0.0237889958
 40
0.052698849
 40
0.125792404
 40
0.2195399368
 40
0.3349213746
 40
0.4733455079
 40
0.6352379268
 40
0.8161665403
 40
1.0
 40
1.0
 40
1.0
 40
1.0
 10
338.8710746436
 20
87.6794302714
 30
0.0
 10
338.8814864129
 20
87.6963922415
 30
0.0
 10
338.9017118158
 20
87.7356978135
 30
0.0
 10
338.9416582855
 20
87.8331301792
 30
0.0
 10
338.9894677537
 20
87.9900762884
 30
0.0
 10
339.0429436737
 20
88.2201326772
 30
0.0
 10
339.0942778321
 20
88.5064603022
 30
0.0
 10
339.1413693641
 20
88.8511241808
 30
0.0
 10
339.1807151288
 20
89.2519214248
 30
0.0
 10
339.2072574552
 20
89.6918336085
 30
0.0
 10
339.2132353682
 20
89.9970801682
 30
0.0
 10
339.2121340996
 20
90.1508768859
 30
0.0
  0
SPLINE
  5
431
330
222
100
AcDbEntity
  8
02___PRT_ALL_AXES
  6
Continuous
 62
     7
100
AcDbSpline
 70
     0
 71
     3
 72
    20
 73
    16
 74
     0
 42
0.000000001
 43
0.0000001
 40
0.0
 40
0.0
 40
0.0
 40
0.0
 40
0.2383406652
 40
0.3026968631
 40
0.3691402669
 40
0.4368072116
 40
0.5045576945
 40
0.5712346281
 40
0.6359178228
 40
0.6981790048
 40
0.7582846053
 40
0.8172873449
 40
0.8766596029
 40
0.9375008394
 40
1.0
 40
1.0
 40
1.0
 40
1.0
 10
327.3172639786
 20
86.5362510675
 30
0.0
 10
328.1102410578
 20
85.9314503152
 30
0.0
 10
329.3688953056
 20
85.5020939627
 30
0.0
 10
330.8906032022
 20
85.2661328376
 30
0.0
 10
331.7192595429
 20
85.1930724123
 30
0.0
 10
332.5638762097
 20
85.1705351068
 30
0.0
 10
333.4096190419
 20
85.1981329286
 30
0.0
 10
334.2396609219
 20
85.2758124782
 30
0.0
 10
335.0403089239
 20
85.403822771
 30
0.0
 10
335.8027612682
 20
85.5842076037
 30
0.0
 10
336.5242984523
 20
85.8231592152
 30
0.0
 10
337.2055643811
 20
86.1333826344
 30
0.0
 10
337.8426536325
 20
86.5342482704
 30
0.0
 10
338.4175011039
 20
87.0440123586
 30
0.0
 10
338.7342570862
 20
87.456748099
 30
0.0
 10
338.8711498011
 20
87.6795740373
 30
0.0
  0
SPLINE
  5
432
330
222
100
AcDbEntity
  8
02___PRT_ALL_AXES
  6
Continuous
 62
     7
100
AcDbSpline
 70
     0
 71
     3
 72
     9
 73
     5
 74
     0
 42
0.000000001
 43
0.0000001
 40
0.0
 40
0.0
 40
0.0
 40
0.0
 40
0.2375331166
 40
1.0
 40
1.0
 40
1.0
 40
1.0
 10
339.2119986529
 20
90.1697925846
 30
0.0
 10
339.2247453484
 20
90.2420919555
 30
0.0
 10
339.2767933011
 20
90.5467528032
 30
0.0
 10
339.3234944236
 20
90.8523067322
 30
0.0
 10
339.3573603876
 20
91.0855164435
 30
0.0
  0
SPLINE
  5
433
330
222
100
AcDbEntity
  8
02___PRT_ALL_AXES
  6
Continuous
 62
     7
100
AcDbSpline
 70
     0
 71
     3
 72
     9
 73
     5
 74
     0
 42
0.000000001
 43
0.0000001
 40
0.0
 40
0.0
 40
0.0
 40
0.0
 40
0.2964868049
 40
1.0
 40
1.0
 40
1.0
 40
1.0
 10
338.4780583237
 20
88.6778835092
 30
0.0
 10
338.4898371109
 20
88.6639652102
 30
0.0
 10
338.5309756603
 20
88.619306116
 30
0.0
 10
338.5875633056
 20
88.5815406573
 30
0.0
 10
338.6306916088
 20
88.5781052204
 30
0.0
  0
SPLINE
  5
434
330
222
100
AcDbEntity
  8
02___PRT_ALL_AXES
  6
Continuous
 62
     7
100
AcDbSpline
 70
     0
 71
     3
 72
     9
 73
     5
 74
     0
 42
0.000000001
 43
0.0000001
 40
0.0
 40
0.0
 40
0.0
 40
0.0
 40
0.4679763338
 40
1.0
 40
1.0
 40
1.0
 40
1.0
 10
326.2007682937
 20
88.7576345251
 30
0.0
 10
326.2881580084
 20
88.6813636253
 30
0.0
 10
326.4883387259
 20
88.5336686408
 30
0.0
 10
326.7040051946
 20
88.4106297304
 30
0.0
 10
326.8212600849
 20
88.3502956409
 30
0.0
  0
SPLINE
  5
435
330
222
100
AcDbEntity
  8
02___PRT_ALL_AXES
  6
Continuous
 62
     7
100
AcDbSpline
 70
     0
 71
     3
 72
    21
 73
    17
 74
     0
 42
0.000000001
 43
0.0000001
 40
0.0
 40
0.0
 40
0.0
 40
0.0
 40
0.2754349947
 40
0.5011706201
 40
0.5928390385
 40
0.6705036821
 40
0.7348723879
 40
0.7869324008
 40
0.8278765228
 40
0.8591429422
 40
0.8826782565
 40
0.9014606349
 40
0.9196738972
 40
0.9410578559
 40
0.9675729173
 40
1.0
 40
1.0
 40
1.0
 40
1.0
 10
338.6308270555
 20
88.5591895217
 30
0.0
 10
338.6315437069
 20
88.4591061822
 30
0.0
 10
338.6360595611
 20
88.2770005919
 30
0.0
 10
338.6513773177
 20
88.0619887116
 30
0.0
 10
338.6691496174
 20
87.9195020059
 30
0.0
 10
338.683201995
 20
87.8357206444
 30
0.0
 10
338.6985802973
 20
87.7668429772
 30
0.0
 10
338.7150210223
 20
87.7120082843
 30
0.0
 10
338.7323050005
 20
87.6701628647
 30
0.0
 10
338.7503878133
 20
87.6402377273
 30
0.0
 10
338.769536992
 20
87.6209451304
 30
0.0
 10
338.7908959096
 20
87.6126240452
 30
0.0
 10
338.8126478219
 20
87.6165078497
 30
0.0
 10
338.8329412678
 20
87.6300749441
 30
0.0
 10
338.8528594971
 20
87.6516032176
 30
0.0
 10
338.8649104472
 20
87.6693880863
 30
0.0
 10
338.8710746436
 20
87.6794302714
 30
0.0
  0
SPLINE
  5
436
330
222
100
AcDbEntity
  8
02___PRT_ALL_AXES
  6
Continuous
 62
     7
100
AcDbSpline
 70
     0
 71
     3
 72
     9
 73
     5
 74
     0
 42
0.000000001
 43
0.0000001
 40
0.0
 40
0.0
 40
0.0
 40
0.0
 40
0.2490737817
 40
1.0
 40
1.0
 40
1.0
 40
1.0
 10
331.709198234
 20
87.6839217548
 30
0.0
 10
331.8027846837
 20
87.6497298695
 30
0.0
 10
332.1803842093
 20
87.5177078534
 30
0.0
 10
332.5663669946
 20
87.4088131636
 30
0.0
 10
332.8598156205
 20
87.344597246
 30
0.0
  0
SPLINE
  5
437
330
222
100
AcDbEntity
  8
02___PRT_ALL_AXES
  6
Continuous
 62
     7
100
AcDbSpline
 70
     0
 71
     3
 72
     9
 73
     5
 74
     0
 42
0.000000001
 43
0.0000001
 40
0.0
 40
0.0
 40
0.0
 40
0.0
 40
0.2488749314
 40
1.0
 40
1.0
 40
1.0
 40
1.0
 10
337.3347124875
 20
88.0017058702
 30
0.0
 10
337.4327317636
 20
88.0521310568
 30
0.0
 10
337.8231799033
 20
88.2613515942
 30
0.0
 10
338.2007595807
 20
88.4940848544
 30
0.0
 10
338.4780583237
 20
88.6778835092
 30
0.0
  0
SPLINE
  5
438
330
222
100
AcDbEntity
  8
02___PRT_ALL_AXES
  6
Continuous
 62
     7
100
AcDbSpline
 70
     0
 71
     3
 72
    22
 73
    18
 74
     0
 42
0.000000001
 43
0.0000001
 40
0.0
 40
0.0
 40
0.0
 40
0.0
 40
0.0615814186
 40
0.1207679574
 40
0.1790013603
 40
0.2373865514
 40
0.2964604887
 40
0.3564165074
 40
0.4173003972
 40
0.479116181
 40
0.6053815972
 40
0.6700481453
 40
0.7356700864
 40
0.8021275353
 40
0.8690345789
 40
0.9354767388
 40
1.0
 40
1.0
 40
1.0
 40
1.0
 10
332.8599510673
 20
87.3256815474
 30
0.0
 10
332.8608362294
 20
87.2020649868
 30
0.0
 10
332.9049210354
 20
86.9573722272
 30
0.0
 10
333.0917078915
 20
86.6427576842
 30
0.0
 10
333.358280551
 20
86.4047784424
 30
0.0
 10
333.6721853304
 20
86.2383550685
 30
0.0
 10
334.0141029582
 20
86.132903794
 30
0.0
 10
334.3724441476
 20
86.0796026165
 30
0.0
 10
334.7399505677
 20
86.0721595948
 30
0.0
 10
335.2382835176
 20
86.1186464956
 30
0.0
 10
335.7341511505
 20
86.2465643442
 30
0.0
 10
336.2054092073
 20
86.4566332506
 30
0.0
 10
336.5439968946
 20
86.6624319185
 30
0.0
 10
336.8521817917
 20
86.9192860155
 30
0.0
 10
337.1104532086
 20
87.2298496501
 30
0.0
 10
337.2902258166
 20
87.5887226883
 30
0.0
 10
337.335775382
 20
87.8532682509
 30
0.0
 10
337.3348479343
 20
87.9827901715
 30
0.0
  0
SPLINE
  5
439
330
222
100
AcDbEntity
  8
02___PRT_ALL_AXES
  6
Continuous
 62
     7
100
AcDbSpline
 70
     0
 71
     3
 72
     9
 73
     5
 74
     0
 42
0.000000001
 43
0.0000001
 40
0.0
 40
0.0
 40
0.0
 40
0.0
 40
0.2527021357
 40
1.0
 40
1.0
 40
1.0
 40
1.0
 10
325.8196402082
 20
89.0975929347
 30
0.0
 10
325.9007902106
 20
89.0305026519
 30
0.0
 10
326.2247362154
 20
88.7684869729
 30
0.0
 10
326.5612627775
 20
88.5216269539
 30
0.0
 10
326.8212600849
 20
88.3502956409
 30
0.0
  0
SPLINE
  5
43A
330
222
100
AcDbEntity
  8
02___PRT_ALL_AXES
  6
Continuous
 62
     7
100
AcDbSpline
 70
     0
 71
     3
 72
     9
 73
     5
 74
     0
 42
0.000000001
 43
0.0000001
 40
0.0
 40
0.0
 40
0.0
 40
0.0
 40
0.2511991752
 40
1.0
 40
1.0
 40
1.0
 40
1.0
 10
330.7148499077
 20
87.4157169009
 30
0.0
 10
330.7997530233
 20
87.4311222585
 30
0.0
 10
331.1363017045
 20
87.5003729279
 30
0.0
 10
331.4665446424
 20
87.5985892043
 30
0.0
 10
331.709198234
 20
87.6839217548
 30
0.0
  0
SPLINE
  5
43B
330
222
100
AcDbEntity
  8
02___PRT_ALL_AXES
  6
Continuous
 62
     7
100
AcDbSpline
 70
     0
 71
     3
 72
    20
 73
    16
 74
     0
 42
0.000000001
 43
0.0000001
 40
0.0
 40
0.0
 40
0.0
 40
0.0
 40
0.0703666098
 40
0.1426265988
 40
0.2140561482
 40
0.283376646
 40
0.4145836636
 40
0.5373354004
 40
0.653046148
 40
0.7088668198
 40
0.7637294178
 40
0.8184656148
 40
0.8746292488
 40
0.9345143741
 40
1.0
 40
1.0
 40
1.0
 40
1.0
 10
326.8213955316
 20
88.3313799422
 30
0.0
 10
326.8223309562
 20
88.2007440175
 30
0.0
 10
326.865412859
 20
87.9353778443
 30
0.0
 10
327.024282438
 20
87.5678563794
 30
0.0
 10
327.2514377386
 20
87.2413616394
 30
0.0
 10
327.6056029153
 20
86.8791015615
 30
0.0
 10
328.1109082821
 20
86.5419703154
 30
0.0
 10
328.7590128805
 20
86.3011917186
 30
0.0
 10
329.3080641817
 20
86.2330434419
 30
0.0
 10
329.7280019464
 20
86.2747391801
 30
0.0
 10
330.0252801822
 20
86.3595262045
 30
0.0
 10
330.2981060093
 20
86.5085396319
 30
0.0
 10
330.5278142546
 20
86.7341389697
 30
0.0
 10
330.6834971455
 20
87.0399425403
 30
0.0
 10
330.7158558933
 20
87.2752268458
 30
0.0
 10
330.7149853545
 20
87.3968012022
 30
0.0
  0
SPLINE
  5
43C
330
222
100
AcDbEntity
  8
02___PRT_ALL_AXES
  6
Continuous
 62
     9
100
AcDbSpline
 70
     0
 71
     3
 72
     9
 73
     5
 74
     0
 42
0.000000001
 43
0.0000001
 40
0.0
 40
0.0
 40
0.0
 40
0.0
 40
0.256386482
 40
1.0
 40
1.0
 40
1.0
 40
1.0
 10
326.3177774623
 20
88.6435205019
 30
0.0
 10
326.3064767656
 20
88.6521395024
 30
0.0
 10
326.2626876519
 20
88.6861310462
 30
0.0
 10
326.2200783039
 20
88.7216517993
 30
0.0
 10
326.189226248
 20
88.7489892236
 30
0.0
  0
SPLINE
  5
43D
330
222
100
AcDbEntity
  8
02___PRT_ALL_AXES
  6
Continuous
 62
     9
100
AcDbSpline
 70
     0
 71
     3
 72
     9
 73
     5
 74
     0
 42
0.000000001
 43
0.0000001
 40
0.0
 40
0.0
 40
0.0
 40
0.0
 40
0.2578498511
 40
1.0
 40
1.0
 40
1.0
 40
1.0
 10
326.189226248
 20
88.7489892236
 30
0.0
 10
326.1773591527
 20
88.7595044326
 30
0.0
 10
326.1318133075
 20
88.8008175463
 30
0.0
 10
326.0882377637
 20
88.8443251483
 30
0.0
 10
326.0573509597
 20
88.877920227
 30
0.0
  0
SPLINE
  5
43E
330
222
100
AcDbEntity
  8
02___PRT_ALL_AXES
  6
Continuous
 62
     7
100
AcDbSpline
 70
     0
 71
     3
 72
     9
 73
     5
 74
     0
 42
0.000000001
 43
0.0000001
 40
0.0
 40
0.0
 40
0.0
 40
0.0
 40
0.5394698218
 40
1.0
 40
1.0
 40
1.0
 40
1.0
 10
337.3347124875
 20
88.0017058702
 30
0.0
 10
337.5777937238
 20
88.0804927836
 30
0.0
 10
338.0226104862
 20
88.2454158061
 30
0.0
 10
338.4462120898
 20
88.461692027
 30
0.0
 10
338.6306916088
 20
88.5781052204
 30
0.0
  0
SPLINE
  5
43F
330
222
100
AcDbEntity
  8
02___PRT_ALL_AXES
  6
Continuous
 62
     9
100
AcDbSpline
 70
     0
 71
     3
 72
     9
 73
     5
 74
     0
 42
0.000000001
 43
0.0000001
 40
0.0
 40
0.0
 40
0.0
 40
0.0
 40
0.2319371284
 40
1.0
 40
1.0
 40
1.0
 40
1.0
 10
326.3177774623
 20
88.6435205019
 30
0.0
 10
326.3542281743
 20
88.6157196756
 30
0.0
 10
326.5146838103
 20
88.5001815606
 30
0.0
 10
326.6864090971
 20
88.4008378864
 30
0.0
 10
326.8213955316
 20
88.3313799422
 30
0.0
  0
SPLINE
  5
440
330
222
100
AcDbEntity
  8
02___PRT_ALL_AXES
  6
Continuous
 62
     9
100
AcDbSpline
 70
     0
 71
     3
 72
     9
 73
     5
 74
     0
 42
0.000000001
 43
0.0000001
 40
0.0
 40
0.0
 40
0.0
 40
0.0
 40
0.5394698218
 40
1.0
 40
1.0
 40
1.0
 40
1.0
 10
337.3348479343
 20
87.9827901715
 30
0.0
 10
337.5779291706
 20
88.0615770849
 30
0.0
 10
338.0227459329
 20
88.2265001074
 30
0.0
 10
338.4463475366
 20
88.4427763283
 30
0.0
 10
338.6308270555
 20
88.5591895217
 30
0.0
  0
SPLINE
  5
441
330
222
100
AcDbEntity
  8
7_ALL_FEATURES
  6
Continuous
 62
     7
100
AcDbSpline
 70
     0
 71
     3
 72
    14
 73
    10
 74
     0
 42
0.000000001
 43
0.0000001
 40
0.0
 40
0.0
 40
0.0
 40
0.0
 40
0.3092359073
 40
0.4513920932
 40
0.5836993365
 40
0.7052239067
 40
0.8152835746
 40
0.91351715
 40
1.0
 40
1.0
 40
1.0
 40
1.0
 10
323.1681416389
 20
157.1900351996
 30
0.0
 10
321.8039347085
 20
156.9897105532
 30
0.0
 10
319.8212587803
 20
156.6249113015
 30
0.0
 10
317.30073922
 20
155.972858387
 30
0.0
 10
315.6163348816
 20
155.4400913275
 30
0.0
 10
314.1014723708
 20
154.8555556902
 30
0.0
 10
312.7709830566
 20
154.2250126515
 30
0.0
 10
311.6379797619
 20
153.5548700837
 30
0.0
 10
310.9802449853
 20
153.0541188218
 30
0.0
 10
310.6933790414
 20
152.7964248997
 30
0.0
  0
SPLINE
  5
442
330
222
100
AcDbEntity
  8
7_ALL_FEATURES
  6
Continuous
 62
     7
100
AcDbSpline
 70
     0
 71
     3
 72
    19
 73
    15
 74
     0
 42
0.000000001
 43
0.0000001
 40
0.0
 40
0.0
 40
0.0
 40
0.0
 40
0.0366908576
 40
0.0783332689
 40
0.1249628178
 40
0.176429623
 40
0.2324502453
 40
0.2926413904
 40
0.4235898615
 40
0.4932741721
 40
0.5649502324
 40
0.7116681913
 40
0.8584525043
 40
1.0
 40
1.0
 40
1.0
 40
1.0
 10
353.5828627183
 20
153.1040270583
 30
0.0
 10
353.2943807238
 20
153.3557798781
 30
0.0
 10
352.6347517182
 20
153.8436155489
 30
0.0
 10
351.5019656919
 20
154.4935625571
 30
0.0
 10
350.1746935961
 20
155.1016662816
 30
0.0
 10
348.6658857558
 20
155.6618839517
 30
0.0
 10
346.9901043987
 20
156.1688114184
 30
0.0
 10
344.484296011
 20
156.7837318257
 30
0.0
 10
341.7977315906
 20
157.2440564076
 30
0.0
 10
338.9741957064
 20
157.5675735157
 30
0.0
 10
335.9764944262
 20
157.8017255696
 30
0.0
 10
332.1638978494
 20
157.9024141466
 30
0.0
 10
327.6244515933
 20
157.7253169952
 30
0.0
 10
324.6295807781
 20
157.4046377471
 30
0.0
 10
323.1681416389
 20
157.1900351996
 30
0.0
  0
SPLINE
  5
443
330
222
100
AcDbEntity
  8
7_ALL_FEATURES
  6
Continuous
 62
     7
100
AcDbSpline
 70
     0
 71
     3
 72
    11
 73
     7
 74
     0
 42
0.000000001
 43
0.0000001
 40
0.0
 40
0.0
 40
0.0
 40
0.0
 40
0.2898813989
 40
0.5475323631
 40
0.7805484508
 40
1.0
 40
1.0
 40
1.0
 40
1.0
 10
310.3443954864
 20
152.4829398625
 30
0.0
 10
310.1202457914
 20
152.2816110861
 30
0.0
 10
309.7197716527
 20
151.8738444988
 30
0.0
 10
309.2548891257
 20
151.2029947524
 30
0.0
 10
308.9712424858
 20
150.5144212809
 30
0.0
 10
308.9086200127
 20
150.0415760013
 30
0.0
 10
308.9102728116
 20
149.8134928068
 30
0.0
  0
SPLINE
  5
444
330
222
100
AcDbEntity
  8
7_ALL_FEATURES
  6
Continuous
 62
     7
100
AcDbSpline
 70
     0
 71
     3
 72
    11
 73
     7
 74
     0
 42
0.000000001
 43
0.0000001
 40
0.0
 40
0.0
 40
0.0
 40
0.0
 40
0.2194521564
 40
0.4524728741
 40
0.7101161176
 40
1.0
 40
1.0
 40
1.0
 40
1.0
 10
355.4090596926
 20
150.1465202716
 30
0.0
 10
355.4074069917
 20
150.3745899579
 30
0.0
 10
355.3381001112
 20
150.8464748585
 30
0.0
 10
355.0445336714
 20
151.5308312588
 30
0.0
 10
354.5702247212
 20
152.1949772782
 30
0.0
 10
354.1639331808
 20
152.5968970874
 30
0.0
 10
353.9369514514
 20
152.795003012
 30
0.0
  0
SPLINE
  5
445
330
222
100
AcDbEntity
  8
7_ALL_FEATURES
  6
Continuous
 62
     7
100
AcDbSpline
 70
     0
 71
     3
 72
     9
 73
     5
 74
     0
 42
0.000000001
 43
0.0000001
 40
0.0
 40
0.0
 40
0.0
 40
0.0
 40
0.2580371271
 40
1.0
 40
1.0
 40
1.0
 40
1.0
 10
353.7003838661
 20
147.944454019
 30
0.0
 10
353.739932463
 20
147.9811203822
 30
0.0
 10
353.8914747957
 20
148.1250560811
 30
0.0
 10
354.0358903916
 20
148.2765767727
 30
0.0
 10
354.1377750499
 20
148.3934830564
 30
0.0
  0
SPLINE
  5
446
330
222
100
AcDbEntity
  8
7_ALL_FEATURES
  6
Continuous
 62
     7
100
AcDbSpline
 70
     0
 71
     3
 72
     9
 73
     5
 74
     0
 42
0.000000001
 43
0.0000001
 40
0.0
 40
0.0
 40
0.0
 40
0.0
 40
0.2563429111
 40
1.0
 40
1.0
 40
1.0
 40
1.0
 10
354.1377750499
 20
148.3934830564
 30
0.0
 10
354.1641274633
 20
148.4237208054
 30
0.0
 10
354.2655595282
 20
148.5428605425
 30
0.0
 10
354.3613624772
 20
148.6668307708
 30
0.0
 10
354.4286949172
 20
148.7617289793
 30
0.0
  0
SPLINE
  5
447
330
222
100
AcDbEntity
  8
7_ALL_FEATURES
  6
Continuous
 62
     7
100
AcDbSpline
 70
     0
 71
     3
 72
    14
 73
    10
 74
     0
 42
0.000000001
 43
0.0000001
 40
0.0
 40
0.0
 40
0.0
 40
0.0
 40
0.2524730749
 40
0.3685973205
 40
0.4828479583
 40
0.599489197
 40
0.722499484
 40
0.8551722022
 40
1.0
 40
1.0
 40
1.0
 40
1.0
 10
354.4286949172
 20
148.7617289793
 30
0.0
 10
354.6453025202
 20
149.0670153093
 30
0.0
 10
354.9066510337
 20
149.5630497221
 30
0.0
 10
355.040555223
 20
150.2706901858
 30
0.0
 10
355.0301689558
 20
150.7889145826
 30
0.0
 10
354.9116420701
 20
151.3036122313
 30
0.0
 10
354.687026154
 20
151.8110842573
 30
0.0
 10
354.3593823715
 20
152.3089694763
 30
0.0
 10
354.0867292651
 20
152.6188047823
 30
0.0
 10
353.9361829974
 20
152.7719161812
 30
0.0
  0
SPLINE
  5
448
330
222
100
AcDbEntity
  8
7_ALL_FEATURES
  6
Continuous
 62
     7
100
AcDbSpline
 70
     0
 71
     3
 72
     9
 73
     5
 74
     0
 42
0.000000001
 43
0.0000001
 40
0.0
 40
0.0
 40
0.0
 40
0.0
 40
0.2440747321
 40
1.0
 40
1.0
 40
1.0
 40
1.0
 10
353.9361829974
 20
152.7719161812
 30
0.0
 10
353.9085197189
 20
152.8000508094
 30
0.0
 10
353.7940005862
 20
152.9141582737
 30
0.0
 10
353.6749339984
 20
153.023678181
 30
0.0
 10
353.5828627183
 20
153.1040270583
 30
0.0
  0
SPLINE
  5
449
330
222
100
AcDbEntity
  8
7_ALL_FEATURES
  6
Continuous
 62
     7
100
AcDbSpline
 70
     0
 71
     3
 72
    14
 73
    10
 74
     0
 42
0.000000001
 43
0.0000001
 40
0.0
 40
0.0
 40
0.0
 40
0.0
 40
0.1448171116
 40
0.2773445699
 40
0.4001101141
 40
0.5165007228
 40
0.6305855489
 40
0.7467239459
 40
1.0
 40
1.0
 40
1.0
 40
1.0
 10
310.3551121717
 20
152.4699418036
 30
0.0
 10
310.2044552882
 20
152.313015337
 30
0.0
 10
309.932271933
 20
151.9958565952
 30
0.0
 10
309.6074428562
 20
151.4874372927
 30
0.0
 10
309.3884356313
 20
150.9705420706
 30
0.0
 10
309.2779724591
 20
150.4478582207
 30
0.0
 10
309.2786310356
 20
149.9232142261
 30
0.0
 10
309.4310509501
 20
149.2085295846
 30
0.0
 10
309.7092492274
 20
148.7116738242
 30
0.0
 10
309.9369970324
 20
148.4069068129
 30
0.0
  0
SPLINE
  5
44A
330
222
100
AcDbEntity
  8
7_ALL_FEATURES
  6
Continuous
 62
     7
100
AcDbSpline
 70
     0
 71
     3
 72
     9
 73
     5
 74
     0
 42
0.000000001
 43
0.0000001
 40
0.0
 40
0.0
 40
0.0
 40
0.0
 40
0.2446836127
 40
1.0
 40
1.0
 40
1.0
 40
1.0
 10
309.9369970324
 20
148.4069068129
 30
0.0
 10
309.9567363809
 20
148.3804920589
 30
0.0
 10
310.0386374335
 20
148.2734580763
 30
0.0
 10
310.1253076887
 20
148.1700936484
 30
0.0
 10
310.1929873362
 20
148.0940598593
 30
0.0
  0
SPLINE
  5
44B
330
222
100
AcDbEntity
  8
7_ALL_FEATURES
  6
Continuous
 62
     7
100
AcDbSpline
 70
     0
 71
     3
 72
     9
 73
     5
 74
     0
 42
0.000000001
 43
0.0000001
 40
0.0
 40
0.0
 40
0.0
 40
0.0
 40
0.2409740696
 40
1.0
 40
1.0
 40
1.0
 40
1.0
 10
310.1929873362
 20
148.0940598593
 30
0.0
 10
310.2318510679
 20
148.0503989231
 30
0.0
 10
310.3962060524
 20
147.8719606204
 30
0.0
 10
310.5721519172
 20
147.7043318517
 30
0.0
 10
310.7103839968
 20
147.5827177733
 30
0.0
  0
SPLINE
  5
44C
330
222
100
AcDbEntity
  8
7_ALL_FEATURES
  6
Continuous
 62
     7
100
AcDbSpline
 70
     0
 71
     3
 72
    13
 73
     9
 74
     0
 42
0.000000001
 43
0.0000001
 40
0.0
 40
0.0
 40
0.0
 40
0.0
 40
0.0892271669
 40
0.1895187861
 40
0.3008055004
 40
0.4226822112
 40
0.695254812
 40
1.0
 40
1.0
 40
1.0
 40
1.0
 10
354.2343807532
 20
148.3163381556
 30
0.0
 10
353.9201797466
 20
148.0652342605
 30
0.0
 10
353.2155944259
 20
147.5779905802
 30
0.0
 10
352.0262760859
 20
146.9233694124
 30
0.0
 10
350.653364374
 20
146.3078574477
 30
0.0
 10
348.513524954
 20
145.5176247461
 30
0.0
 10
345.4671726327
 20
144.6867639956
 30
0.0
 10
342.9044116157
 20
144.2187850437
 30
0.0
 10
341.5452738554
 20
144.0192047737
 30
0.0
  0
SPLINE
  5
44D
330
222
100
AcDbEntity
  8
02___PRT_ALL_AXES
  6
Continuous
 62
     7
100
AcDbSpline
 70
     0
 71
     3
 72
    19
 73
    15
 74
     0
 42
0.000000001
 43
0.0000001
 40
0.0
 40
0.0
 40
0.0
 40
0.0
 40
0.1832245335
 40
0.3529466253
 40
0.5063631803
 40
0.6413038402
 40
0.7014439363
 40
0.7566052757
 40
0.8068596103
 40
0.8524297376
 40
0.8937250789
 40
0.9314047059
 40
0.9664167161
 40
1.0
 40
1.0
 40
1.0
 40
1.0
 10
349.8495161368
 20
135.5722344541
 30
0.0
 10
351.8044449896
 20
135.8593026586
 30
0.0
 10
355.5565577109
 20
136.5131383219
 30
0.0
 10
360.8712127624
 20
137.785468862
 30
0.0
 10
365.5815103476
 20
139.2903239856
 30
0.0
 10
369.0485062793
 20
140.7626390488
 30
0.0
 10
371.4210498307
 20
142.0526857208
 30
0.0
 10
372.9237403517
 20
143.0203453369
 30
0.0
 10
374.2114244848
 20
144.0209761967
 30
0.0
 10
375.2777947043
 20
145.050335336
 30
0.0
 10
376.1168952105
 20
146.104951636
 30
0.0
 10
376.7229284349
 20
147.1816956414
 30
0.0
 10
377.0884778093
 20
148.2758712021
 30
0.0
 10
377.1676605982
 20
149.0185688274
 30
0.0
 10
377.1650927786
 20
149.3807218749
 30
0.0
  0
SPLINE
  5
44E
330
222
100
AcDbEntity
  8
7_ALL_FEATURES
  6
Continuous
 62
     7
100
AcDbSpline
 70
     0
 71
     3
 72
    11
 73
     7
 74
     0
 42
0.000000001
 43
0.0000001
 40
0.0
 40
0.0
 40
0.0
 40
0.0
 40
0.282553654
 40
0.5384737624
 40
0.7745849637
 40
1.0
 40
1.0
 40
1.0
 40
1.0
 10
309.7569723823
 20
148.3149540848
 30
0.0
 10
309.5804038398
 20
148.493911375
 30
0.0
 10
309.2645391444
 20
148.8567769314
 30
0.0
 10
308.900767997
 20
149.4464486638
 30
0.0
 10
308.6769634432
 20
150.0492299954
 30
0.0
 10
308.6244078124
 20
150.4609835896
 30
0.0
 10
308.6229701909
 20
150.6615400998
 30
0.0
  0
SPLINE
  5
44F
330
222
100
AcDbEntity
  8
02___PRT_ALL_AXES
  6
Continuous
 62
     7
100
AcDbSpline
 70
     0
 71
     3
 72
     9
 73
     5
 74
     0
 42
0.000000001
 43
0.0000001
 40
0.0
 40
0.0
 40
0.0
 40
0.0
 40
0.4665635223
 40
1.0
 40
1.0
 40
1.0
 40
1.0
 10
357.6354071725
 20
147.4888995134
 30
0.0
 10
357.6358460316
 20
147.4301769476
 30
0.0
 10
357.6661369618
 20
147.3037353261
 30
0.0
 10
357.7399433943
 20
147.1989869994
 30
0.0
 10
357.7845787069
 20
147.1488309508
 30
0.0
  0
SPLINE
  5
450
330
222
100
AcDbEntity
  8
02___PRT_ALL_AXES
  6
Continuous
 62
     7
100
AcDbSpline
 70
     0
 71
     3
 72
    13
 73
     9
 74
     0
 42
0.000000001
 43
0.0000001
 40
0.0
 40
0.0
 40
0.0
 40
0.0
 40
0.0730098329
 40
0.1671998903
 40
0.2815098789
 40
0.4125660203
 40
0.7050754946
 40
1.0
 40
1.0
 40
1.0
 40
1.0
 10
357.7845787069
 20
147.1488309508
 30
0.0
 10
357.8695479846
 20
147.0533522151
 30
0.0
 10
358.1098115614
 20
146.8770483587
 30
0.0
 10
358.5602583751
 20
146.6742507492
 30
0.0
 10
359.131891834
 20
146.5053231838
 30
0.0
 10
360.0582393454
 20
146.3306895732
 30
0.0
 10
361.3180686988
 20
146.2500792541
 30
0.0
 10
362.348081665
 20
146.3170932866
 30
0.0
 10
362.8589033944
 20
146.3921040352
 30
0.0
  0
SPLINE
  5
451
330
222
100
AcDbEntity
  8
02___PRT_ALL_AXES
  6
Continuous
 62
     7
100
AcDbSpline
 70
     0
 71
     3
 72
    11
 73
     7
 74
     0
 42
0.000000001
 43
0.0000001
 40
0.0
 40
0.0
 40
0.0
 40
0.0
 40
0.3192052374
 40
0.5976101991
 40
0.8255995396
 40
1.0
 40
1.0
 40
1.0
 40
1.0
 10
304.3903938487
 20
153.7283699912
 30
0.0
 10
304.6351677325
 20
153.7643133961
 30
0.0
 10
305.0910370581
 20
153.8497761133
 30
0.0
 10
305.7063703095
 20
154.0319090164
 30
0.0
 10
306.1878779209
 20
154.2505582775
 30
0.0
 10
306.4423917608
 20
154.4416225529
 30
0.0
 10
306.5294672101
 20
154.5450071274
 30
0.0
  0
SPLINE
  5
452
330
222
100
AcDbEntity
  8
02___PRT_ALL_AXES
  6
Continuous
 62
     7
100
AcDbSpline
 70
     0
 71
     3
 72
     9
 73
     5
 74
     0
 42
0.000000001
 43
0.0000001
 40
0.0
 40
0.0
 40
0.0
 40
0.0
 40
0.2588557205
 40
1.0
 40
1.0
 40
1.0
 40
1.0
 10
306.5294672101
 20
154.5450071274
 30
0.0
 10
306.535351243
 20
154.5519932325
 30
0.0
 10
306.557630263
 20
154.5793556174
 30
0.0
 10
306.578032816
 20
154.6082722302
 30
0.0
 10
306.5917363646
 20
154.630546054
 30
0.0
  0
SPLINE
  5
453
330
222
100
AcDbEntity
  8
02___PRT_ALL_AXES
  6
Continuous
 62
     7
100
AcDbSpline
 70
     0
 71
     3
 72
     9
 73
     5
 74
     0
 42
0.000000001
 43
0.0000001
 40
0.0
 40
0.0
 40
0.0
 40
0.0
 40
0.2676172124
 40
1.0
 40
1.0
 40
1.0
 40
1.0
 10
306.5917363646
 20
154.630546054
 30
0.0
 10
306.603973136
 20
154.65043577
 30
0.0
 10
306.6455996004
 20
154.7270818514
 30
0.0
 10
306.6671582827
 20
154.8154939105
 30
0.0
 10
306.6666806814
 20
154.8794004626
 30
0.0
  0
SPLINE
  5
454
330
222
100
AcDbEntity
  8
02___PRT_ALL_AXES
  6
Continuous
 62
     7
100
AcDbSpline
 70
     0
 71
     3
 72
    11
 73
     7
 74
     0
 42
0.000000001
 43
0.0000001
 40
0.0
 40
0.0
 40
0.0
 40
0.0
 40
0.3192052374
 40
0.5976101991
 40
0.8255995396
 40
1.0
 40
1.0
 40
1.0
 40
1.0
 10
362.8589033944
 20
146.3921040352
 30
0.0
 10
363.1036772782
 20
146.4280474401
 30
0.0
 10
363.5595466038
 20
146.5135101573
 30
0.0
 10
364.1748798552
 20
146.6956430604
 30
0.0
 10
364.6563874666
 20
146.9142923215
 30
0.0
 10
364.9109013065
 20
147.1053565968
 30
0.0
 10
364.9979767558
 20
147.2087411714
 30
0.0
  0
SPLINE
  5
455
330
222
100
AcDbEntity
  8
02___PRT_ALL_AXES
  6
Continuous
 62
     7
100
AcDbSpline
 70
     0
 71
     3
 72
     9
 73
     5
 74
     0
 42
0.000000001
 43
0.0000001
 40
0.0
 40
0.0
 40
0.0
 40
0.0
 40
0.2588557205
 40
1.0
 40
1.0
 40
1.0
 40
1.0
 10
364.9979767558
 20
147.2087411714
 30
0.0
 10
365.0038607886
 20
147.2157272765
 30
0.0
 10
365.0261398087
 20
147.2430896613
 30
0.0
 10
365.0465423617
 20
147.2720062742
 30
0.0
 10
365.0602459103
 20
147.294280098
 30
0.0
  0
SPLINE
  5
456
330
222
100
AcDbEntity
  8
02___PRT_ALL_AXES
  6
Continuous
 62
     7
100
AcDbSpline
 70
     0
 71
     3
 72
     9
 73
     5
 74
     0
 42
0.000000001
 43
0.0000001
 40
0.0
 40
0.0
 40
0.0
 40
0.0
 40
0.2676172124
 40
1.0
 40
1.0
 40
1.0
 40
1.0
 10
365.0602459103
 20
147.294280098
 30
0.0
 10
365.0724826816
 20
147.314169814
 30
0.0
 10
365.1141091461
 20
147.3908158954
 30
0.0
 10
365.1356678284
 20
147.4792279545
 30
0.0
 10
365.135190227
 20
147.5431345066
 30
0.0
  0
SPLINE
  5
457
330
222
100
AcDbEntity
  8
7_ALL_FEATURES
  6
Continuous
 62
     7
100
AcDbSpline
 70
     0
 71
     3
 72
    17
 73
    13
 74
     0
 42
0.000000001
 43
0.0000001
 40
0.0
 40
0.0
 40
0.0
 40
0.0
 40
0.1396794389
 40
0.2845241396
 40
0.4296025675
 40
0.5699426607
 40
0.7008357137
 40
0.818098061
 40
0.8705597931
 40
0.9184669402
 40
0.9616285894
 40
1.0
 40
1.0
 40
1.0
 40
1.0
 10
341.5452738554
 20
144.0192047737
 30
0.0
 10
340.0624378056
 20
143.801460229
 30
0.0
 10
337.0242946882
 20
143.4727680723
 30
0.0
 10
332.4158108275
 20
143.2797823041
 30
0.0
 10
327.7970619151
 20
143.3804231064
 30
0.0
 10
323.3435521532
 20
143.7704027349
 30
0.0
 10
319.2244236314
 20
144.4341357581
 30
0.0
 10
316.0894733333
 20
145.2186992156
 30
0.0
 10
313.8807994575
 20
145.9809764227
 30
0.0
 10
312.4607766039
 20
146.5808482372
 30
0.0
 10
311.2280637917
 20
147.2242336564
 30
0.0
 10
310.4954749302
 20
147.7067717916
 30
0.0
 10
310.1681199569
 20
147.9564742489
 30
0.0
  0
SPLINE
  5
458
330
222
100
AcDbEntity
  8
7_ALL_FEATURES
  6
Continuous
 62
     7
100
AcDbSpline
 70
     0
 71
     3
 72
    19
 73
    15
 74
     0
 42
0.000000001
 43
0.0000001
 40
0.0
 40
0.0
 40
0.0
 40
0.0
 40
0.1832270312
 40
0.3529486454
 40
0.5063674879
 40
0.6413082298
 40
0.7014492529
 40
0.7566087301
 40
0.8068633882
 40
0.8524312744
 40
0.8937266314
 40
0.9314045216
 40
0.9664165812
 40
1.0
 40
1.0
 40
1.0
 40
1.0
 10
314.4779315067
 20
163.2544657944
 30
0.0
 10
312.5229343814
 20
162.9673875647
 30
0.0
 10
308.7707221015
 20
162.3135198549
 30
0.0
 10
303.4559136211
 20
161.0411399599
 30
0.0
 10
298.745495059
 20
159.5362301376
 30
0.0
 10
295.2784421525
 20
158.0637717668
 30
0.0
 10
292.9058298552
 20
156.7737389626
 30
0.0
 10
291.4032019383
 20
155.805932156
 30
0.0
 10
290.1154784423
 20
154.8053510989
 30
0.0
 10
289.0492590647
 20
153.775829543
 30
0.0
 10
288.2101077083
 20
152.7212587291
 30
0.0
 10
287.6043261627
 20
151.6443727311
 30
0.0
 10
287.2387164314
 20
150.5501982613
 30
0.0
 10
287.159795206
 20
149.8074521688
 30
0.0
 10
287.1623813213
 20
149.4452900857
 30
0.0
  0
SPLINE
  5
459
330
222
100
AcDbEntity
  8
7_ALL_FEATURES
  6
Continuous
 62
     7
100
AcDbSpline
 70
     0
 71
     3
 72
    11
 73
     7
 74
     0
 42
0.000000001
 43
0.0000001
 40
0.0
 40
0.0
 40
0.0
 40
0.0
 40
0.2254708178
 40
0.4616126549
 40
0.7175160973
 40
1.0
 40
1.0
 40
1.0
 40
1.0
 10
355.6841896256
 20
150.9984392591
 30
0.0
 10
355.6856251491
 20
150.798175437
 30
0.0
 10
355.6390924445
 20
150.3863431338
 30
0.0
 10
355.4245684776
 20
149.7813090425
 30
0.0
 10
355.0703082868
 20
149.1873136476
 30
0.0
 10
354.7605138944
 20
148.8204290889
 30
0.0
 10
354.5870071644
 20
148.6391807291
 30
0.0
  0
SPLINE
  5
45A
330
222
100
AcDbEntity
  8
7_ALL_FEATURES
  6
Continuous
 62
     7
100
AcDbSpline
 70
     0
 71
     3
 72
    22
 73
    18
 74
     0
 42
0.000000001
 43
0.0000001
 40
0.0
 40
0.0
 40
0.0
 40
0.0
 40
0.0135949201
 40
0.0275888516
 40
0.058075203
 40
0.0751767623
 40
0.0937327536
 40
0.1355764114
 40
0.1840578399
 40
0.239119386
 40
0.3004001746
 40
0.3673267539
 40
0.4391689036
 40
0.5150777761
 40
0.675243374
 40
0.8397131239
 40
1.0
 40
1.0
 40
1.0
 40
1.0
 10
377.1599943639
 20
150.0897301493
 30
0.0
 10
377.1578621866
 20
150.3883223255
 30
0.0
 10
377.0969436125
 20
150.9953038903
 30
0.0
 10
376.7423705444
 20
152.2265822126
 30
0.0
 10
376.0412526713
 20
153.4100601674
 30
0.0
 10
375.0880178899
 20
154.5077623155
 30
0.0
 10
373.8405447202
 20
155.6706768547
 30
0.0
 10
371.8746051705
 20
157.0506856648
 30
0.0
 10
369.0424094587
 20
158.5383014444
 30
0.0
 10
365.6833936849
 20
159.9011159346
 30
0.0
 10
361.8436806556
 20
161.1201464052
 30
0.0
 10
357.5763209861
 20
162.1778130191
 30
0.0
 10
352.9419419828
 20
163.0586038344
 30
0.0
 10
346.2419359798
 20
163.9957706584
 30
0.0
 10
337.455604107
 20
164.6284452479
 30
0.0
 10
326.7955421457
 20
164.557881755
 30
0.0
 10
319.6785313313
 20
163.9498829176
 30
0.0
 10
316.1878775497
 20
163.4920349468
 30
0.0
  0
SPLINE
  5
45B
330
222
100
AcDbEntity
  8
02___PRT_ALL_AXES
  6
Continuous
 62
     7
100
AcDbSpline
 70
     0
 71
     3
 72
    15
 73
    11
 74
     0
 42
0.000000001
 43
0.0000001
 40
0.0
 40
0.0
 40
0.0
 40
0.0
 40
0.0816184082
 40
0.1696192746
 40
0.2689451029
 40
0.3827020651
 40
0.5124931292
 40
0.6588541188
 40
0.8215924036
 40
1.0
 40
1.0
 40
1.0
 40
1.0
 10
287.1674268227
 20
148.7376584282
 30
0.0
 10
287.1709804242
 20
148.2364754048
 30
0.0
 10
287.3454712769
 20
147.1904415541
 30
0.0
 10
288.0792238911
 20
145.6911658225
 30
0.0
 10
289.2560408149
 20
144.2491438185
 30
0.0
 10
290.8561501916
 20
142.8685791132
 30
0.0
 10
292.8642450273
 20
141.554826114
 30
0.0
 10
295.2626763862
 20
140.3173614725
 30
0.0
 10
298.0293896176
 20
139.167095943
 30
0.0
 10
300.0152647477
 20
138.4952432536
 30
0.0
 10
301.0622788016
 20
138.1727638611
 30
0.0
  0
SPLINE
  5
45C
330
222
100
AcDbEntity
  8
02___PRT_ALL_AXES
  6
Continuous
 62
     7
100
AcDbSpline
 70
     0
 71
     3
 72
    13
 73
     9
 74
     0
 42
0.000000001
 43
0.0000001
 40
0.0
 40
0.0
 40
0.0
 40
0.0
 40
0.1121843523
 40
0.2317146238
 40
0.3568747777
 40
0.4858106951
 40
0.7471412983
 40
1.0
 40
1.0
 40
1.0
 40
1.0
 10
305.2673065282
 20
137.0309430924
 30
0.0
 10
306.8981947337
 20
136.6416567928
 30
0.0
 10
310.2934287465
 20
135.9469817996
 30
0.0
 10
315.5712018055
 20
135.1612263692
 30
0.0
 10
321.1300590995
 20
134.6076864785
 30
0.0
 10
328.8245122791
 20
134.1910664177
 30
0.0
 10
338.4478167143
 20
134.2908323697
 30
0.0
 10
346.1103931563
 20
135.0231692957
 30
0.0
 10
349.8495161368
 20
135.5722344541
 30
0.0
  0
SPLINE
  5
45D
330
222
100
AcDbEntity
  8
02___PRT_ALL_AXES
  6
Continuous
 62
     7
100
AcDbSpline
 70
     0
 71
     3
 72
     9
 73
     5
 74
     0
 42
0.000000001
 43
0.0000001
 40
0.0
 40
0.0
 40
0.0
 40
0.0
 40
0.4665635223
 40
1.0
 40
1.0
 40
1.0
 40
1.0
 10
299.1668976268
 20
154.8251654694
 30
0.0
 10
299.1673364859
 20
154.7664429037
 30
0.0
 10
299.1976274161
 20
154.6400012822
 30
0.0
 10
299.2714338486
 20
154.5352529554
 30
0.0
 10
299.3160691612
 20
154.4850969068
 30
0.0
  0
SPLINE
  5
45E
330
222
100
AcDbEntity
  8
02___PRT_ALL_AXES
  6
Continuous
 62
     7
100
AcDbSpline
 70
     0
 71
     3
 72
    13
 73
     9
 74
     0
 42
0.000000001
 43
0.0000001
 40
0.0
 40
0.0
 40
0.0
 40
0.0
 40
0.0730098329
 40
0.1671998903
 40
0.2815098789
 40
0.4125660203
 40
0.7050754946
 40
1.0
 40
1.0
 40
1.0
 40
1.0
 10
299.3160691612
 20
154.4850969068
 30
0.0
 10
299.4010384389
 20
154.3896181711
 30
0.0
 10
299.6413020157
 20
154.2133143147
 30
0.0
 10
300.0917488294
 20
154.0105167052
 30
0.0
 10
300.6633822883
 20
153.8415891398
 30
0.0
 10
301.5897297997
 20
153.6669555292
 30
0.0
 10
302.8495591532
 20
153.5863452102
 30
0.0
 10
303.8795721193
 20
153.6533592426
 30
0.0
 10
304.3903938487
 20
153.7283699912
 30
0.0
  0
SPLINE
  5
45F
330
222
100
AcDbEntity
  8
02___PRT_ALL_AXES
  6
Continuous
 62
     7
100
AcDbSpline
 70
     0
 71
     3
 72
     9
 73
     5
 74
     0
 42
0.000000001
 43
0.0000001
 40
0.0
 40
0.0
 40
0.0
 40
0.0
 40
0.262831752
 40
1.0
 40
1.0
 40
1.0
 40
1.0
 10
301.8978830245
 20
153.8769838269
 30
0.0
 10
301.8415122104
 20
153.8687061505
 30
0.0
 10
301.6274966262
 20
153.8342913266
 30
0.0
 10
301.4151861856
 20
153.7883124729
 30
0.0
 10
301.261177072
 20
153.745684989
 30
0.0
  0
SPLINE
  5
460
330
222
100
AcDbEntity
  8
02___PRT_ALL_AXES
  6
Continuous
 62
     7
100
AcDbSpline
 70
     0
 71
     3
 72
    10
 73
     6
 74
     0
 42
0.000000001
 43
0.0000001
 40
0.0
 40
0.0
 40
0.0
 40
0.0
 40
0.5791560441
 40
0.8119085302
 40
1.0
 40
1.0
 40
1.0
 40
1.0
 10
301.4467348299
 20
155.480371979
 30
0.0
 10
301.0379915823
 20
155.4203507715
 30
0.0
 10
300.4662870304
 20
155.3010260456
 30
0.0
 10
299.8029980164
 20
155.0352204944
 30
0.0
 10
299.5435405356
 20
154.8785567694
 30
0.0
 10
299.4400710993
 20
154.7931415015
 30
0.0
  0
SPLINE
  5
461
330
222
100
AcDbEntity
  8
02___PRT_ALL_AXES
  6
Continuous
 62
     7
100
AcDbSpline
 70
     0
 71
     3
 72
     9
 73
     5
 74
     0
 42
0.000000001
 43
0.0000001
 40
0.0
 40
0.0
 40
0.0
 40
0.0
 40
0.2620844176
 40
1.0
 40
1.0
 40
1.0
 40
1.0
 10
299.4400710993
 20
154.7931415015
 30
0.0
 10
299.4293483547
 20
154.7842897465
 30
0.0
 10
299.3889941684
 20
154.7498522168
 30
0.0
 10
299.3509501005
 20
154.7126429292
 30
0.0
 10
299.3248314762
 20
154.6834808157
 30
0.0
  0
SPLINE
  5
462
330
222
100
AcDbEntity
  8
02___PRT_ALL_AXES
  6
Continuous
 62
     7
100
AcDbSpline
 70
     0
 71
     3
 72
     9
 73
     5
 74
     0
 42
0.000000001
 43
0.0000001
 40
0.0
 40
0.0
 40
0.0
 40
0.0
 40
0.2611748929
 40
1.0
 40
1.0
 40
1.0
 40
1.0
 10
299.3248314762
 20
154.6834808157
 30
0.0
 10
299.3170669387
 20
154.6748115107
 30
0.0
 10
299.2880019526
 20
154.6410372238
 30
0.0
 10
299.2617068892
 20
154.6048170085
 30
0.0
 10
299.2445247803
 20
154.5767339212
 30
0.0
  0
SPLINE
  5
463
330
222
100
AcDbEntity
  8
02___PRT_ALL_AXES
  6
Continuous
 62
     7
100
AcDbSpline
 70
     0
 71
     3
 72
     9
 73
     5
 74
     0
 42
0.000000001
 43
0.0000001
 40
0.0
 40
0.0
 40
0.0
 40
0.0
 40
0.5117673522
 40
1.0
 40
1.0
 40
1.0
 40
1.0
 10
301.8978830245
 20
153.8769838269
 30
0.0
 10
302.3255222484
 20
153.9397797818
 30
0.0
 10
303.1729371597
 20
153.9825393699
 30
0.0
 10
304.018834824
 20
153.8984194986
 30
0.0
 10
304.4214946443
 20
153.8095584098
 30
0.0
  0
SPLINE
  5
464
330
222
100
AcDbEntity
  8
02___PRT_ALL_AXES
  6
Continuous
 62
     7
100
AcDbSpline
 70
     0
 71
     3
 72
    13
 73
     9
 74
     0
 42
0.000000001
 43
0.0000001
 40
0.0
 40
0.0
 40
0.0
 40
0.0
 40
0.2845266991
 40
0.5698970863
 40
0.7008529324
 40
0.8181677422
 40
0.9185301382
 40
1.0
 40
1.0
 40
1.0
 40
1.0
 10
301.4467348299
 20
155.480371979
 30
0.0
 10
301.9203055238
 20
155.5499126625
 30
0.0
 10
302.879801632
 20
155.6176773167
 30
0.0
 10
304.0608527515
 20
155.5580077092
 30
0.0
 10
304.9479840665
 20
155.4153666164
 30
0.0
 10
305.51789431
 20
155.2725091523
 30
0.0
 10
305.9904963208
 20
155.0969125587
 30
0.0
 10
306.259602233
 20
154.945924816
 30
0.0
 10
306.3685776378
 20
154.8628096687
 30
0.0
  0
SPLINE
  5
465
330
222
100
AcDbEntity
  8
02___PRT_ALL_AXES
  6
Continuous
 62
     7
100
AcDbSpline
 70
     0
 71
     3
 72
     9
 73
     5
 74
     0
 42
0.000000001
 43
0.0000001
 40
0.0
 40
0.0
 40
0.0
 40
0.0
 40
0.2650831815
 40
1.0
 40
1.0
 40
1.0
 40
1.0
 10
306.3685776378
 20
154.8628096687
 30
0.0
 10
306.3826550548
 20
154.8520728736
 30
0.0
 10
306.4349586899
 20
154.8105501192
 30
0.0
 10
306.4839621324
 20
154.7647093057
 30
0.0
 10
306.5168575613
 20
154.7282792246
 30
0.0
  0
SPLINE
  5
466
330
222
100
AcDbEntity
  8
02___PRT_ALL_AXES
  6
Continuous
 62
     7
100
AcDbSpline
 70
     0
 71
     3
 72
     9
 73
     5
 74
     0
 42
0.000000001
 43
0.0000001
 40
0.0
 40
0.0
 40
0.0
 40
0.0
 40
0.2614769031
 40
1.0
 40
1.0
 40
1.0
 40
1.0
 10
306.5168575613
 20
154.7282792246
 30
0.0
 10
306.5248517487
 20
154.7194260524
 30
0.0
 10
306.5547147577
 20
154.6849427704
 30
0.0
 10
306.5816111222
 20
154.6478173868
 30
0.0
 10
306.5990356991
 20
154.618982437
 30
0.0
  0
SPLINE
  5
467
330
222
100
AcDbEntity
  8
7_ALL_FEATURES
  6
Continuous
 62
     7
100
AcDbSpline
 70
     0
 71
     3
 72
     9
 73
     5
 74
     0
 42
0.000000001
 43
0.0000001
 40
0.0
 40
0.0
 40
0.0
 40
0.0
 40
0.264463249
 40
1.0
 40
1.0
 40
1.0
 40
1.0
 10
309.7595809749
 20
148.2892636466
 30
0.0
 10
309.6832703268
 20
148.355855967
 30
0.0
 10
309.4000514823
 20
148.6135740441
 30
0.0
 10
309.1389233642
 20
148.8965195441
 30
0.0
 10
308.9672195657
 20
149.1198254775
 30
0.0
  0
SPLINE
  5
468
330
222
100
AcDbEntity
  8
7_ALL_FEATURES
  6
Continuous
 62
     7
100
AcDbSpline
 70
     0
 71
     3
 72
     9
 73
     5
 74
     0
 42
0.000000001
 43
0.0000001
 40
0.0
 40
0.0
 40
0.0
 40
0.0
 40
0.2588102565
 40
1.0
 40
1.0
 40
1.0
 40
1.0
 10
308.9672195657
 20
149.1198254775
 30
0.0
 10
308.9316988227
 20
149.1660212678
 30
0.0
 10
308.7978273624
 20
149.3470588254
 30
0.0
 10
308.6779995276
 20
149.5386732854
 30
0.0
 10
308.5996736782
 20
149.6860356513
 30
0.0
  0
SPLINE
  5
469
330
222
100
AcDbEntity
  8
7_ALL_FEATURES
  6
Continuous
 62
     7
100
AcDbSpline
 70
     0
 71
     3
 72
    19
 73
    15
 74
     0
 42
0.000000001
 43
0.0000001
 40
0.0
 40
0.0
 40
0.0
 40
0.0
 40
0.0377242646
 40
0.073422065
 40
0.1090565174
 40
0.1466022645
 40
0.1877093579
 40
0.2335647903
 40
0.2849108294
 40
0.3421514456
 40
0.4746337232
 40
0.6303573308
 40
0.8067208926
 40
1.0
 40
1.0
 40
1.0
 40
1.0
 10
308.5996736782
 20
149.6860356513
 30
0.0
 10
308.4900901324
 20
149.8922062922
 30
0.0
 10
308.3155854359
 20
150.3166661605
 30
0.0
 10
308.2166882387
 20
150.9915770391
 30
0.0
 10
308.2949530681
 20
151.6684138256
 30
0.0
 10
308.5473063728
 20
152.3358084223
 30
0.0
 10
308.9659321095
 20
152.9881782209
 30
0.0
 10
309.5449266656
 20
153.6230073014
 30
0.0
 10
310.2792560753
 20
154.2384714653
 30
0.0
 10
311.5208859144
 20
155.069848116
 30
0.0
 10
313.4482494372
 20
156.0152026378
 30
0.0
 10
316.1640772512
 20
156.9719126368
 30
0.0
 10
319.3189578357
 20
157.7739490021
 30
0.0
 10
321.573257164
 20
158.1752978143
 30
0.0
 10
322.7568139984
 20
158.3490952022
 30
0.0
  0
SPLINE
  5
46A
330
222
100
AcDbEntity
  8
02___PRT_ALL_AXES
  6
Continuous
 62
     7
100
AcDbSpline
 70
     0
 71
     3
 72
     9
 73
     5
 74
     0
 42
0.000000001
 43
0.0000001
 40
0.0
 40
0.0
 40
0.0
 40
0.0
 40
0.2360035637
 40
1.0
 40
1.0
 40
1.0
 40
1.0
 10
359.7296866177
 20
146.409419033
 30
0.0
 10
359.7789937567
 20
146.4230665323
 30
0.0
 10
359.9890052036
 20
146.4769506681
 30
0.0
 10
360.2025301928
 20
146.5166557786
 30
0.0
 10
360.3663925701
 20
146.5407178709
 30
0.0
  0
SPLINE
  5
46B
330
222
100
AcDbEntity
  8
02___PRT_ALL_AXES
  6
Continuous
 62
     7
100
AcDbSpline
 70
     0
 71
     3
 72
    17
 73
    13
 74
     0
 42
0.000000001
 43
0.0000001
 40
0.0
 40
0.0
 40
0.0
 40
0.0
 40
0.0273758983
 40
0.0578660858
 40
0.0936327833
 40
0.135778454
 40
0.2401194549
 40
0.3693355513
 40
0.5178824524
 40
0.6782483264
 40
0.8418873798
 40
1.0
 40
1.0
 40
1.0
 40
1.0
 10
365.135190227
 20
147.5431345066
 30
0.0
 10
365.1348061375
 20
147.5945284996
 30
0.0
 10
365.1120586135
 20
147.7037178729
 30
0.0
 10
365.0192823682
 20
147.8558294582
 30
0.0
 10
364.8730169517
 20
147.9994227523
 30
0.0
 10
364.5895815037
 20
148.193267478
 30
0.0
 10
364.1094552682
 20
148.3972634166
 30
0.0
 10
363.4144798829
 20
148.5797034404
 30
0.0
 10
362.5997101598
 20
148.7025584257
 30
0.0
 10
361.7133159858
 20
148.7580121877
 30
0.0
 10
360.8074295123
 20
148.7423132768
 30
0.0
 10
360.2053846261
 20
148.6830564848
 30
0.0
 10
359.9116940051
 20
148.6399299848
 30
0.0
  0
SPLINE
  5
46C
330
222
100
AcDbEntity
  8
02___PRT_ALL_AXES
  6
Continuous
 62
     7
100
AcDbSpline
 70
     0
 71
     3
 72
     9
 73
     5
 74
     0
 42
0.000000001
 43
0.0000001
 40
0.0
 40
0.0
 40
0.0
 40
0.0
 40
0.2392384442
 40
1.0
 40
1.0
 40
1.0
 40
1.0
 10
365.0675452448
 20
147.2827164809
 30
0.0
 10
365.0619004073
 20
147.2920578043
 30
0.0
 10
365.0372455342
 20
147.3304614193
 30
0.0
 10
365.0086272227
 20
147.3662538262
 30
0.0
 10
364.9853671069
 20
147.3920132686
 30
0.0
  0
SPLINE
  5
46D
330
222
100
AcDbEntity
  8
02___PRT_ALL_AXES
  6
Continuous
 62
     7
100
AcDbSpline
 70
     0
 71
     3
 72
     9
 73
     5
 74
     0
 42
0.000000001
 43
0.0000001
 40
0.0
 40
0.0
 40
0.0
 40
0.0
 40
0.2355200119
 40
1.0
 40
1.0
 40
1.0
 40
1.0
 10
364.9853671069
 20
147.3920132686
 30
0.0
 10
364.9748244168
 20
147.4036887831
 30
0.0
 10
364.9287021194
 20
147.4520334163
 30
0.0
 10
364.877687852
 20
147.4955777295
 30
0.0
 10
364.8370871834
 20
147.5265437127
 30
0.0
  0
SPLINE
  5
46E
330
222
100
AcDbEntity
  8
02___PRT_ALL_AXES
  6
Continuous
 62
     7
100
AcDbSpline
 70
     0
 71
     3
 72
    13
 73
     9
 74
     0
 42
0.000000001
 43
0.0000001
 40
0.0
 40
0.0
 40
0.0
 40
0.0
 40
0.0814698618
 40
0.1818322578
 40
0.2991470676
 40
0.4301029137
 40
0.7154733009
 40
1.0
 40
1.0
 40
1.0
 40
1.0
 10
364.8370871834
 20
147.5265437127
 30
0.0
 10
364.7281117787
 20
147.60965886
 30
0.0
 10
364.4590058664
 20
147.7606466026
 30
0.0
 10
363.9864038557
 20
147.9362431963
 30
0.0
 10
363.4164936122
 20
148.0791006604
 30
0.0
 10
362.5293622972
 20
148.2217417531
 30
0.0
 10
361.3483111776
 20
148.2814113607
 30
0.0
 10
360.3888150695
 20
148.2136467065
 30
0.0
 10
359.9152443756
 20
148.1441060229
 30
0.0
  0
SPLINE
  5
46F
330
222
100
AcDbEntity
  8
7_ALL_FEATURES
  6
Continuous
 62
     7
100
AcDbSpline
 70
     0
 71
     3
 72
    26
 73
    22
 74
     0
 42
0.000000001
 43
0.0000001
 40
0.0
 40
0.0
 40
0.0
 40
0.0
 40
0.0995155024
 40
0.1928716854
 40
0.2791037916
 40
0.3573934317
 40
0.4271593291
 40
0.4881438569
 40
0.5405586003
 40
0.5853352308
 40
0.6244830349
 40
0.6430080285
 40
0.6614514522
 40
0.680327553
 40
0.7001108165
 40
0.7438362942
 40
0.7684159673
 40
0.7950196961
 40
0.8546275059
 40
0.9230196657
 40
1.0
 40
1.0
 40
1.0
 40
1.0
 10
314.481213184
 20
163.0482759032
 30
0.0
 10
313.0963257262
 20
162.8187022536
 30
0.0
 10
310.4216537298
 20
162.3136845872
 30
0.0
 10
306.5936378352
 20
161.3852702818
 30
0.0
 10
303.1127773299
 20
160.3201773369
 30
0.0
 10
300.0249620544
 20
159.1329740282
 30
0.0
 10
297.3700209093
 20
157.8393578318
 30
0.0
 10
295.1802545805
 20
156.455251729
 30
0.0
 10
293.4809353488
 20
154.9927377236
 30
0.0
 10
292.292094727
 20
153.4592365366
 30
0.0
 10
291.7485470073
 20
152.0909624526
 30
0.0
 10
291.6295219421
 20
151.0184152565
 30
0.0
 10
291.6839541799
 20
150.2282807962
 30
0.0
 10
291.8808346177
 20
149.4431129403
 30
0.0
 10
292.3450239194
 20
148.3729241036
 30
0.0
 10
293.0904998422
 20
147.3587907139
 30
0.0
 10
294.0405759959
 20
146.4146313481
 30
0.0
 10
295.2473637861
 20
145.4180300214
 30
0.0
 10
297.0903175044
 20
144.2380994331
 30
0.0
 10
299.6919324579
 20
142.9665311087
 30
0.0
 10
301.609948246
 20
142.2335092947
 30
0.0
 10
302.636985
 20
141.8808390268
 30
0.0
  0
SPLINE
  5
470
330
222
100
AcDbEntity
  8
7_ALL_FEATURES
  6
Continuous
 62
     7
100
AcDbSpline
 70
     0
 71
     3
 72
    11
 73
     7
 74
     0
 42
0.000000001
 43
0.0000001
 40
0.0
 40
0.0
 40
0.0
 40
0.0
 40
0.2261759263
 40
0.4741121133
 40
0.7351784601
 40
1.0
 40
1.0
 40
1.0
 40
1.0
 10
306.6156155707
 20
140.689600992
 30
0.0
 10
308.8634822152
 20
140.1038088464
 30
0.0
 10
313.6422707617
 20
139.1277296968
 30
0.0
 10
321.1434586476
 20
138.2123299891
 30
0.0
 10
329.0864222822
 20
137.8032309786
 30
0.0
 10
334.4916001371
 20
137.8801794027
 30
0.0
 10
337.2083565614
 20
138.0098967029
 30
0.0
  0
SPLINE
  5
471
330
222
100
AcDbEntity
  8
7_ALL_FEATURES
  6
Continuous
 62
     7
100
AcDbSpline
 70
     0
 71
     3
 72
     9
 73
     5
 74
     0
 42
0.000000001
 43
0.0000001
 40
0.0
 40
0.0
 40
0.0
 40
0.0
 40
0.2556485374
 40
1.0
 40
1.0
 40
1.0
 40
1.0
 10
337.4929100284
 20
138.0238204067
 30
0.0
 10
338.3971606495
 20
138.0691393571
 30
0.0
 10
341.9320411758
 20
138.2864265502
 30
0.0
 10
345.4578056559
 20
138.6628977205
 30
0.0
 10
348.0659746294
 20
139.0458898603
 30
0.0
  0
SPLINE
  5
472
330
222
100
AcDbEntity
  8
02___PRT_ALL_AXES
  6
Continuous
 62
     7
100
AcDbSpline
 70
     0
 71
     3
 72
    14
 73
    10
 74
     0
 42
0.000000001
 43
0.0000001
 40
0.0
 40
0.0
 40
0.0
 40
0.0
 40
0.3531923837
 40
0.5067602393
 40
0.6418138982
 40
0.7571635458
 40
0.8529289353
 40
0.931720938
 40
1.0
 40
1.0
 40
1.0
 40
1.0
 10
359.9116940051
 20
148.6399299848
 30
0.0
 10
359.5979496309
 20
148.5938587254
 30
0.0
 10
359.1498982526
 20
148.505415693
 30
0.0
 10
358.6003928188
 20
148.3300399565
 30
0.0
 10
358.2660178442
 20
148.1878120209
 30
0.0
 10
357.9959997869
 20
148.0317724021
 30
0.0
 10
357.7950050853
 20
147.8636186463
 30
0.0
 10
357.6661429555
 20
147.6834306363
 30
0.0
 10
357.6349490382
 20
147.5502012255
 30
0.0
 10
357.6354071725
 20
147.4888995134
 30
0.0
  0
SPLINE
  5
473
330
222
100
AcDbEntity
  8
7_ALL_FEATURES
  6
Continuous
 62
     7
100
AcDbSpline
 70
     0
 71
     3
 72
    17
 73
    13
 74
     0
 42
0.000000001
 43
0.0000001
 40
0.0
 40
0.0
 40
0.0
 40
0.0
 40
0.0335909153
 40
0.0686113118
 40
0.1062975399
 40
0.1476026448
 40
0.2433059329
 40
0.3585518523
 40
0.4935262229
 40
0.6469764678
 40
0.8167441335
 40
1.0
 40
1.0
 40
1.0
 40
1.0
 10
308.6229701909
 20
150.6615400998
 30
0.0
 10
308.6216126815
 20
150.8509205139
 30
0.0
 10
308.6628680522
 20
151.2393241496
 30
0.0
 10
308.8541107907
 20
151.8114609312
 30
0.0
 10
309.1708105303
 20
152.374644735
 30
0.0
 10
309.7865278512
 20
153.1476995842
 30
0.0
 10
310.8880031313
 20
154.0675680055
 30
0.0
 10
312.5811017806
 20
155.046321248
 30
0.0
 10
314.6798511989
 20
155.9383348701
 30
0.0
 10
317.1433103939
 20
156.7251450494
 30
0.0
 10
319.922363442
 20
157.3906572318
 30
0.0
 10
321.8844779118
 20
157.7324359246
 30
0.0
 10
322.9067104468
 20
157.882543932
 30
0.0
  0
SPLINE
  5
474
330
222
100
AcDbEntity
  8
02___PRT_ALL_AXES
  6
Continuous
 62
     7
100
AcDbSpline
 70
     0
 71
     3
 72
     9
 73
     5
 74
     0
 42
0.000000001
 43
0.0000001
 40
0.0
 40
0.0
 40
0.0
 40
0.0
 40
0.4882326478
 40
1.0
 40
1.0
 40
1.0
 40
1.0
 10
362.8900041899
 20
146.4732924537
 30
0.0
 10
362.4873443697
 20
146.5621535425
 30
0.0
 10
361.6414467054
 20
146.6462734139
 30
0.0
 10
360.7940317941
 20
146.6035138258
 30
0.0
 10
360.3663925701
 20
146.5407178709
 30
0.0
  0
SPLINE
  5
475
330
222
100
AcDbEntity
  8
7_ALL_FEATURES
  6
Continuous
 62
     7
100
AcDbSpline
 70
     0
 71
     3
 72
     9
 73
     5
 74
     0
 42
0.000000001
 43
0.0000001
 40
0.0
 40
0.0
 40
0.0
 40
0.0
 40
0.2593141385
 40
1.0
 40
1.0
 40
1.0
 40
1.0
 10
352.0568966418
 20
139.7193905009
 30
0.0
 10
352.562031287
 20
139.8163100585
 30
0.0
 10
354.5065406345
 20
140.2075962838
 30
0.0
 10
356.4370566739
 20
140.6703342888
 30
0.0
 10
357.8531439649
 20
141.0616024487
 30
0.0
  0
SPLINE
  5
476
330
222
100
AcDbEntity
  8
7_ALL_FEATURES
  6
Continuous
 62
     7
100
AcDbSpline
 70
     0
 71
     3
 72
    31
 73
    27
 74
     0
 42
0.000000001
 43
0.0000001
 40
0.0
 40
0.0
 40
0.0
 40
0.0
 40
0.0678249576
 40
0.0979970412
 40
0.1255064992
 40
0.150309126
 40
0.1724458574
 40
0.192075168
 40
0.2095218599
 40
0.2253272189
 40
0.2402707673
 40
0.2552955647
 40
0.271327716
 40
0.289109253
 40
0.3091414341
 40
0.3317174078
 40
0.3569739357
 40
0.3849347575
 40
0.4155438495
 40
0.4841667904
 40
0.5614210164
 40
0.6453525085
 40
0.7336823804
 40
0.8239353773
 40
0.9135490391
 40
1.0
 40
1.0
 40
1.0
 40
1.0
 10
357.8531439649
 20
141.0616024487
 30
0.0
 10
359.5959466662
 20
141.5431428243
 30
0.0
 10
362.0895523844
 20
142.3438610331
 30
0.0
 10
365.1691609664
 20
143.6568787206
 30
0.0
 10
367.1272079071
 20
144.6624900412
 30
0.0
 10
368.8103173073
 20
145.7198744287
 30
0.0
 10
370.2064636037
 20
146.8222105797
 30
0.0
 10
371.3054385143
 20
147.963872213
 30
0.0
 10
372.0974840275
 20
149.1408708729
 30
0.0
 10
372.5694903699
 20
150.3494044322
 30
0.0
 10
372.7043220011
 20
151.5777122953
 30
0.0
 10
372.4943747782
 20
152.8012534074
 30
0.0
 10
371.9504482054
 20
153.9973350284
 30
0.0
 10
371.0894290306
 20
155.15637341
 30
0.0
 10
369.9238450772
 20
156.2751862197
 30
0.0
 10
368.4633358678
 20
157.3496671508
 30
0.0
 10
366.7183497122
 20
158.3739292971
 30
0.0
 10
364.7015507758
 20
159.3413470436
 30
0.0
 10
361.5480788978
 20
160.5933313637
 30
0.0
 10
357.0285348641
 20
161.9336009014
 30
0.0
 10
351.0207017533
 20
163.1607392994
 30
0.0
 10
344.4196266496
 20
164.020714014
 30
0.0
 10
337.4326333119
 20
164.4851814973
 30
0.0
 10
330.2790082003
 20
164.5383967577
 30
0.0
 10
323.1847069207
 20
164.1786268607
 30
0.0
 10
318.516304536
 20
163.6572409332
 30
0.0
 10
316.2361132244
 20
163.3224101157
 30
0.0
  0
SPLINE
  5
477
330
222
100
AcDbEntity
  8
7_ALL_FEATURES
  6
Continuous
 62
     7
100
AcDbSpline
 70
     0
 71
     3
 72
    21
 73
    17
 74
     0
 42
0.000000001
 43
0.0000001
 40
0.0
 40
0.0
 40
0.0
 40
0.0
 40
0.1614061748
 40
0.3283223424
 40
0.4911080875
 40
0.5680362985
 40
0.6405325335
 40
0.7076440367
 40
0.7685652599
 40
0.8226896276
 40
0.8696885232
 40
0.9096456038
 40
0.9432932058
 40
0.972375419
 40
0.9861615665
 40
1.0
 40
1.0
 40
1.0
 40
1.0
 10
322.7568139984
 20
158.3490952022
 30
0.0
 10
324.6985751384
 20
158.6342298235
 30
0.0
 10
328.6786284521
 20
159.0191140126
 30
0.0
 10
334.6554815715
 20
159.096849139
 30
0.0
 10
339.5950313615
 20
158.7524397941
 30
0.0
 10
343.3551653834
 20
158.2203190992
 30
0.0
 10
345.9407581551
 20
157.7161172228
 30
0.0
 10
348.3037129563
 20
157.1080175367
 30
0.0
 10
350.4067473623
 20
156.4059945774
 30
0.0
 10
352.2174502345
 20
155.6212682316
 30
0.0
 10
353.7096345815
 20
154.7655775465
 30
0.0
 10
354.8631260862
 20
153.847870378
 30
0.0
 10
355.6634266168
 20
152.8728121077
 30
0.0
 10
356.0157060234
 20
151.9887544828
 30
0.0
 10
356.0729403874
 20
151.2975056424
 30
0.0
 10
356.0347170325
 20
150.9613166178
 30
0.0
 10
356.0002502789
 20
150.7966189201
 30
0.0
  0
SPLINE
  5
478
330
222
100
AcDbEntity
  8
7_ALL_FEATURES
  6
Continuous
 62
     7
100
AcDbSpline
 70
     0
 71
     3
 72
     9
 73
     5
 74
     0
 42
0.000000001
 43
0.0000001
 40
0.0
 40
0.0
 40
0.0
 40
0.0
 40
0.242740235
 40
1.0
 40
1.0
 40
1.0
 40
1.0
 10
356.0002502789
 20
150.7966189201
 30
0.0
 10
355.986752806
 20
150.7321219054
 30
0.0
 10
355.921591803
 20
150.4684445077
 30
0.0
 10
355.8189421273
 20
150.2145573409
 30
0.0
 10
355.7255401057
 20
150.0314364451
 30
0.0
  0
SPLINE
  5
479
330
222
100
AcDbEntity
  8
7_ALL_FEATURES
  6
Continuous
 62
     7
100
AcDbSpline
 70
     0
 71
     3
 72
     9
 73
     5
 74
     0
 42
0.000000001
 43
0.0000001
 40
0.0
 40
0.0
 40
0.0
 40
0.0
 40
0.2424576569
 40
1.0
 40
1.0
 40
1.0
 40
1.0
 10
355.7255401057
 20
150.0314364451
 30
0.0
 10
355.7028042207
 20
149.9868612255
 30
0.0
 10
355.6051401235
 20
149.8050088225
 30
0.0
 10
355.4925158349
 20
149.6313232688
 30
0.0
 10
355.4007888218
 20
149.5047171021
 30
0.0
  0
SPLINE
  5
47A
330
222
100
AcDbEntity
  8
7_ALL_FEATURES
  6
Continuous
 62
     7
100
AcDbSpline
 70
     0
 71
     3
 72
     9
 73
     5
 74
     0
 42
0.000000001
 43
0.0000001
 40
0.0
 40
0.0
 40
0.0
 40
0.0
 40
0.2354598359
 40
1.0
 40
1.0
 40
1.0
 40
1.0
 10
355.4007888218
 20
149.5047171021
 30
0.0
 10
355.3448810834
 20
149.4275504724
 30
0.0
 10
355.0970877997
 20
149.1073323155
 30
0.0
 10
354.8119343792
 20
148.817039685
 30
0.0
 10
354.5817491168
 20
148.610279863
 30
0.0
  0
SPLINE
  5
47B
330
222
100
AcDbEntity
  8
02___PRT_ALL_AXES
  6
Continuous
 62
     7
100
AcDbSpline
 70
     0
 71
     3
 72
     9
 73
     5
 74
     0
 42
0.000000001
 43
0.0000001
 40
0.0
 40
0.0
 40
0.0
 40
0.0
 40
0.2394704205
 40
1.0
 40
1.0
 40
1.0
 40
1.0
 10
357.713034326
 20
147.2404679652
 30
0.0
 10
357.718603696
 20
147.2495707538
 30
0.0
 10
357.7428370429
 20
147.2869836321
 30
0.0
 10
357.7707300282
 20
147.3219691058
 30
0.0
 10
357.7933410218
 20
147.3472148597
 30
0.0
  0
SPLINE
  5
47C
330
222
100
AcDbEntity
  8
02___PRT_ALL_AXES
  6
Continuous
 62
     7
100
AcDbSpline
 70
     0
 71
     3
 72
     9
 73
     5
 74
     0
 42
0.000000001
 43
0.0000001
 40
0.0
 40
0.0
 40
0.0
 40
0.0
 40
0.238322834
 40
1.0
 40
1.0
 40
1.0
 40
1.0
 10
357.7933410218
 20
147.3472148597
 30
0.0
 10
357.8017767615
 20
147.3566335792
 30
0.0
 10
357.838024123
 20
147.3953903928
 30
0.0
 10
357.8774169034
 20
147.4311495009
 30
0.0
 10
357.908580645
 20
147.4568755455
 30
0.0
  0
SPLINE
  5
47D
330
222
100
AcDbEntity
  8
02___PRT_ALL_AXES
  6
Continuous
 62
     7
100
AcDbSpline
 70
     0
 71
     3
 72
    10
 73
     6
 74
     0
 42
0.000000001
 43
0.0000001
 40
0.0
 40
0.0
 40
0.0
 40
0.0
 40
0.1880914698
 40
0.4208439559
 40
1.0
 40
1.0
 40
1.0
 40
1.0
 10
357.908580645
 20
147.4568755455
 30
0.0
 10
358.0120500813
 20
147.5422908133
 30
0.0
 10
358.2715075621
 20
147.6989545384
 30
0.0
 10
358.9347965761
 20
147.9647600896
 30
0.0
 10
359.506501128
 20
148.0840848155
 30
0.0
 10
359.9152443756
 20
148.1441060229
 30
0.0
  0
SPLINE
  5
47E
330
222
100
AcDbEntity
  8
02___PRT_ALL_AXES
  6
Continuous
 62
     7
100
AcDbSpline
 70
     0
 71
     3
 72
    17
 73
    13
 74
     0
 42
0.000000001
 43
0.0000001
 40
0.0
 40
0.0
 40
0.0
 40
0.0
 40
0.0273758983
 40
0.0578660858
 40
0.0936327833
 40
0.135778454
 40
0.2401194549
 40
0.3693355513
 40
0.5178824524
 40
0.6782483264
 40
0.8418873798
 40
1.0
 40
1.0
 40
1.0
 40
1.0
 10
306.6666806814
 20
154.8794004626
 30
0.0
 10
306.6662965918
 20
154.9307944556
 30
0.0
 10
306.6435490678
 20
155.0399838289
 30
0.0
 10
306.5507728226
 20
155.1920954142
 30
0.0
 10
306.404507406
 20
155.3356887083
 30
0.0
 10
306.121071958
 20
155.5295334341
 30
0.0
 10
305.6409457226
 20
155.7335293726
 30
0.0
 10
304.9459703372
 20
155.9159693965
 30
0.0
 10
304.1312006141
 20
156.0388243817
 30
0.0
 10
303.2448064401
 20
156.0942781437
 30
0.0
 10
302.3389199666
 20
156.0785792328
 30
0.0
 10
301.7368750804
 20
156.0193224408
 30
0.0
 10
301.4431844594
 20
155.9761959408
 30
0.0
  0
SPLINE
  5
47F
330
222
100
AcDbEntity
  8
7_ALL_FEATURES
  6
Continuous
 62
     7
100
AcDbSpline
 70
     0
 71
     3
 72
    20
 73
    16
 74
     0
 42
0.000000001
 43
0.0000001
 40
0.0
 40
0.0
 40
0.0
 40
0.0
 40
0.1580699536
 40
0.3216687571
 40
0.481992215
 40
0.6304963007
 40
0.6979360012
 40
0.7597385563
 40
0.8152835506
 40
0.8641678872
 40
0.9062968184
 40
0.9420441479
 40
0.972520892
 40
0.9864672567
 40
1.0
 40
1.0
 40
1.0
 40
1.0
 10
322.9067104468
 20
157.882543932
 30
0.0
 10
324.7497900676
 20
158.1531878081
 30
0.0
 10
328.5280071658
 20
158.525081572
 30
0.0
 10
334.2130720577
 20
158.6235807807
 30
0.0
 10
339.7755919104
 20
158.2751574892
 30
0.0
 10
344.1683382664
 20
157.6134236539
 30
0.0
 10
347.3545340123
 20
156.8559404156
 30
0.0
 10
349.438153062
 20
156.2165891665
 30
0.0
 10
351.2631132576
 20
155.4976961237
 30
0.0
 10
352.803940997
 20
154.7097067024
 30
0.0
 10
354.0405647987
 20
153.8617014984
 30
0.0
 10
354.9581365579
 20
152.9618251969
 30
0.0
 10
355.4561987269
 20
152.1407491761
 30
0.0
 10
355.6498501149
 20
151.4823086684
 30
0.0
 10
355.6830464583
 20
151.1579177166
 30
0.0
 10
355.6841896256
 20
150.9984392591
 30
0.0
  0
SPLINE
  5
480
330
222
100
AcDbEntity
  8
7_ALL_FEATURES
  6
Continuous
 62
     7
100
AcDbSpline
 70
     0
 71
     3
 72
    15
 73
    11
 74
     0
 42
0.000000001
 43
0.0000001
 40
0.0
 40
0.0
 40
0.0
 40
0.0
 40
0.0783482926
 40
0.1659910782
 40
0.2666395741
 40
0.3823069422
 40
0.5137868914
 40
0.6610413727
 40
0.823456197
 40
1.0
 40
1.0
 40
1.0
 40
1.0
 10
287.248544705
 20
148.5649759583
 30
0.0
 10
287.348837257
 20
148.034229257
 30
0.0
 10
287.7464708059
 20
146.9408504524
 30
0.0
 10
288.8113517145
 20
145.424370876
 30
0.0
 10
290.3363582694
 20
143.9721543172
 30
0.0
 10
292.3040307278
 20
142.5906091101
 30
0.0
 10
294.6960010063
 20
141.2882093687
 30
0.0
 10
297.4892499219
 20
140.0769598227
 30
0.0
 10
300.655389543
 20
138.9691778129
 30
0.0
 10
302.9052394554
 20
138.3323563601
 30
0.0
 10
304.0843175485
 20
138.0304871884
 30
0.0
  0
SPLINE
  5
481
330
222
100
AcDbEntity
  8
7_ALL_FEATURES
  6
Continuous
 62
     7
100
AcDbSpline
 70
     0
 71
     3
 72
    13
 73
     9
 74
     0
 42
0.000000001
 43
0.0000001
 40
0.0
 40
0.0
 40
0.0
 40
0.0
 40
0.110698623
 40
0.2293782478
 40
0.3542417146
 40
0.483329388
 40
0.745799081
 40
1.0
 40
1.0
 40
1.0
 40
1.0
 10
304.0843175485
 20
138.0304871884
 30
0.0
 10
305.7304589854
 20
137.6090398262
 30
0.0
 10
309.1726108878
 20
136.8551922258
 30
0.0
 10
314.5446196975
 20
135.997689139
 30
0.0
 10
320.2339919816
 20
135.3845925689
 30
0.0
 10
328.1490915251
 20
134.906537395
 30
0.0
 10
338.0741635103
 20
134.9703299238
 30
0.0
 10
345.9838356207
 20
135.7136498982
 30
0.0
 10
349.8444441788
 20
136.2805543996
 30
0.0
  0
SPLINE
  5
482
330
222
100
AcDbEntity
  8
7_ALL_FEATURES
  6
Continuous
 62
     7
100
AcDbSpline
 70
     0
 71
     3
 72
    18
 73
    14
 74
     0
 42
0.000000001
 43
0.0000001
 40
0.0
 40
0.0
 40
0.0
 40
0.0
 40
0.1799535212
 40
0.3473151823
 40
0.499523749
 40
0.6345481943
 40
0.7511232406
 40
0.8024402403
 40
0.8492362847
 40
0.8917950635
 40
0.9305925173
 40
0.9663373775
 40
1.0
 40
1.0
 40
1.0
 40
1.0
 10
349.8444441788
 20
136.2805543996
 30
0.0
 10
351.7228741091
 20
136.5563892499
 30
0.0
 10
355.3356517081
 20
137.1820865711
 30
0.0
 10
360.4689416991
 20
138.3902597529
 30
0.0
 10
365.0538611939
 20
139.8150840437
 30
0.0
 10
369.0030738169
 20
141.4285205638
 30
0.0
 10
371.8181431298
 20
142.9647512267
 30
0.0
 10
373.6623483453
 20
144.2844126779
 30
0.0
 10
374.7843088642
 20
145.2600112322
 30
0.0
 10
375.6994015369
 20
146.2600535654
 30
0.0
 10
376.402663444
 20
147.2816658154
 30
0.0
 10
376.8883894276
 20
148.321150064
 30
0.0
 10
377.0664769812
 20
149.0376194781
 30
0.0
 10
377.1146101017
 20
149.3894954063
 30
0.0
  0
SPLINE
  5
483
330
222
100
AcDbEntity
  8
02___PRT_ALL_AXES
  6
Continuous
 62
     7
100
AcDbSpline
 70
     0
 71
     3
 72
    14
 73
    10
 74
     0
 42
0.000000001
 43
0.0000001
 40
0.0
 40
0.0
 40
0.0
 40
0.0
 40
0.3531923837
 40
0.5067602393
 40
0.6418138982
 40
0.7571635458
 40
0.8529289353
 40
0.931720938
 40
1.0
 40
1.0
 40
1.0
 40
1.0
 10
301.4431844594
 20
155.9761959408
 30
0.0
 10
301.1294400853
 20
155.9301246815
 30
0.0
 10
300.6813887069
 20
155.841681649
 30
0.0
 10
300.1318832731
 20
155.6663059126
 30
0.0
 10
299.7975082986
 20
155.5240779769
 30
0.0
 10
299.5274902412
 20
155.3680383581
 30
0.0
 10
299.3264955396
 20
155.1998846023
 30
0.0
 10
299.1976334098
 20
155.0196965923
 30
0.0
 10
299.1664394925
 20
154.8864671815
 30
0.0
 10
299.1668976268
 20
154.8251654694
 30
0.0
  0
SPLINE
  5
484
330
222
100
AcDbEntity
  8
7_ALL_FEATURES
  6
Continuous
 62
     7
100
AcDbSpline
 70
     0
 71
     3
 72
    19
 73
    15
 74
     0
 42
0.000000001
 43
0.0000001
 40
0.0
 40
0.0
 40
0.0
 40
0.0
 40
0.141550443
 40
0.2883371633
 40
0.4350591993
 40
0.5067364821
 40
0.5764217582
 40
0.7073704709
 40
0.767560703
 40
0.8235808646
 40
0.8750454964
 40
0.9216720169
 40
0.9633124365
 40
1.0
 40
1.0
 40
1.0
 40
1.0
 10
342.3855723833
 20
93.1861369404
 30
0.0
 10
340.7803022816
 20
92.9504137789
 30
0.0
 10
337.4906900015
 20
92.5981835578
 30
0.0
 10
332.5044785544
 20
92.4036918576
 30
0.0
 10
328.3166542138
 20
92.5142958765
 30
0.0
 10
325.0239289483
 20
92.7715581705
 30
0.0
 10
321.9225497308
 20
93.1269477254
 30
0.0
 10
318.9716461215
 20
93.6326209782
 30
0.0
 10
316.2193163686
 20
94.3081383189
 30
0.0
 10
314.3786962536
 20
94.8649650416
 30
0.0
 10
312.7215208248
 20
95.4803719664
 30
0.0
 10
311.263788853
 20
96.1484006019
 30
0.0
 10
310.0196404277
 20
96.8622883668
 30
0.0
 10
309.2952555441
 20
97.3982209626
 30
0.0
 10
308.9784354946
 20
97.6747412762
 30
0.0
  0
SPLINE
  5
485
330
222
100
AcDbEntity
  8
7_ALL_FEATURES
  6
Continuous
 62
     7
100
AcDbSpline
 70
     0
 71
     3
 72
    11
 73
     7
 74
     0
 42
0.000000001
 43
0.0000001
 40
0.0
 40
0.0
 40
0.0
 40
0.0
 40
0.2146377732
 40
0.4530398019
 40
0.7150281887
 40
1.0
 40
1.0
 40
1.0
 40
1.0
 10
299.9067415947
 20
132.4452618311
 30
0.0
 10
300.326693963
 20
132.1249656761
 30
0.0
 10
301.2544079799
 20
131.502476724
 30
0.0
 10
302.8008571468
 20
130.6595472237
 30
0.0
 10
304.5640453223
 20
129.8646797874
 30
0.0
 10
305.8243814489
 20
129.3899737221
 30
0.0
 10
306.4868083935
 20
129.1599522889
 30
0.0
  0
SPLINE
  5
486
330
222
100
AcDbEntity
  8
7_ALL_FEATURES
  6
Continuous
 62
     7
100
AcDbSpline
 70
     0
 71
     3
 72
    17
 73
    13
 74
     0
 42
0.000000001
 43
0.0000001
 40
0.0
 40
0.0
 40
0.0
 40
0.0
 40
0.0519891104
 40
0.1080062182
 40
0.2302581945
 40
0.3625507313
 40
0.5000132802
 40
0.637473905
 40
0.769761437
 40
0.8920050842
 40
0.948017295
 40
1.0
 40
1.0
 40
1.0
 40
1.0
 10
306.4868083935
 20
129.1599522889
 30
0.0
 10
307.3445637777
 20
128.8621049196
 30
0.0
 10
309.1476444289
 20
128.3031967583
 30
0.0
 10
313.049899007
 20
127.3250866636
 30
0.0
 10
318.4010286603
 20
126.393173009
 30
0.0
 10
325.2218576543
 20
125.7407788256
 30
0.0
 10
332.3369875651
 20
125.554744504
 30
0.0
 10
339.448623036
 20
125.8429716346
 30
0.0
 10
346.2591107746
 20
126.5932725121
 30
0.0
 10
351.5959734292
 20
127.6019815606
 30
0.0
 10
355.4834254682
 20
128.6360303546
 30
0.0
 10
357.278078079
 20
129.2208000136
 30
0.0
 10
358.1313505674
 20
129.5309294559
 30
0.0
  0
SPLINE
  5
487
330
222
100
AcDbEntity
  8
7_ALL_FEATURES
  6
Continuous
 62
     7
100
AcDbSpline
 70
     0
 71
     3
 72
    11
 73
     7
 74
     0
 42
0.000000001
 43
0.0000001
 40
0.0
 40
0.0
 40
0.0
 40
0.0
 40
0.2907321852
 40
0.5546363248
 40
0.7909775536
 40
1.0
 40
1.0
 40
1.0
 40
1.0
 10
358.1313505674
 20
129.5309294559
 30
0.0
 10
358.8740590551
 20
129.8008734331
 30
0.0
 10
360.2764348808
 20
130.3575763662
 30
0.0
 10
362.2135414804
 20
131.295757493
 30
0.0
 10
363.86879849
 20
132.2895711922
 30
0.0
 10
364.8329330377
 20
133.0284633103
 30
0.0
 10
365.2555982733
 20
133.408128424
 30
0.0
  0
SPLINE
  5
488
330
222
100
AcDbEntity
  8
7_ALL_FEATURES
  6
Continuous
 62
     7
100
AcDbSpline
 70
     0
 71
     3
 72
     9
 73
     5
 74
     0
 42
0.000000001
 43
0.0000001
 40
0.0
 40
0.0
 40
0.0
 40
0.0
 40
0.5103314679
 40
1.0
 40
1.0
 40
1.0
 40
1.0
 10
358.0509448682
 20
109.5706426907
 30
0.0
 10
358.1403814621
 20
109.3739281451
 30
0.0
 10
358.2808371372
 20
108.9710750061
 30
0.0
 10
358.3319853114
 20
108.5467748535
 30
0.0
 10
358.3334866209
 20
108.339438214
 30
0.0
  0
SPLINE
  5
489
330
222
100
AcDbEntity
  8
7_ALL_FEATURES
  6
Continuous
 62
     7
100
AcDbSpline
 70
     0
 71
     3
 72
     9
 73
     5
 74
     0
 42
0.000000001
 43
0.0000001
 40
0.0
 40
0.0
 40
0.0
 40
0.0
 40
0.5103314679
 40
1.0
 40
1.0
 40
1.0
 40
1.0
 10
358.0839125947
 20
104.966563045
 30
0.0
 10
358.1733491886
 20
104.7698484994
 30
0.0
 10
358.3138048637
 20
104.3669953604
 30
0.0
 10
358.3649530379
 20
103.9426952078
 30
0.0
 10
358.3664543474
 20
103.7353585683
 30
0.0
  0
SPLINE
  5
48A
330
222
100
AcDbEntity
  8
7_ALL_FEATURES
  6
Continuous
 62
     7
100
AcDbSpline
 70
     0
 71
     3
 72
     9
 73
     5
 74
     0
 42
0.000000001
 43
0.0000001
 40
0.0
 40
0.0
 40
0.0
 40
0.0
 40
0.5101475049
 40
1.0
 40
1.0
 40
1.0
 40
1.0
 10
358.0232074523
 20
114.1631635504
 30
0.0
 10
358.1110262816
 20
113.968158779
 30
0.0
 10
358.2488648217
 20
113.5689374838
 30
0.0
 10
358.2990319466
 20
113.1488710913
 30
0.0
 10
358.3005188944
 20
112.9435178597
 30
0.0
  0
SPLINE
  5
48B
330
222
100
AcDbEntity
  8
7_ALL_FEATURES
  6
Continuous
 62
     7
100
AcDbSpline
 70
     0
 71
     3
 72
    11
 73
     7
 74
     0
 42
0.000000001
 43
0.0000001
 40
0.0
 40
0.0
 40
0.0
 40
0.0
 40
0.2927653226
 40
0.5512338329
 40
0.7830096861
 40
1.0
 40
1.0
 40
1.0
 40
1.0
 10
308.3463693917
 20
111.9565344907
 30
0.0
 10
308.0680541316
 20
112.1861228435
 30
0.0
 10
307.5698621214
 20
112.6522630889
 30
0.0
 10
306.9849380019
 20
113.4273172661
 30
0.0
 10
306.6219777083
 20
114.2290116246
 30
0.0
 10
306.5360822679
 20
114.7841442546
 30
0.0
 10
306.5341617251
 20
115.0515466489
 30
0.0
  0
SPLINE
  5
48C
330
222
100
AcDbEntity
  8
7_ALL_FEATURES
  6
Continuous
 62
     7
100
AcDbSpline
 70
     0
 71
     3
 72
    11
 73
     7
 74
     0
 42
0.000000001
 43
0.0000001
 40
0.0
 40
0.0
 40
0.0
 40
0.0
 40
0.3143876474
 40
0.5884207716
 40
0.8165268562
 40
1.0
 40
1.0
 40
1.0
 40
1.0
 10
309.7877299096
 20
113.0799753003
 30
0.0
 10
309.776256758
 20
112.9108254211
 30
0.0
 10
309.7363537838
 20
112.594958508
 30
0.0
 10
309.6163399364
 20
112.1690422603
 30
0.0
 10
309.4490270836
 20
111.8365812013
 30
0.0
 10
309.2940251034
 20
111.6697004649
 30
0.0
 10
309.2115666208
 20
111.6150206494
 30
0.0
  0
SPLINE
  5
48D
330
222
100
AcDbEntity
  8
7_ALL_FEATURES
  6
Continuous
 62
     7
100
AcDbSpline
 70
     0
 71
     3
 72
     8
 73
     4
 74
     0
 42
0.000000001
 43
0.0000001
 40
0.0
 40
0.0
 40
0.0
 40
0.0
 40
1.0
 40
1.0
 40
1.0
 40
1.0
 10
309.2115666208
 20
111.6150206494
 30
0.0
 10
309.1929798869
 20
111.6026954265
 30
0.0
 10
309.1736760348
 20
111.5913717477
 30
0.0
 10
309.1537652792
 20
111.5813248772
 30
0.0
  0
SPLINE
  5
48E
330
222
100
AcDbEntity
  8
7_ALL_FEATURES
  6
Continuous
 62
     7
100
AcDbSpline
 70
     0
 71
     3
 72
     9
 73
     5
 74
     0
 42
0.000000001
 43
0.0000001
 40
0.0
 40
0.0
 40
0.0
 40
0.0
 40
0.257218735
 40
1.0
 40
1.0
 40
1.0
 40
1.0
 10
309.1537652792
 20
111.5813248772
 30
0.0
 10
309.1421943226
 20
111.5754862288
 30
0.0
 10
309.0964065371
 20
111.5544348779
 30
0.0
 10
309.0472939063
 20
111.540451596
 30
0.0
 10
309.0102785099
 20
111.5349173253
 30
0.0
  0
SPLINE
  5
48F
330
222
100
AcDbEntity
  8
7_ALL_FEATURES
  6
Continuous
 62
     7
100
AcDbSpline
 70
     0
 71
     3
 72
     9
 73
     5
 74
     0
 42
0.000000001
 43
0.0000001
 40
0.0
 40
0.0
 40
0.0
 40
0.0
 40
0.5103314679
 40
1.0
 40
1.0
 40
1.0
 40
1.0
 10
357.9520416886
 20
123.3828816279
 30
0.0
 10
358.0414782826
 20
123.1861670822
 30
0.0
 10
358.1819339576
 20
122.7833139433
 30
0.0
 10
358.2330821319
 20
122.3590137907
 30
0.0
 10
358.2345834414
 20
122.1516771511
 30
0.0
  0
SPLINE
  5
490
330
222
100
AcDbEntity
  8
7_ALL_FEATURES
  6
Continuous
 62
     7
100
AcDbSpline
 70
     0
 71
     3
 72
     9
 73
     5
 74
     0
 42
0.000000001
 43
0.0000001
 40
0.0
 40
0.0
 40
0.0
 40
0.0
 40
0.5103314679
 40
1.0
 40
1.0
 40
1.0
 40
1.0
 10
357.9190739621
 20
127.9869612736
 30
0.0
 10
358.0085105561
 20
127.790246728
 30
0.0
 10
358.1489662311
 20
127.387393589
 30
0.0
 10
358.2001144054
 20
126.9630934364
 30
0.0
 10
358.2016157149
 20
126.7557567968
 30
0.0
  0
SPLINE
  5
491
330
222
100
AcDbEntity
  8
7_ALL_FEATURES
  6
Continuous
 62
     7
100
AcDbSpline
 70
     0
 71
     3
 72
    21
 73
    17
 74
     0
 42
0.000000001
 43
0.0000001
 40
0.0
 40
0.0
 40
0.0
 40
0.0
 40
0.1580646381
 40
0.3216528366
 40
0.4819656046
 40
0.5582146788
 40
0.6305068685
 40
0.6979427945
 40
0.7597429172
 40
0.8152868513
 40
0.8641703168
 40
0.9062982423
 40
0.9420450792
 40
0.9725219014
 40
0.9864679449
 40
1.0
 40
1.0
 40
1.0
 40
1.0
 10
342.6422536378
 20
98.2737539367
 30
0.0
 10
340.6156032934
 20
97.9761539117
 30
0.0
 10
336.4610293225
 20
97.5672316767
 30
0.0
 10
330.2103580975
 20
97.4591486414
 30
0.0
 10
325.027944805
 20
97.7827733171
 30
0.0
 10
321.0578184962
 20
98.3005161315
 30
0.0
 10
318.302174787
 20
98.7978119434
 30
0.0
 10
315.7599682041
 20
99.4025407367
 30
0.0
 10
313.4688202936
 20
100.1054292284
 30
0.0
 10
311.4620502343
 20
100.895876893
 30
0.0
 10
309.7677027871
 20
101.7622950673
 30
0.0
 10
308.4078520871
 20
102.6947272958
 30
0.0
 10
307.398835814
 20
103.6841962894
 30
0.0
 10
306.8509896263
 20
104.5869790595
 30
0.0
 10
306.6379709335
 20
105.3109820173
 30
0.0
 10
306.6013297591
 20
105.6676691502
 30
0.0
 10
306.6000599945
 20
105.8430285479
 30
0.0
  0
SPLINE
  5
492
330
222
100
AcDbEntity
  8
7_ALL_FEATURES
  6
Continuous
 62
     7
100
AcDbSpline
 70
     0
 71
     3
 72
     9
 73
     5
 74
     0
 42
0.000000001
 43
0.0000001
 40
0.0
 40
0.0
 40
0.0
 40
0.0
 40
0.4956284452
 40
1.0
 40
1.0
 40
1.0
 40
1.0
 10
339.9745561274
 20
102.5452815245
 30
0.0
 10
338.3763394508
 20
102.3751883962
 30
0.0
 10
335.1393489791
 20
102.1418821296
 30
0.0
 10
331.8943568882
 20
102.1100551111
 30
0.0
 10
330.2591377693
 20
102.1451142027
 30
0.0
  0
SPLINE
  5
493
330
222
100
AcDbEntity
  8
7_ALL_FEATURES
  6
Continuous
 62
     7
100
AcDbSpline
 70
     0
 71
     3
 72
    19
 73
    15
 74
     0
 42
0.000000001
 43
0.0000001
 40
0.0
 40
0.0
 40
0.0
 40
0.0
 40
0.1782897795
 40
0.3485810371
 40
0.5058429687
 40
0.6457165303
 40
0.7080754474
 40
0.764963909
 40
0.8162375682
 40
0.8619214805
 40
0.9022873722
 40
0.9379483789
 40
0.9699808665
 40
1.0
 40
1.0
 40
1.0
 40
1.0
 10
330.2591377693
 20
102.1451142027
 30
0.0
 10
328.6848020187
 20
102.178867955
 30
0.0
 10
325.607831829
 20
102.3374510994
 30
0.0
 10
321.1665772923
 20
102.8535072369
 30
0.0
 10
317.1072631956
 20
103.6263629034
 30
0.0
 10
314.0455306182
 20
104.4906989675
 30
0.0
 10
311.9062771799
 20
105.3080497418
 30
0.0
 10
310.5388645136
 20
105.9427677333
 30
0.0
 10
309.3570807634
 20
106.6173442257
 30
0.0
 10
308.3701602702
 20
107.3271355809
 30
0.0
 10
307.5856047327
 20
108.0678459408
 30
0.0
 10
307.0103099291
 20
108.8370187284
 30
0.0
 10
306.6536167204
 20
109.6319027385
 30
0.0
 10
306.5690120488
 20
110.1819790489
 30
0.0
 10
306.567092268
 20
110.4471081937
 30
0.0
  0
SPLINE
  5
494
330
222
100
AcDbEntity
  8
7_ALL_FEATURES
  6
Continuous
 62
     7
100
AcDbSpline
 70
     0
 71
     3
 72
    17
 73
    13
 74
     0
 42
0.000000001
 43
0.0000001
 40
0.0
 40
0.0
 40
0.0
 40
0.0
 40
0.1373990911
 40
0.2798648364
 40
0.4229030338
 40
0.5619757035
 40
0.6927419442
 40
0.811282099
 40
0.8649440531
 40
0.9144160073
 40
0.9594812117
 40
1.0
 40
1.0
 40
1.0
 40
1.0
 10
342.5433504583
 20
112.0859928738
 30
0.0
 10
341.0000982792
 20
111.8593766308
 30
0.0
 10
337.839043679
 20
111.5127578438
 30
0.0
 10
333.0402029358
 20
111.2942505158
 30
0.0
 10
328.2177844352
 20
111.3705357782
 30
0.0
 10
323.5417330034
 20
111.7386727612
 30
0.0
 10
319.176746203
 20
112.3849864885
 30
0.0
 10
315.8198883131
 20
113.15823752
 30
0.0
 10
313.4181986742
 20
113.9136488991
 30
0.0
 10
311.8450576079
 20
114.5135371577
 30
0.0
 10
310.4533768418
 20
115.1601286297
 30
0.0
 10
309.6090486023
 20
115.6445691963
 30
0.0
 10
309.2237699051
 20
115.8958557923
 30
0.0
  0
SPLINE
  5
495
330
222
100
AcDbEntity
  8
7_ALL_FEATURES
  6
Continuous
 62
     7
100
AcDbSpline
 70
     0
 71
     3
 72
    10
 73
     6
 74
     0
 42
0.000000001
 43
0.0000001
 40
0.0
 40
0.0
 40
0.0
 40
0.0
 40
0.1982112455
 40
0.4326765538
 40
1.0
 40
1.0
 40
1.0
 40
1.0
 10
308.5794651107
 20
116.7898727805
 30
0.0
 10
308.6377623524
 20
116.7454096849
 30
0.0
 10
308.7545055321
 20
116.6345559313
 30
0.0
 10
308.9856470964
 20
116.3450039716
 30
0.0
 10
309.1322427445
 20
116.0846961446
 30
0.0
 10
309.2237699051
 20
115.8958557923
 30
0.0
  0
SPLINE
  5
496
330
222
100
AcDbEntity
  8
7_ALL_FEATURES
  6
Continuous
 62
     7
100
AcDbSpline
 70
     0
 71
     3
 72
    11
 73
     7
 74
     0
 42
0.000000001
 43
0.0000001
 40
0.0
 40
0.0
 40
0.0
 40
0.0
 40
0.2877779473
 40
0.5449931187
 40
0.7788664065
 40
1.0
 40
1.0
 40
1.0
 40
1.0
 10
308.0243425824
 20
116.8106546764
 30
0.0
 10
307.7888924084
 20
117.0245898166
 30
0.0
 10
307.3674855449
 20
117.4587443649
 30
0.0
 10
306.8770992709
 20
118.172589977
 30
0.0
 10
306.5742913529
 20
118.9066354249
 30
0.0
 10
306.5029281577
 20
119.4112639064
 30
0.0
 10
306.5011763411
 20
119.6557122547
 30
0.0
  0
SPLINE
  5
497
330
222
100
AcDbEntity
  8
7_ALL_FEATURES
  6
Continuous
 62
     7
100
AcDbSpline
 70
     0
 71
     3
 72
    21
 73
    17
 74
     0
 42
0.000000001
 43
0.0000001
 40
0.0
 40
0.0
 40
0.0
 40
0.0
 40
0.1580646381
 40
0.3216528366
 40
0.4819656046
 40
0.5582146788
 40
0.6305068685
 40
0.6979427945
 40
0.7597429172
 40
0.8152868513
 40
0.8641703168
 40
0.9062982423
 40
0.9420450792
 40
0.9725219014
 40
0.9864679449
 40
1.0
 40
1.0
 40
1.0
 40
1.0
 10
342.5103827318
 20
116.6900725196
 30
0.0
 10
340.4837323874
 20
116.3924724946
 30
0.0
 10
336.3291584164
 20
115.9835502596
 30
0.0
 10
330.0784871914
 20
115.8754672242
 30
0.0
 10
324.896073899
 20
116.1990919
 30
0.0
 10
320.9259475902
 20
116.7168347144
 30
0.0
 10
318.170303881
 20
117.2141305263
 30
0.0
 10
315.628097298
 20
117.8188593196
 30
0.0
 10
313.3369493875
 20
118.5217478112
 30
0.0
 10
311.3301793282
 20
119.3121954759
 30
0.0
 10
309.635831881
 20
120.1786136502
 30
0.0
 10
308.2759811811
 20
121.1110458787
 30
0.0
 10
307.266964908
 20
122.1005148723
 30
0.0
 10
306.7191187202
 20
123.0032976424
 30
0.0
 10
306.5061000275
 20
123.7273006001
 30
0.0
 10
306.4694588531
 20
124.083987733
 30
0.0
 10
306.4681890885
 20
124.2593471308
 30
0.0
  0
SPLINE
  5
498
330
222
100
AcDbEntity
  8
7_ALL_FEATURES
  6
Continuous
 62
     7
100
AcDbSpline
 70
     0
 71
     3
 72
    15
 73
    11
 74
     0
 42
0.000000001
 43
0.0000001
 40
0.0
 40
0.0
 40
0.0
 40
0.0
 40
0.1276759216
 40
0.2597864949
 40
0.393719639
 40
0.5268087346
 40
0.6564123244
 40
0.7799946573
 40
0.8952104252
 40
1.0
 40
1.0
 40
1.0
 40
1.0
 10
342.4774150053
 20
121.2941521653
 30
0.0
 10
341.2619948662
 20
121.1156758609
 30
0.0
 10
338.7780242523
 20
120.8240507126
 30
0.0
 10
334.9963892087
 20
120.5766748037
 30
0.0
 10
331.1550135871
 20
120.5147702911
 30
0.0
 10
327.3393081172
 20
120.6397507116
 30
0.0
 10
323.6339016451
 20
120.9487004795
 30
0.0
 10
320.1206917757
 20
121.4344752418
 30
0.0
 10
316.8774703793
 20
122.0857822587
 30
0.0
 10
314.8343876291
 20
122.6500206823
 30
0.0
 10
313.8761505915
 20
122.963627286
 30
0.0
  0
SPLINE
  5
499
330
222
100
AcDbEntity
  8
7_ALL_FEATURES
  6
Continuous
 62
     7
100
AcDbSpline
 70
     0
 71
     3
 72
    15
 73
    11
 74
     0
 42
0.000000001
 43
0.0000001
 40
0.0
 40
0.0
 40
0.0
 40
0.0
 40
0.1773404819
 40
0.3390983827
 40
0.4847050604
 40
0.6140938002
 40
0.7279190298
 40
0.8278441455
 40
0.9169487476
 40
1.0
 40
1.0
 40
1.0
 40
1.0
 10
313.8761505915
 20
122.963627286
 30
0.0
 10
313.3133733419
 20
123.1478099622
 30
0.0
 10
312.2466435753
 20
123.5300115635
 30
0.0
 10
310.7626159515
 20
124.1794852832
 30
0.0
 10
309.4779877877
 20
124.8741367911
 30
0.0
 10
308.4037559941
 20
125.6084538747
 30
0.0
 10
307.5486666961
 20
126.3774779167
 30
0.0
 10
306.9206182455
 20
127.1785329636
 30
0.0
 10
306.5301002276
 20
128.0090057561
 30
0.0
 10
306.4372293112
 20
128.586121222
 30
0.0
 10
306.435221362
 20
128.8634267765
 30
0.0
  0
SPLINE
  5
49A
330
222
100
AcDbEntity
  8
7_ALL_FEATURES
  6
Continuous
 62
     7
100
AcDbSpline
 70
     0
 71
     3
 72
     9
 73
     5
 74
     0
 42
0.000000001
 43
0.0000001
 40
0.0
 40
0.0
 40
0.0
 40
0.0
 40
0.2385900326
 40
1.0
 40
1.0
 40
1.0
 40
1.0
 10
311.5220038089
 20
113.3346418032
 30
0.0
 10
311.5297337696
 20
113.4466900181
 30
0.0
 10
311.5434232295
 20
113.9175397145
 30
0.0
 10
311.4900327742
 20
114.3893276081
 30
0.0
 10
311.4196296784
 20
114.7407734933
 30
0.0
  0
SPLINE
  5
49B
330
222
100
AcDbEntity
  8
7_ALL_FEATURES
  6
Continuous
 62
     7
100
AcDbSpline
 70
     0
 71
     3
 72
     9
 73
     5
 74
     0
 42
0.000000001
 43
0.0000001
 40
0.0
 40
0.0
 40
0.0
 40
0.0
 40
0.2340532763
 40
1.0
 40
1.0
 40
1.0
 40
1.0
 10
308.2191703449
 20
116.9145196257
 30
0.0
 10
308.2359531523
 20
116.9169926458
 30
0.0
 10
308.3085890864
 20
116.9216484147
 30
0.0
 10
308.3812282866
 20
116.9018003272
 30
0.0
 10
308.4319861037
 20
116.8793148527
 30
0.0
  0
SPLINE
  5
49C
330
222
100
AcDbEntity
  8
7_ALL_FEATURES
  6
Continuous
 62
     7
100
AcDbSpline
 70
     0
 71
     3
 72
     9
 73
     5
 74
     0
 42
0.000000001
 43
0.0000001
 40
0.0
 40
0.0
 40
0.0
 40
0.0
 40
0.2330231675
 40
1.0
 40
1.0
 40
1.0
 40
1.0
 10
308.4319861037
 20
116.8793148527
 30
0.0
 10
308.4442517736
 20
116.8738812186
 30
0.0
 10
308.4960482789
 20
116.8486659605
 30
0.0
 10
308.5443558562
 20
116.816650482
 30
0.0
 10
308.5794651107
 20
116.7898727805
 30
0.0
  0
SPLINE
  5
49D
330
222
100
AcDbEntity
  8
7_ALL_FEATURES
  6
Continuous
 62
     7
100
AcDbSpline
 70
     0
 71
     3
 72
    11
 73
     7
 74
     0
 42
0.000000001
 43
0.0000001
 40
0.0
 40
0.0
 40
0.0
 40
0.0
 40
0.2898828112
 40
0.547526797
 40
0.7805455019
 40
1.0
 40
1.0
 40
1.0
 40
1.0
 10
365.6050772501
 20
133.7220584927
 30
0.0
 10
365.9477810389
 20
134.0299088866
 30
0.0
 10
366.5601443199
 20
134.6533246965
 30
0.0
 10
367.2708295208
 20
135.6791120765
 30
0.0
 10
367.7045689292
 20
136.7319031957
 30
0.0
 10
367.8002838594
 20
137.4548902536
 30
0.0
 10
367.7977655725
 20
137.803630086
 30
0.0
  0
SPLINE
  5
49E
330
222
100
AcDbEntity
  8
7_ALL_FEATURES
  6
Continuous
 62
     7
100
AcDbSpline
 70
     0
 71
     3
 72
    11
 73
     7
 74
     0
 42
0.000000001
 43
0.0000001
 40
0.0
 40
0.0
 40
0.0
 40
0.0
 40
0.2898781261
 40
0.5475304937
 40
0.7805468914
 40
1.0
 40
1.0
 40
1.0
 40
1.0
 10
308.2713470163
 20
98.2918387199
 30
0.0
 10
308.0187224633
 20
98.5122926066
 30
0.0
 10
307.5666265751
 20
98.9596708829
 30
0.0
 10
307.0386317469
 20
99.6987349402
 30
0.0
 10
306.7120543656
 20
100.4604306124
 30
0.0
 10
306.6348193548
 20
100.9855855155
 30
0.0
 10
306.6330234653
 20
101.2394111247
 30
0.0
  0
SPLINE
  5
49F
330
222
100
AcDbEntity
  8
7_ALL_FEATURES
  6
Continuous
 62
     7
100
AcDbSpline
 70
     0
 71
     3
 72
    14
 73
    10
 74
     0
 42
0.000000001
 43
0.0000001
 40
0.0
 40
0.0
 40
0.0
 40
0.0
 40
0.0864858673
 40
0.1847208457
 40
0.2947837393
 40
0.4163101336
 40
0.5486149884
 40
0.6907700097
 40
1.0
 40
1.0
 40
1.0
 40
1.0
 10
356.0870014934
 20
98.0115962679
 30
0.0
 10
355.7719131642
 20
97.7285605261
 30
0.0
 10
355.0494431323
 20
97.178619468
 30
0.0
 10
353.8050064831
 20
96.4425684267
 30
0.0
 10
352.3436355811
 20
95.7500773796
 30
0.0
 10
350.6798042372
 20
95.1080879696
 30
0.0
 10
348.8297884901
 20
94.5229376785
 30
0.0
 10
346.0614710896
 20
93.806830793
 30
0.0
 10
343.8838865001
 20
93.4061543277
 30
0.0
 10
342.3855723833
 20
93.1861369404
 30
0.0
  0
SPLINE
  5
4A0
330
222
100
AcDbEntity
  8
7_ALL_FEATURES
  6
Continuous
 62
     7
100
AcDbSpline
 70
     0
 71
     3
 72
    11
 73
     7
 74
     0
 42
0.000000001
 43
0.0000001
 40
0.0
 40
0.0
 40
0.0
 40
0.0
 40
0.2194242789
 40
0.4524021944
 40
0.7100438603
 40
1.0
 40
1.0
 40
1.0
 40
1.0
 10
296.6995926025
 20
137.294360216
 30
0.0
 10
296.7021122204
 20
136.9454360326
 30
0.0
 10
296.8082943703
 20
136.2235343041
 30
0.0
 10
297.2575224219
 20
135.1765487719
 30
0.0
 10
297.9836555379
 20
134.1605478038
 30
0.0
 10
298.60557827
 20
133.5456833698
 30
0.0
 10
298.9530506387
 20
133.2425807959
 30
0.0
  0
SPLINE
  5
4A1
330
222
100
AcDbEntity
  8
7_ALL_FEATURES
  6
Continuous
 62
     7
100
AcDbSpline
 70
     0
 71
     3
 72
     9
 73
     5
 74
     0
 42
0.000000001
 43
0.0000001
 40
0.0
 40
0.0
 40
0.0
 40
0.0
 40
0.4894112716
 40
1.0
 40
1.0
 40
1.0
 40
1.0
 10
306.6178118473
 20
103.3639087387
 30
0.0
 10
306.6162894522
 20
103.5741573865
 30
0.0
 10
306.6625509173
 20
104.005386579
 30
0.0
 10
306.8008812854
 20
104.4156335099
 30
0.0
 10
306.8898237231
 20
104.6161443546
 30
0.0
  0
SPLINE
  5
4A2
330
222
100
AcDbEntity
  8
7_ALL_FEATURES
  6
Continuous
 62
     7
100
AcDbSpline
 70
     0
 71
     3
 72
     9
 73
     5
 74
     0
 42
0.000000001
 43
0.0000001
 40
0.0
 40
0.0
 40
0.0
 40
0.0
 40
0.4894112716
 40
1.0
 40
1.0
 40
1.0
 40
1.0
 10
306.5848441208
 20
107.9679883844
 30
0.0
 10
306.5833217257
 20
108.1782370322
 30
0.0
 10
306.6295831908
 20
108.6094662247
 30
0.0
 10
306.7679135589
 20
109.0197131556
 30
0.0
 10
306.8568559966
 20
109.2202240003
 30
0.0
  0
SPLINE
  5
4A3
330
222
100
AcDbEntity
  8
7_ALL_FEATURES
  6
Continuous
 62
     7
100
AcDbSpline
 70
     0
 71
     3
 72
     9
 73
     5
 74
     0
 42
0.000000001
 43
0.0000001
 40
0.0
 40
0.0
 40
0.0
 40
0.0
 40
0.4889960437
 40
1.0
 40
1.0
 40
1.0
 40
1.0
 10
306.5518763943
 20
112.5720680301
 30
0.0
 10
306.550322315
 20
112.7866923889
 30
0.0
 10
306.5986760518
 20
113.2273270646
 30
0.0
 10
306.7428317209
 20
113.6456252895
 30
0.0
 10
306.8353768439
 20
113.8499320826
 30
0.0
  0
SPLINE
  5
4A4
330
222
100
AcDbEntity
  8
7_ALL_FEATURES
  6
Continuous
 62
     7
100
AcDbSpline
 70
     0
 71
     3
 72
     9
 73
     5
 74
     0
 42
0.000000001
 43
0.0000001
 40
0.0
 40
0.0
 40
0.0
 40
0.0
 40
0.4894112716
 40
1.0
 40
1.0
 40
1.0
 40
1.0
 10
306.4859409412
 20
121.7802273216
 30
0.0
 10
306.4844185461
 20
121.9904759694
 30
0.0
 10
306.5306800112
 20
122.4217051618
 30
0.0
 10
306.6690103793
 20
122.8319520927
 30
0.0
 10
306.7579528171
 20
123.0324629375
 30
0.0
  0
SPLINE
  5
4A5
330
222
100
AcDbEntity
  8
7_ALL_FEATURES
  6
Continuous
 62
     7
100
AcDbSpline
 70
     0
 71
     3
 72
     9
 73
     5
 74
     0
 42
0.000000001
 43
0.0000001
 40
0.0
 40
0.0
 40
0.0
 40
0.0
 40
0.4894112716
 40
1.0
 40
1.0
 40
1.0
 40
1.0
 10
306.4529732147
 20
126.3843069673
 30
0.0
 10
306.4514508196
 20
126.5945556151
 30
0.0
 10
306.4977122847
 20
127.0257848075
 30
0.0
 10
306.6360426528
 20
127.4360317384
 30
0.0
 10
306.7249850906
 20
127.6365425832
 30
0.0
  0
SPLINE
  5
4A6
330
222
100
AcDbEntity
  8
7_ALL_FEATURES
  6
Continuous
 62
     7
100
AcDbSpline
 70
     0
 71
     3
 72
    11
 73
     7
 74
     0
 42
0.000000001
 43
0.0000001
 40
0.0
 40
0.0
 40
0.0
 40
0.0
 40
0.2194527745
 40
0.4524726558
 40
0.7101154466
 40
1.0
 40
1.0
 40
1.0
 40
1.0
 10
358.3816744837
 20
101.6099355593
 30
0.0
 10
358.3834703376
 20
101.3561149743
 30
0.0
 10
358.3138615073
 20
100.8299036599
 30
0.0
 10
357.998109225
 20
100.0636746015
 30
0.0
 10
357.4808900301
 20
99.3170586668
 30
0.0
 10
357.0351781766
 20
98.8633309868
 30
0.0
 10
356.7857482527
 20
98.6392669983
 30
0.0
  0
SPLINE
  5
4A7
330
222
100
AcDbEntity
  8
7_ALL_FEATURES
  6
Continuous
 62
     7
100
AcDbSpline
 70
     0
 71
     3
 72
    15
 73
    11
 74
     0
 42
0.000000001
 43
0.0000001
 40
0.0
 40
0.0
 40
0.0
 40
0.0
 40
0.083263948
 40
0.1725310534
 40
0.2725390229
 40
0.3863720487
 40
0.5157041215
 40
0.6611957895
 40
0.8228105543
 40
1.0
 40
1.0
 40
1.0
 40
1.0
 10
358.1838638621
 20
129.2348766061
 30
0.0
 10
358.185860632
 20
128.9591149591
 30
0.0
 10
358.1025897388
 20
128.3841533612
 30
0.0
 10
357.7284156138
 20
127.5527185122
 30
0.0
 10
357.1189363097
 20
126.7467575854
 30
0.0
 10
356.2841337072
 20
125.969190958
 30
0.0
 10
355.2318479209
 20
125.2227698531
 30
0.0
 10
353.9706438701
 20
124.512330385
 30
0.0
 10
352.5110935662
 20
123.8436343587
 30
0.0
 10
351.4605067891
 20
123.4469780344
 30
0.0
 10
350.9059347242
 20
123.2550375588
 30
0.0
  0
SPLINE
  5
4A8
330
222
100
AcDbEntity
  8
7_ALL_FEATURES
  6
Continuous
 62
     7
100
AcDbSpline
 70
     0
 71
     3
 72
     9
 73
     5
 74
     0
 42
0.000000001
 43
0.0000001
 40
0.0
 40
0.0
 40
0.0
 40
0.0
 40
0.4710100713
 40
1.0
 40
1.0
 40
1.0
 40
1.0
 10
350.9059347242
 20
123.2550375588
 30
0.0
 10
349.6206579352
 20
122.8101961149
 30
0.0
 10
346.8319216942
 20
122.0377374937
 30
0.0
 10
343.9887106024
 20
121.5160757984
 30
0.0
 10
342.4774150053
 20
121.2941521653
 30
0.0
  0
SPLINE
  5
4A9
330
222
100
AcDbEntity
  8
7_ALL_FEATURES
  6
Continuous
 62
     7
100
AcDbSpline
 70
     0
 71
     3
 72
    18
 73
    14
 74
     0
 42
0.000000001
 43
0.0000001
 40
0.0
 40
0.0
 40
0.0
 40
0.0
 40
0.0335864597
 40
0.0685999599
 40
0.1062806318
 40
0.1475764697
 40
0.1931479017
 40
0.2434037709
 40
0.3586308534
 40
0.4935825715
 40
0.6470122822
 40
0.8167560516
 40
1.0
 40
1.0
 40
1.0
 40
1.0
 10
358.2168315886
 20
124.6307969603
 30
0.0
 10
358.2183395124
 20
124.4225468552
 30
0.0
 10
358.1729746598
 20
123.9954683957
 30
0.0
 10
357.9629256499
 20
123.366248807
 30
0.0
 10
357.6145809741
 20
122.7470567968
 30
0.0
 10
357.1321940231
 20
122.1405921109
 30
0.0
 10
356.51913162
 20
121.5485984459
 30
0.0
 10
355.4840554714
 20
120.7445900693
 30
0.0
 10
353.8641064215
 20
119.8087315348
 30
0.0
 10
351.5573901789
 20
118.8281899603
 30
0.0
 10
348.8481753454
 20
117.9628027876
 30
0.0
 10
345.7922334637
 20
117.2311430596
 30
0.0
 10
343.6345461788
 20
116.8551483901
 30
0.0
 10
342.5103827318
 20
116.6900725196
 30
0.0
  0
SPLINE
  5
4AA
330
222
100
AcDbEntity
  8
7_ALL_FEATURES
  6
Continuous
 62
     7
100
AcDbSpline
 70
     0
 71
     3
 72
    18
 73
    14
 74
     0
 42
0.000000001
 43
0.0000001
 40
0.0
 40
0.0
 40
0.0
 40
0.0
 40
0.0335864597
 40
0.0685999599
 40
0.1062806318
 40
0.1475764697
 40
0.1931479017
 40
0.2434037709
 40
0.3586308534
 40
0.4935825715
 40
0.6470122822
 40
0.8167560516
 40
1.0
 40
1.0
 40
1.0
 40
1.0
 10
358.2497993151
 20
120.0267173146
 30
0.0
 10
358.2513072389
 20
119.8184672095
 30
0.0
 10
358.2059423863
 20
119.39138875
 30
0.0
 10
357.9958933765
 20
118.7621691613
 30
0.0
 10
357.6475487006
 20
118.142977151
 30
0.0
 10
357.1651617496
 20
117.5365124651
 30
0.0
 10
356.5520993465
 20
116.9445188002
 30
0.0
 10
355.5170231979
 20
116.1405104236
 30
0.0
 10
353.897074148
 20
115.2046518891
 30
0.0
 10
351.5903579054
 20
114.2241103146
 30
0.0
 10
348.8811430719
 20
113.3587231419
 30
0.0
 10
345.8252011902
 20
112.6270634139
 30
0.0
 10
343.6675139053
 20
112.2510687444
 30
0.0
 10
342.5433504583
 20
112.0859928738
 30
0.0
  0
SPLINE
  5
4AB
330
222
100
AcDbEntity
  8
7_ALL_FEATURES
  6
Continuous
 62
     7
100
AcDbSpline
 70
     0
 71
     3
 72
     9
 73
     5
 74
     0
 42
0.000000001
 43
0.0000001
 40
0.0
 40
0.0
 40
0.0
 40
0.0
 40
0.4898843796
 40
1.0
 40
1.0
 40
1.0
 40
1.0
 10
358.2675385631
 20
117.5468196851
 30
0.0
 10
358.266081816
 20
117.7519270559
 30
0.0
 10
358.216239257
 20
118.1714784107
 30
0.0
 10
358.0788028946
 20
118.5702817223
 30
0.0
 10
357.9912053572
 20
118.7650751742
 30
0.0
  0
SPLINE
  5
4AC
330
222
100
AcDbEntity
  8
7_ALL_FEATURES
  6
Continuous
 62
     7
100
AcDbSpline
 70
     0
 71
     3
 72
     9
 73
     5
 74
     0
 42
0.000000001
 43
0.0000001
 40
0.0
 40
0.0
 40
0.0
 40
0.0
 40
0.5113661034
 40
1.0
 40
1.0
 40
1.0
 40
1.0
 10
306.8122937636
 20
118.4756723791
 30
0.0
 10
306.7167205972
 20
118.2682551988
 30
0.0
 10
306.5676475838
 20
117.8433787234
 30
0.0
 10
306.5173487876
 20
117.3950033663
 30
0.0
 10
306.5188892717
 20
117.176783916
 30
0.0
  0
SPLINE
  5
4AD
330
222
100
AcDbEntity
  8
7_ALL_FEATURES
  6
Continuous
 62
     7
100
AcDbSpline
 70
     0
 71
     3
 72
    28
 73
    24
 74
     0
 42
0.000000001
 43
0.0000001
 40
0.0
 40
0.0
 40
0.0
 40
0.0
 40
0.0136655498
 40
0.02809974
 40
0.0439410084
 40
0.0616422777
 40
0.0814841299
 40
0.1036160038
 40
0.1280870755
 40
0.1548785308
 40
0.2150610156
 40
0.2831500305
 40
0.3576617741
 40
0.43681826
 40
0.5186500258
 40
0.6010832422
 40
0.6820211783
 40
0.7594246029
 40
0.8313945147
 40
0.8962653745
 40
0.9527160442
 40
0.9775328943
 40
1.0
 40
1.0
 40
1.0
 40
1.0
 10
358.2827707625
 20
115.4226212233
 30
0.0
 10
358.2845182187
 20
115.1811910365
 30
0.0
 10
358.2221174535
 20
114.6822055378
 30
0.0
 10
357.937381246
 20
113.9530353178
 30
0.0
 10
357.4691367223
 20
113.2404257584
 30
0.0
 10
356.8241887243
 20
112.5475143098
 30
0.0
 10
356.0079582418
 20
111.8763064068
 30
0.0
 10
355.0257433525
 20
111.2301921244
 30
0.0
 10
353.8840438818
 20
110.6126353169
 30
0.0
 10
352.0884576913
 20
109.8015128927
 30
0.0
 10
349.4930711848
 20
108.9068645125
 30
0.0
 10
346.0126025952
 20
108.0432492146
 30
0.0
 10
342.1485656574
 20
107.3775591334
 30
0.0
 10
338.0096405969
 20
106.9293395216
 30
0.0
 10
333.7122256934
 20
106.7119424542
 30
0.0
 10
329.3779548393
 20
106.7317730294
 30
0.0
 10
325.1294627866
 20
106.9881908266
 30
0.0
 10
321.0869036425
 20
107.4735485861
 30
0.0
 10
317.3634887768
 20
108.1732568798
 30
0.0
 10
314.0636659059
 20
109.066818103
 30
0.0
 10
311.6435498963
 20
109.9864528755
 30
0.0
 10
310.0082680527
 20
110.8173387306
 30
0.0
 10
309.2965518441
 20
111.2575922253
 30
0.0
 10
308.9708025575
 20
111.484412389
 30
0.0
  0
SPLINE
  5
4AE
330
222
100
AcDbEntity
  8
7_ALL_FEATURES
  6
Continuous
 62
     7
100
AcDbSpline
 70
     0
 71
     3
 72
    18
 73
    14
 74
     0
 42
0.000000001
 43
0.0000001
 40
0.0
 40
0.0
 40
0.0
 40
0.0
 40
0.0335864597
 40
0.0685999599
 40
0.1062806318
 40
0.1475764697
 40
0.1931479017
 40
0.2434037709
 40
0.3586308534
 40
0.4935825715
 40
0.6470122822
 40
0.8167560516
 40
1.0
 40
1.0
 40
1.0
 40
1.0
 10
358.3157347682
 20
110.8185580232
 30
0.0
 10
358.3172426919
 20
110.6103079181
 30
0.0
 10
358.2718778394
 20
110.1832294586
 30
0.0
 10
358.0618288295
 20
109.5540098698
 30
0.0
 10
357.7134841536
 20
108.9348178596
 30
0.0
 10
357.2310972026
 20
108.3283531737
 30
0.0
 10
356.6180347995
 20
107.7363595088
 30
0.0
 10
355.5829586509
 20
106.9323511322
 30
0.0
 10
353.963009601
 20
105.9964925977
 30
0.0
 10
351.6562933584
 20
105.0159510231
 30
0.0
 10
348.9470785249
 20
104.1505638505
 30
0.0
 10
345.8911366432
 20
103.4189041225
 30
0.0
 10
343.7334493583
 20
103.042909453
 30
0.0
 10
342.6092859113
 20
102.8778335824
 30
0.0
  0
SPLINE
  5
4AF
330
222
100
AcDbEntity
  8
7_ALL_FEATURES
  6
Continuous
 62
     7
100
AcDbSpline
 70
     0
 71
     3
 72
    18
 73
    14
 74
     0
 42
0.000000001
 43
0.0000001
 40
0.0
 40
0.0
 40
0.0
 40
0.0
 40
0.0335864597
 40
0.0685999599
 40
0.1062806318
 40
0.1475764697
 40
0.1931479017
 40
0.2434037709
 40
0.3586308534
 40
0.4935825715
 40
0.6470122822
 40
0.8167560516
 40
1.0
 40
1.0
 40
1.0
 40
1.0
 10
358.3487024947
 20
106.2144783775
 30
0.0
 10
358.3502104185
 20
106.0062282724
 30
0.0
 10
358.3048455659
 20
105.5791498129
 30
0.0
 10
358.094796556
 20
104.9499302241
 30
0.0
 10
357.7464518801
 20
104.3307382139
 30
0.0
 10
357.2640649291
 20
103.724273528
 30
0.0
 10
356.651002526
 20
103.1322798631
 30
0.0
 10
355.6159263774
 20
102.3282714865
 30
0.0
 10
353.9959773275
 20
101.392412952
 30
0.0
 10
351.6892610849
 20
100.4118713774
 30
0.0
 10
348.9800462514
 20
99.5464842047
 30
0.0
 10
345.9241043697
 20
98.8148244768
 30
0.0
 10
343.7664170848
 20
98.4388298073
 30
0.0
 10
342.6422536378
 20
98.2737539367
 30
0.0
  0
SPLINE
  5
4B0
330
222
100
AcDbEntity
  8
7_ALL_FEATURES
  6
Continuous
 62
     7
100
AcDbSpline
 70
     0
 71
     3
 72
    18
 73
    14
 74
     0
 42
0.000000001
 43
0.0000001
 40
0.0
 40
0.0
 40
0.0
 40
0.0
 40
0.0333556022
 40
0.0718298595
 40
0.1157139484
 40
0.1649942723
 40
0.2194547269
 40
0.2787289028
 40
0.4096717804
 40
0.5530922949
 40
0.7033466494
 40
0.8543497882
 40
1.0
 40
1.0
 40
1.0
 40
1.0
 10
310.2428991202
 20
124.4701749676
 30
0.0
 10
310.4710980893
 20
124.1936815045
 30
0.0
 10
311.0290209579
 20
123.6526569746
 30
0.0
 10
312.0468405235
 20
122.9325452317
 30
0.0
 10
313.2914489126
 20
122.2542090269
 30
0.0
 10
314.7496971899
 20
121.6246316382
 30
0.0
 10
316.4063790941
 20
121.050311111
 30
0.0
 10
318.9408179553
 20
120.3437608676
 30
0.0
 10
322.4673379832
 20
119.6617279664
 30
0.0
 10
327.0081959269
 20
119.1664781997
 30
0.0
 10
331.7885804528
 20
118.9946023618
 30
0.0
 10
336.5927908787
 20
119.1540941621
 30
0.0
 10
339.7674633537
 20
119.4867289325
 30
0.0
 10
341.3162831023
 20
119.7141627359
 30
0.0
  0
SPLINE
  5
4B1
330
222
100
AcDbEntity
  8
7_ALL_FEATURES
  6
Continuous
 62
     7
100
AcDbSpline
 70
     0
 71
     3
 72
    11
 73
     7
 74
     0
 42
0.000000001
 43
0.0000001
 40
0.0
 40
0.0
 40
0.0
 40
0.0
 40
0.2002245024
 40
0.4328055234
 40
0.6994931964
 40
1.0
 40
1.0
 40
1.0
 40
1.0
 10
310.2758668467
 20
119.8660953219
 30
0.0
 10
310.5169334838
 20
119.5740109642
 30
0.0
 10
311.1123424709
 20
119.0035396565
 30
0.0
 10
312.2038769784
 20
118.2497009444
 30
0.0
 10
313.544565876
 20
117.5429018871
 30
0.0
 10
314.5371163172
 20
117.1321210945
 30
0.0
 10
315.0696607924
 20
116.9334472163
 30
0.0
  0
SPLINE
  5
4B2
330
222
100
AcDbEntity
  8
7_ALL_FEATURES
  6
Continuous
 62
     7
100
AcDbSpline
 70
     0
 71
     3
 72
    15
 73
    11
 74
     0
 42
0.000000001
 43
0.0000001
 40
0.0
 40
0.0
 40
0.0
 40
0.0
 40
0.102380365
 40
0.2161552115
 40
0.3391851846
 40
0.468981891
 40
0.6028261457
 40
0.7378601388
 40
0.8712016891
 40
1.0
 40
1.0
 40
1.0
 40
1.0
 10
315.3669949283
 20
116.8247328422
 30
0.0
 10
316.2104565709
 20
116.5224707111
 30
0.0
 10
318.0251740226
 20
115.9778197976
 30
0.0
 10
320.9279350925
 20
115.3468782749
 30
0.0
 10
324.1027230282
 20
114.870188274
 30
0.0
 10
327.4740768454
 20
114.5596851307
 30
0.0
 10
330.9619633517
 20
114.4231389845
 30
0.0
 10
334.4832973211
 20
114.463927256
 30
0.0
 10
337.9538405327
 20
114.6811275809
 30
0.0
 10
340.2340273952
 20
114.9463200007
 30
0.0
 10
341.3492508288
 20
115.1100830902
 30
0.0
  0
SPLINE
  5
4B3
330
222
100
AcDbEntity
  8
7_ALL_FEATURES
  6
Continuous
 62
     7
100
AcDbSpline
 70
     0
 71
     3
 72
    19
 73
    15
 74
     0
 42
0.000000001
 43
0.0000001
 40
0.0
 40
0.0
 40
0.0
 40
0.0
 40
0.029781336
 40
0.0643826599
 40
0.1046678084
 40
0.1509459471
 40
0.2031641852
 40
0.2610241743
 40
0.3240500132
 40
0.3916357044
 40
0.5375522922
 40
0.6923507523
 40
0.8489090397
 40
1.0
 40
1.0
 40
1.0
 40
1.0
 10
308.6854898292
 20
111.4510951538
 30
0.0
 10
308.8280910642
 20
111.1354400256
 30
0.0
 10
309.2450632406
 20
110.5011562924
 30
0.0
 10
310.1274530783
 20
109.653423012
 30
0.0
 10
311.2910100923
 20
108.8501574079
 30
0.0
 10
312.7228758565
 20
108.0988772276
 30
0.0
 10
314.4069233101
 20
107.4070734775
 30
0.0
 10
316.3228241808
 20
106.7835095386
 30
0.0
 10
318.4466497085
 20
106.2360655006
 30
0.0
 10
321.6008250053
 20
105.6013911843
 30
0.0
 10
325.8560382283
 20
105.0601965635
 30
0.0
 10
331.1730962756
 20
104.8057487967
 30
0.0
 10
336.5543893886
 20
104.9461537073
 30
0.0
 10
340.1186504199
 20
105.3094456085
 30
0.0
 10
341.8572676902
 20
105.5647499063
 30
0.0
  0
SPLINE
  5
4B4
330
222
100
AcDbEntity
  8
7_ALL_FEATURES
  6
Continuous
 62
     7
100
AcDbSpline
 70
     0
 71
     3
 72
    11
 73
     7
 74
     0
 42
0.000000001
 43
0.0000001
 40
0.0
 40
0.0
 40
0.0
 40
0.0
 40
0.2382017675
 40
0.4925968277
 40
0.7507508927
 40
1.0
 40
1.0
 40
1.0
 40
1.0
 10
322.6488796428
 20
102.695437319
 30
0.0
 10
324.0059150451
 20
102.4375617852
 30
0.0
 10
326.8408972585
 20
102.0506229476
 30
0.0
 10
331.192296004
 20
101.8171540225
 30
0.0
 10
335.6128618202
 20
101.9170213713
 30
0.0
 10
338.5445021655
 20
102.2117642851
 30
0.0
 10
339.9745493137
 20
102.4217571278
 30
0.0
  0
SPLINE
  5
4B5
330
222
100
AcDbEntity
  8
7_ALL_FEATURES
  6
Continuous
 62
     7
100
AcDbSpline
 70
     0
 71
     3
 72
    16
 73
    12
 74
     0
 42
0.000000001
 43
0.0000001
 40
0.0
 40
0.0
 40
0.0
 40
0.0
 40
0.042171187
 40
0.0886528964
 40
0.1937875482
 40
0.3132407791
 40
0.4438849045
 40
0.5820069405
 40
0.723543438
 40
0.8642646874
 40
1.0
 40
1.0
 40
1.0
 40
1.0
 10
313.8230462699
 20
100.0094901143
 30
0.0
 10
314.1581799641
 20
99.81407834
 30
0.0
 10
314.883119867
 20
99.4378770937
 30
0.0
 10
316.5246068536
 20
98.7393583736
 30
0.0
 10
318.9088475709
 20
97.9894027895
 30
0.0
 10
322.1062807253
 20
97.2992039664
 30
0.0
 10
325.6470242928
 20
96.8100947689
 30
0.0
 10
329.4141706387
 20
96.5390333051
 30
0.0
 10
333.2834695583
 20
96.4957299844
 30
0.0
 10
337.1263667262
 20
96.681658211
 30
0.0
 10
339.6562638724
 20
96.9619171369
 30
0.0
 10
340.891679857
 20
97.1433296972
 30
0.0
  0
SPLINE
  5
4B6
330
222
100
AcDbEntity
  8
7_ALL_FEATURES
  6
Continuous
 62
     7
100
AcDbSpline
 70
     0
 71
     3
 72
    14
 73
    10
 74
     0
 42
0.000000001
 43
0.0000001
 40
0.0
 40
0.0
 40
0.0
 40
0.0
 40
0.0806096581
 40
0.1741926323
 40
0.2813771693
 40
0.4020091961
 40
0.5353981826
 40
0.6804705398
 40
1.0
 40
1.0
 40
1.0
 40
1.0
 10
354.3938810855
 20
124.7306166804
 30
0.0
 10
354.1501115718
 20
124.4356304881
 30
0.0
 10
353.5499099422
 20
123.8584261084
 30
0.0
 10
352.4518923779
 20
123.0918436165
 30
0.0
 10
351.1049023116
 20
122.3691629136
 30
0.0
 10
349.524627152
 20
121.6988858048
 30
0.0
 10
347.7294271467
 20
121.0886936265
 30
0.0
 10
344.9893271819
 20
120.3417741605
 30
0.0
 10
342.8170794202
 20
119.9345446202
 30
0.0
 10
341.3162831023
 20
119.7141627359
 30
0.0
  0
SPLINE
  5
4B7
330
222
100
AcDbEntity
  8
7_ALL_FEATURES
  6
Continuous
 62
     7
100
AcDbSpline
 70
     0
 71
     3
 72
    14
 73
    10
 74
     0
 42
0.000000001
 43
0.0000001
 40
0.0
 40
0.0
 40
0.0
 40
0.0
 40
0.0806096581
 40
0.1741926323
 40
0.2813771693
 40
0.4020091961
 40
0.5353981826
 40
0.6804705398
 40
1.0
 40
1.0
 40
1.0
 40
1.0
 10
354.426848812
 20
120.1265370347
 30
0.0
 10
354.1830792983
 20
119.8315508423
 30
0.0
 10
353.5828776687
 20
119.2543464627
 30
0.0
 10
352.4848601044
 20
118.4877639708
 30
0.0
 10
351.1378700381
 20
117.7650832679
 30
0.0
 10
349.5575948786
 20
117.0948061591
 30
0.0
 10
347.7623948732
 20
116.4846139808
 30
0.0
 10
345.0222949084
 20
115.7376945148
 30
0.0
 10
342.8500471467
 20
115.3304649745
 30
0.0
 10
341.3492508288
 20
115.1100830902
 30
0.0
  0
SPLINE
  5
4B8
330
222
100
AcDbEntity
  8
7_ALL_FEATURES
  6
Continuous
 62
     7
100
AcDbSpline
 70
     0
 71
     3
 72
    14
 73
    10
 74
     0
 42
0.000000001
 43
0.0000001
 40
0.0
 40
0.0
 40
0.0
 40
0.0
 40
0.0833457143
 40
0.1757497857
 40
0.2796874131
 40
0.3965972602
 40
0.5271672334
 40
0.6715130332
 40
1.0
 40
1.0
 40
1.0
 40
1.0
 10
356.2727499896
 20
116.7268813576
 30
0.0
 10
356.1997197264
 20
116.4871309142
 30
0.0
 10
355.9797510225
 20
116.0005419005
 30
0.0
 10
355.4804972319
 20
115.3183501997
 30
0.0
 10
354.8057970369
 20
114.6562320151
 30
0.0
 10
353.9613719408
 20
114.0172204384
 30
0.0
 10
352.9529281097
 20
113.4046335385
 30
0.0
 10
351.328275772
 20
112.5933568203
 30
0.0
 10
349.9920847463
 20
112.0941613202
 30
0.0
 10
349.0522006609
 20
111.7902939679
 30
0.0
  0
SPLINE
  5
4B9
330
222
100
AcDbEntity
  8
7_ALL_FEATURES
  6
Continuous
 62
     7
100
AcDbSpline
 70
     0
 71
     3
 72
    15
 73
    11
 74
     0
 42
0.000000001
 43
0.0000001
 40
0.0
 40
0.0
 40
0.0
 40
0.0
 40
0.1142708838
 40
0.2390559812
 40
0.3708575922
 40
0.5058508659
 40
0.6400689262
 40
0.7695793306
 40
0.890661686
 40
1.0
 40
1.0
 40
1.0
 40
1.0
 10
347.7536971087
 20
111.3993899275
 30
0.0
 10
346.5708125915
 20
111.0679638665
 30
0.0
 10
344.0618891198
 20
110.494998388
 30
0.0
 10
340.1172107434
 20
109.8979436651
 30
0.0
 10
335.9201605421
 20
109.538976563
 30
0.0
 10
331.6080399315
 20
109.4304512713
 30
0.0
 10
327.3216255516
 20
109.5760559466
 30
0.0
 10
323.2007150863
 20
109.970705725
 30
0.0
 10
319.3799544725
 20
110.6006491337
 30
0.0
 10
316.9717137397
 20
111.1980710008
 30
0.0
 10
315.8478767946
 20
111.5424290667
 30
0.0
  0
SPLINE
  5
4BA
330
222
100
AcDbEntity
  8
7_ALL_FEATURES
  6
Continuous
 62
     7
100
AcDbSpline
 70
     0
 71
     3
 72
     9
 73
     5
 74
     0
 42
0.000000001
 43
0.0000001
 40
0.0
 40
0.0
 40
0.0
 40
0.0
 40
0.535717364
 40
1.0
 40
1.0
 40
1.0
 40
1.0
 10
315.8478767946
 20
111.5424290667
 30
0.0
 10
315.0472204804
 20
111.7877604389
 30
0.0
 10
313.5695038865
 20
112.3038609244
 30
0.0
 10
312.1518000171
 20
112.9740154536
 30
0.0
 10
311.5220038089
 20
113.3346418032
 30
0.0
  0
SPLINE
  5
4BB
330
222
100
AcDbEntity
  8
7_ALL_FEATURES
  6
Continuous
 62
     7
100
AcDbSpline
 70
     0
 71
     3
 72
    16
 73
    12
 74
     0
 42
0.000000001
 43
0.0000001
 40
0.0
 40
0.0
 40
0.0
 40
0.0
 40
0.0709170518
 40
0.1111016715
 40
0.1550844756
 40
0.2555076306
 40
0.3733622016
 40
0.5082877077
 40
0.6590129648
 40
0.8237047133
 40
1.0
 40
1.0
 40
1.0
 40
1.0
 10
356.3132319695
 20
112.1478403606
 30
0.0
 10
356.2031305842
 20
111.7746789707
 30
0.0
 10
355.9108166714
 20
111.2234301341
 30
0.0
 10
355.3674113299
 20
110.5681195202
 30
0.0
 10
354.6328348272
 20
109.8674973661
 30
0.0
 10
353.4476399063
 20
109.038924162
 30
0.0
 10
351.7208245776
 20
108.1514521798
 30
0.0
 10
349.6563364111
 20
107.3438792084
 30
0.0
 10
347.288888485
 20
106.629942588
 30
0.0
 10
344.6588481548
 20
106.0226341764
 30
0.0
 10
342.8141970068
 20
105.7052685652
 30
0.0
 10
341.8572676902
 20
105.5647499063
 30
0.0
  0
LINE
  5
4BC
330
222
100
AcDbEntity
  8
7_ALL_FEATURES
  6
Continuous
 62
     7
100
AcDbLine
 10
308.4185302056
 20
116.8506019062
 30
0.0
 11
308.4176053215
 21
116.8573477112
 31
0.0
  0
LINE
  5
4BD
330
222
100
AcDbEntity
  8
7_ALL_FEATURES
  6
Continuous
 62
     7
100
AcDbLine
 10
308.4176053215
 20
116.8573477112
 30
0.0
 11
308.415424585
 21
116.8737925088
 31
0.0
  0
SPLINE
  5
4BE
330
222
100
AcDbEntity
  8
7_ALL_FEATURES
  6
Continuous
 62
     7
100
AcDbSpline
 70
     0
 71
     3
 72
    11
 73
     7
 74
     0
 42
0.000000001
 43
0.0000001
 40
0.0
 40
0.0
 40
0.0
 40
0.0
 40
0.2011233286
 40
0.4377595017
 40
0.7059510464
 40
1.0
 40
1.0
 40
1.0
 40
1.0
 10
351.3016740248
 20
100.333011689
 30
0.0
 10
350.6764991941
 20
99.9483099664
 30
0.0
 10
349.2371272715
 20
99.2388870793
 30
0.0
 10
346.8042304058
 20
98.3798392318
 30
0.0
 10
343.9754909495
 20
97.6593800194
 30
0.0
 10
341.953507743
 20
97.2992520083
 30
0.0
 10
340.891679857
 20
97.1433296972
 30
0.0
  0
SPLINE
  5
4BF
330
222
100
AcDbEntity
  8
7_ALL_FEATURES
  6
Continuous
 62
     7
100
AcDbSpline
 70
     0
 71
     3
 72
     9
 73
     5
 74
     0
 42
0.000000001
 43
0.0000001
 40
0.0
 40
0.0
 40
0.0
 40
0.0
 40
0.2414922784
 40
1.0
 40
1.0
 40
1.0
 40
1.0
 10
356.7857482527
 20
98.6392669983
 30
0.0
 10
356.73356743
 20
98.5923927376
 30
0.0
 10
356.5149116669
 20
98.4011685599
 30
0.0
 10
356.2865126676
 20
98.2211870967
 30
0.0
 10
356.1092424013
 20
98.0903695544
 30
0.0
  0
SPLINE
  5
4C0
330
222
100
AcDbEntity
  8
7_ALL_FEATURES
  6
Continuous
 62
     7
100
AcDbSpline
 70
     0
 71
     3
 72
    13
 73
     9
 74
     0
 42
0.000000001
 43
0.0000001
 40
0.0
 40
0.0
 40
0.0
 40
0.0
 40
0.0914936463
 40
0.1934449676
 40
0.3056967505
 40
0.4278248393
 40
0.6989029722
 40
1.0
 40
1.0
 40
1.0
 40
1.0
 10
356.0650322659
 20
98.0579234696
 30
0.0
 10
355.7151174179
 20
97.8025226539
 30
0.0
 10
354.9423027775
 20
97.3072457062
 30
0.0
 10
353.6564314796
 20
96.6396360306
 30
0.0
 10
352.1913383482
 20
96.0122867533
 30
0.0
 10
349.9356812878
 20
95.2087706724
 30
0.0
 10
346.7540943921
 20
94.3602649713
 30
0.0
 10
344.0857449934
 20
93.8768002297
 30
0.0
 10
342.6752213643
 20
93.669674291
 30
0.0
  0
SPLINE
  5
4C1
330
222
100
AcDbEntity
  8
7_ALL_FEATURES
  6
Continuous
 62
     7
100
AcDbSpline
 70
     0
 71
     3
 72
    27
 73
    23
 74
     0
 42
0.000000001
 43
0.0000001
 40
0.0
 40
0.0
 40
0.0
 40
0.0
 40
0.0506307776
 40
0.109940336
 40
0.1769707489
 40
0.2503480655
 40
0.3284224278
 40
0.4093578067
 40
0.491212114
 40
0.5720098715
 40
0.6498139449
 40
0.7227988059
 40
0.7893299522
 40
0.8480593558
 40
0.8742011106
 40
0.8980940158
 40
0.9197271624
 40
0.939160733
 40
0.9565460562
 40
0.9721611955
 40
0.9864435323
 40
1.0
 40
1.0
 40
1.0
 40
1.0
 10
309.7877299096
 20
113.0799753003
 30
0.0
 10
310.5458527492
 20
112.6373838274
 30
0.0
 10
312.2787425761
 20
111.8247742904
 30
0.0
 10
315.1920969927
 20
110.8489351448
 30
0.0
 10
318.5634232413
 20
110.0414867625
 30
0.0
 10
322.3038414053
 20
109.4254409452
 30
0.0
 10
326.314776174
 20
109.0179701921
 30
0.0
 10
330.4888730513
 20
108.8306647908
 30
0.0
 10
334.7141569601
 20
108.8688183889
 30
0.0
 10
338.8771371682
 20
109.1313981737
 30
0.0
 10
342.8660573275
 20
109.6110644625
 30
0.0
 10
346.5745835186
 20
110.2942833823
 30
0.0
 10
349.9038299044
 20
111.1620931505
 30
0.0
 10
352.3800802459
 20
112.049950784
 30
0.0
 10
354.0895004188
 20
112.8493304727
 30
0.0
 10
355.1755062439
 20
113.4558495917
 30
0.0
 10
356.109030504
 20
114.0890303403
 30
0.0
 10
356.8843649443
 20
114.7453623025
 30
0.0
 10
357.4964996586
 20
115.4219741608
 30
0.0
 10
357.9405312377
 20
116.1167867253
 30
0.0
 10
358.2101950225
 20
116.8267417618
 30
0.0
 10
358.2692079191
 20
117.311777374
 30
0.0
 10
358.2675385631
 20
117.5468196851
 30
0.0
  0
SPLINE
  5
4C2
330
222
100
AcDbEntity
  8
7_ALL_FEATURES
  6
Continuous
 62
     7
100
AcDbSpline
 70
     0
 71
     3
 72
    11
 73
     7
 74
     0
 42
0.000000001
 43
0.0000001
 40
0.0
 40
0.0
 40
0.0
 40
0.0
 40
0.2042041293
 40
0.4500348211
 40
0.7219652833
 40
1.0
 40
1.0
 40
1.0
 40
1.0
 10
308.3463693917
 20
111.9565344907
 30
0.0
 10
308.2394283351
 20
112.1179946962
 30
0.0
 10
308.0565373335
 20
112.5080300394
 30
0.0
 10
307.864328577
 20
113.1663608469
 30
0.0
 10
307.7315892234
 20
113.9106111478
 30
0.0
 10
307.6842434269
 20
114.4307001918
 30
0.0
 10
307.6714262884
 20
114.6940724235
 30
0.0
  0
SPLINE
  5
4C3
330
222
100
AcDbEntity
  8
7_ALL_FEATURES
  6
Continuous
 62
     7
100
AcDbSpline
 70
     0
 71
     3
 72
    21
 73
    17
 74
     0
 42
0.000000001
 43
0.0000001
 40
0.0
 40
0.0
 40
0.0
 40
0.0
 40
0.1580646381
 40
0.3216528366
 40
0.4819656046
 40
0.5582146788
 40
0.6305068685
 40
0.6979427945
 40
0.7597429172
 40
0.8152868513
 40
0.8641703168
 40
0.9062982423
 40
0.9420450792
 40
0.9725219014
 40
0.9864679449
 40
1.0
 40
1.0
 40
1.0
 40
1.0
 10
342.6270377641
 20
100.3987137732
 30
0.0
 10
340.6003874197
 20
100.1011137482
 30
0.0
 10
336.4458134487
 20
99.6921915132
 30
0.0
 10
330.1951422237
 20
99.5841084778
 30
0.0
 10
325.0127289312
 20
99.9077331536
 30
0.0
 10
321.0426026224
 20
100.425475968
 30
0.0
 10
318.2869589132
 20
100.9227717799
 30
0.0
 10
315.7447523303
 20
101.5275005732
 30
0.0
 10
313.4536044198
 20
102.2303890649
 30
0.0
 10
311.4468343605
 20
103.0208367295
 30
0.0
 10
309.7524869133
 20
103.8872549038
 30
0.0
 10
308.3926362134
 20
104.8196871323
 30
0.0
 10
307.3836199403
 20
105.8091561259
 30
0.0
 10
306.8357737525
 20
106.711938896
 30
0.0
 10
306.6227550597
 20
107.4359418538
 30
0.0
 10
306.5861138853
 20
107.7926289866
 30
0.0
 10
306.5848441208
 20
107.9679883844
 30
0.0
  0
SPLINE
  5
4C4
330
222
100
AcDbEntity
  8
7_ALL_FEATURES
  6
Continuous
 62
     7
100
AcDbSpline
 70
     0
 71
     3
 72
    21
 73
    17
 74
     0
 42
0.000000001
 43
0.0000001
 40
0.0
 40
0.0
 40
0.0
 40
0.0
 40
0.1580646381
 40
0.3216528366
 40
0.4819656046
 40
0.5582146788
 40
0.6305068685
 40
0.6979427945
 40
0.7597429172
 40
0.8152868513
 40
0.8641703168
 40
0.9062982423
 40
0.9420450792
 40
0.9725219014
 40
0.9864679449
 40
1.0
 40
1.0
 40
1.0
 40
1.0
 10
342.6600054906
 20
95.7946341275
 30
0.0
 10
340.6333551462
 20
95.4970341025
 30
0.0
 10
336.4787811752
 20
95.0881118675
 30
0.0
 10
330.2281099502
 20
94.9800288321
 30
0.0
 10
325.0456966577
 20
95.3036535079
 30
0.0
 10
321.0755703489
 20
95.8213963223
 30
0.0
 10
318.3199266397
 20
96.3186921342
 30
0.0
 10
315.7777200568
 20
96.9234209275
 30
0.0
 10
313.4865721463
 20
97.6263094192
 30
0.0
 10
311.479802087
 20
98.4167570838
 30
0.0
 10
309.7854546398
 20
99.2831752581
 30
0.0
 10
308.4256039399
 20
100.2156074866
 30
0.0
 10
307.4165876668
 20
101.2050764802
 30
0.0
 10
306.868741479
 20
102.1078592503
 30
0.0
 10
306.6557227862
 20
102.831862208
 30
0.0
 10
306.6190816119
 20
103.1885493409
 30
0.0
 10
306.6178118473
 20
103.3639087387
 30
0.0
  0
SPLINE
  5
4C5
330
222
100
AcDbEntity
  8
7_ALL_FEATURES
  6
Continuous
 62
     7
100
AcDbSpline
 70
     0
 71
     3
 72
    18
 73
    14
 74
     0
 42
0.000000001
 43
0.0000001
 40
0.0
 40
0.0
 40
0.0
 40
0.0
 40
0.1386611064
 40
0.2824476394
 40
0.4266210879
 40
0.4973624368
 40
0.5664224484
 40
0.6972641158
 40
0.8150979062
 40
0.8680917356
 40
0.9166926162
 40
0.9606888112
 40
1.0
 40
1.0
 40
1.0
 40
1.0
 10
342.6752213643
 20
93.669674291
 30
0.0
 10
341.0972339381
 20
93.4379574042
 30
0.0
 10
337.8644543037
 20
93.0861613982
 30
0.0
 10
332.9590590576
 20
92.8729213211
 30
0.0
 10
328.8308629856
 20
92.9519710294
 30
0.0
 10
325.5715356625
 20
93.1738424805
 30
0.0
 10
322.4741631507
 20
93.4904448433
 30
0.0
 10
318.8595446847
 20
94.0522627482
 30
0.0
 10
315.4807977067
 20
94.8679610475
 30
0.0
 10
313.0837841147
 20
95.6624654545
 30
0.0
 10
311.5297029026
 20
96.2901053731
 30
0.0
 10
310.1689507505
 20
96.9647514436
 30
0.0
 10
309.3524407128
 20
97.4705055556
 30
0.0
 10
308.9839411138
 20
97.7325396633
 30
0.0
  0
SPLINE
  5
4C6
330
222
100
AcDbEntity
  8
7_ALL_FEATURES
  6
Continuous
 62
     7
100
AcDbSpline
 70
     0
 71
     3
 72
     9
 73
     5
 74
     0
 42
0.000000001
 43
0.0000001
 40
0.0
 40
0.0
 40
0.0
 40
0.0
 40
0.2589663914
 40
1.0
 40
1.0
 40
1.0
 40
1.0
 10
308.9839411138
 20
97.7325396633
 30
0.0
 10
308.9201989713
 20
97.7778656704
 30
0.0
 10
308.6760295806
 20
97.9556300087
 30
0.0
 10
308.4399779728
 20
98.1446822012
 30
0.0
 10
308.2713470163
 20
98.2918387199
 30
0.0
  0
SPLINE
  5
4C7
330
222
100
AcDbEntity
  8
7_ALL_FEATURES
  6
Continuous
 62
     7
100
AcDbSpline
 70
     0
 71
     3
 72
     9
 73
     5
 74
     0
 42
0.000000001
 43
0.0000001
 40
0.0
 40
0.0
 40
0.0
 40
0.0
 40
0.4913499895
 40
1.0
 40
1.0
 40
1.0
 40
1.0
 10
342.5940700376
 20
105.0027934189
 30
0.0
 10
341.3313761413
 20
104.81737528
 30
0.0
 10
338.7498083573
 20
104.5171891632
 30
0.0
 10
336.156178265
 20
104.3550677134
 30
0.0
 10
334.8359173437
 20
104.3060607058
 30
0.0
  0
SPLINE
  5
4C8
330
222
100
AcDbEntity
  8
7_ALL_FEATURES
  6
Continuous
 62
     7
100
AcDbSpline
 70
     0
 71
     3
 72
    19
 73
    15
 74
     0
 42
0.000000001
 43
0.0000001
 40
0.0
 40
0.0
 40
0.0
 40
0.0
 40
0.172566032
 40
0.3414168488
 40
0.5001603681
 40
0.6430190996
 40
0.7069975893
 40
0.7653726346
 40
0.8178434072
 40
0.8643009473
 40
0.9049025535
 40
0.9401941487
 40
0.9712877297
 40
1.0
 40
1.0
 40
1.0
 40
1.0
 10
334.8359173437
 20
104.3060607058
 30
0.0
 10
333.0490197263
 20
104.2397325248
 30
0.0
 10
329.5081044993
 20
104.2291599786
 30
0.0
 10
324.3321892578
 20
104.5659153569
 30
0.0
 10
319.4996075755
 20
105.2401851863
 30
0.0
 10
315.7995639497
 20
106.0849268075
 30
0.0
 10
313.1820988663
 20
106.9275857428
 30
0.0
 10
311.4974274074
 20
107.5980225564
 30
0.0
 10
310.0351186264
 20
108.323071975
 30
0.0
 10
308.8094273789
 20
109.0959073383
 30
0.0
 10
307.8316877615
 20
109.9103606962
 30
0.0
 10
307.1116088004
 20
110.7631713543
 30
0.0
 10
306.6616145792
 20
111.6521332609
 30
0.0
 10
306.5540306321
 20
112.2745594522
 30
0.0
 10
306.5518763943
 20
112.5720680301
 30
0.0
  0
SPLINE
  5
4C9
330
222
100
AcDbEntity
  8
7_ALL_FEATURES
  6
Continuous
 62
     7
100
AcDbSpline
 70
     0
 71
     3
 72
     9
 73
     5
 74
     0
 42
0.000000001
 43
0.0000001
 40
0.0
 40
0.0
 40
0.0
 40
0.0
 40
0.5195658453
 40
1.0
 40
1.0
 40
1.0
 40
1.0
 10
308.0243425824
 20
116.8106546764
 30
0.0
 10
308.0517865038
 20
116.8380046839
 30
0.0
 10
308.11144081
 20
116.8847577215
 30
0.0
 10
308.1837260097
 20
116.9092967476
 30
0.0
 10
308.2191703449
 20
116.9145196257
 30
0.0
  0
SPLINE
  5
4CA
330
222
100
AcDbEntity
  8
7_ALL_FEATURES
  6
Continuous
 62
     7
100
AcDbSpline
 70
     0
 71
     3
 72
    15
 73
    11
 74
     0
 42
0.000000001
 43
0.0000001
 40
0.0
 40
0.0
 40
0.0
 40
0.0
 40
0.1297672809
 40
0.2641456629
 40
0.4001153477
 40
0.5345893433
 40
0.6645386514
 40
0.7870894307
 40
0.8996411059
 40
1.0
 40
1.0
 40
1.0
 40
1.0
 10
342.5281345845
 20
114.2109527103
 30
0.0
 10
341.2294379924
 20
114.0202478167
 30
0.0
 10
338.5734243212
 20
113.7136725918
 30
0.0
 10
334.5317330955
 20
113.4699727696
 30
0.0
 10
330.4351207871
 20
113.4373938237
 30
0.0
 10
326.3871268617
 20
113.616816947
 30
0.0
 10
322.489864494
 20
114.0034327038
 30
0.0
 10
318.8410553483
 20
114.5870435022
 30
0.0
 10
315.5323557955
 20
115.3521194292
 30
0.0
 10
313.4777755503
 20
116.0110688027
 30
0.0
 10
312.5306380987
 20
116.3763954381
 30
0.0
  0
SPLINE
  5
4CB
330
222
100
AcDbEntity
  8
7_ALL_FEATURES
  6
Continuous
 62
     7
100
AcDbSpline
 70
     0
 71
     3
 72
     9
 73
     5
 74
     0
 42
0.000000001
 43
0.0000001
 40
0.0
 40
0.0
 40
0.0
 40
0.0
 40
0.2586070817
 40
1.0
 40
1.0
 40
1.0
 40
1.0
 10
312.3290439693
 20
116.4551408139
 30
0.0
 10
312.2058154301
 20
116.5038879606
 30
0.0
 10
311.7308318641
 20
116.6961959128
 30
0.0
 10
311.2621150053
 20
116.9041649702
 30
0.0
 10
310.9196332079
 20
117.0686145966
 30
0.0
  0
SPLINE
  5
4CC
330
222
100
AcDbEntity
  8
7_ALL_FEATURES
  6
Continuous
 62
     7
100
AcDbSpline
 70
     0
 71
     3
 72
    14
 73
    10
 74
     0
 42
0.000000001
 43
0.0000001
 40
0.0
 40
0.0
 40
0.0
 40
0.0
 40
0.3220994174
 40
0.4624589182
 40
0.5896083579
 40
0.7046821642
 40
0.8095188385
 40
0.9067889799
 40
1.0
 40
1.0
 40
1.0
 40
1.0
 10
310.9196332079
 20
117.0686145966
 30
0.0
 10
310.2629855121
 20
117.3839173924
 30
0.0
 10
309.3418293631
 20
117.8905680902
 30
0.0
 10
308.2704305217
 20
118.6874213276
 30
0.0
 10
307.6340506522
 20
119.2766270035
 30
0.0
 10
307.1310776775
 20
119.8826705521
 30
0.0
 10
306.7650423324
 20
120.5039091797
 30
0.0
 10
306.5404063304
 20
121.1376190317
 30
0.0
 10
306.4874672576
 20
121.5694371301
 30
0.0
 10
306.4859409412
 20
121.7802273216
 30
0.0
  0
SPLINE
  5
4CD
330
222
100
AcDbEntity
  8
7_ALL_FEATURES
  6
Continuous
 62
     7
100
AcDbSpline
 70
     0
 71
     3
 72
    21
 73
    17
 74
     0
 42
0.000000001
 43
0.0000001
 40
0.0
 40
0.0
 40
0.0
 40
0.0
 40
0.1580646381
 40
0.3216528366
 40
0.4819656046
 40
0.5582146788
 40
0.6305068685
 40
0.6979427945
 40
0.7597429172
 40
0.8152868513
 40
0.8641703168
 40
0.9062982423
 40
0.9420450792
 40
0.9725219014
 40
0.9864679449
 40
1.0
 40
1.0
 40
1.0
 40
1.0
 10
342.495166858
 20
118.815032356
 30
0.0
 10
340.4685165136
 20
118.517432331
 30
0.0
 10
336.3139425427
 20
118.108510096
 30
0.0
 10
330.0632713176
 20
118.0004270607
 30
0.0
 10
324.8808580252
 20
118.3240517364
 30
0.0
 10
320.9107317164
 20
118.8417945508
 30
0.0
 10
318.1550880072
 20
119.3390903627
 30
0.0
 10
315.6128814243
 20
119.9438191561
 30
0.0
 10
313.3217335138
 20
120.6467076477
 30
0.0
 10
311.3149634544
 20
121.4371553124
 30
0.0
 10
309.6206160072
 20
122.3035734866
 30
0.0
 10
308.2607653073
 20
123.2360057152
 30
0.0
 10
307.2517490342
 20
124.2254747088
 30
0.0
 10
306.7039028465
 20
125.1282574789
 30
0.0
 10
306.4908841537
 20
125.8522604366
 30
0.0
 10
306.4542429793
 20
126.2089475695
 30
0.0
 10
306.4529732147
 20
126.3843069673
 30
0.0
  0
SPLINE
  5
4CE
330
222
100
AcDbEntity
  8
7_ALL_FEATURES
  6
Continuous
 62
     7
100
AcDbSpline
 70
     0
 71
     3
 72
    23
 73
    19
 74
     0
 42
0.000000001
 43
0.0000001
 40
0.0
 40
0.0
 40
0.0
 40
0.0
 40
0.0426809552
 40
0.0927830958
 40
0.1498865074
 40
0.2132042358
 40
0.2817043332
 40
0.354178203
 40
0.4292942177
 40
0.5056430031
 40
0.5817801139
 40
0.6562672096
 40
0.727713221
 40
0.7948173069
 40
0.8564162932
 40
0.9115418464
 40
0.9594997944
 40
1.0
 40
1.0
 40
1.0
 40
1.0
 10
299.9013209394
 20
132.4964416969
 30
0.0
 10
300.6857754655
 20
131.9358794031
 30
0.0
 10
302.5101344087
 20
130.8837265199
 30
0.0
 10
305.636964935
 20
129.5710876779
 30
0.0
 10
309.3184510457
 20
128.420933002
 30
0.0
 10
313.4795034564
 20
127.4584438255
 30
0.0
 10
318.0351235724
 20
126.7042854928
 30
0.0
 10
322.8900630598
 20
126.1750612962
 30
0.0
 10
327.942384976
 20
125.8823890724
 30
0.0
 10
333.0855921172
 20
125.8327206238
 30
0.0
 10
338.2111602319
 20
126.0271687804
 30
0.0
 10
343.2109642955
 20
126.4615078175
 30
0.0
 10
347.979686861
 20
127.1262391044
 30
0.0
 10
352.417363638
 20
128.0068675083
 30
0.0
 10
356.4314703343
 20
129.0840339986
 30
0.0
 10
359.9407669641
 20
130.3349594234
 30
0.0
 10
362.8742999886
 20
131.7324463242
 30
0.0
 10
364.5527350521
 20
132.8385137618
 30
0.0
 10
365.2572596656
 20
133.4221888751
 30
0.0
  0
SPLINE
  5
4CF
330
222
100
AcDbEntity
  8
7_ALL_FEATURES
  6
Continuous
 62
     7
100
AcDbSpline
 70
     0
 71
     3
 72
    11
 73
     7
 74
     0
 42
0.000000001
 43
0.0000001
 40
0.0
 40
0.0
 40
0.0
 40
0.0
 40
0.226941544
 40
0.463889608
 40
0.7194809687
 40
1.0
 40
1.0
 40
1.0
 40
1.0
 10
306.5188892717
 20
117.176783916
 30
0.0
 10
306.5203843561
 20
116.9649956176
 30
0.0
 10
306.5737021966
 20
116.5309988091
 30
0.0
 10
306.8004408629
 20
115.8941140028
 30
0.0
 10
307.1699108532
 20
115.2701542458
 30
0.0
 10
307.491562357
 20
114.8842973229
 30
0.0
 10
307.6714262884
 20
114.6940724235
 30
0.0
  0
SPLINE
  5
4D0
330
222
100
AcDbEntity
  8
7_ALL_FEATURES
  6
Continuous
 62
     7
100
AcDbSpline
 70
     0
 71
     3
 72
    18
 73
    14
 74
     0
 42
0.000000001
 43
0.0000001
 40
0.0
 40
0.0
 40
0.0
 40
0.0
 40
0.0335864597
 40
0.0685999599
 40
0.1062806318
 40
0.1475764697
 40
0.1931479017
 40
0.2434037709
 40
0.3586308534
 40
0.4935825715
 40
0.6470122822
 40
0.8167560516
 40
1.0
 40
1.0
 40
1.0
 40
1.0
 10
358.3664543474
 20
103.7353585683
 30
0.0
 10
358.3679622712
 20
103.5271084631
 30
0.0
 10
358.3225974186
 20
103.1000300036
 30
0.0
 10
358.1125484087
 20
102.4708104149
 30
0.0
 10
357.7642037328
 20
101.8516184047
 30
0.0
 10
357.2818167819
 20
101.2451537188
 30
0.0
 10
356.6687543787
 20
100.6531600538
 30
0.0
 10
355.6336782301
 20
99.8491516772
 30
0.0
 10
354.0137291803
 20
98.9132931427
 30
0.0
 10
351.7070129376
 20
97.9327515682
 30
0.0
 10
348.9977981041
 20
97.0673643955
 30
0.0
 10
345.9418562224
 20
96.3357046675
 30
0.0
 10
343.7841689376
 20
95.959709998
 30
0.0
 10
342.6600054906
 20
95.7946341275
 30
0.0
  0
SPLINE
  5
4D1
330
222
100
AcDbEntity
  8
7_ALL_FEATURES
  6
Continuous
 62
     7
100
AcDbSpline
 70
     0
 71
     3
 72
    18
 73
    14
 74
     0
 42
0.000000001
 43
0.0000001
 40
0.0
 40
0.0
 40
0.0
 40
0.0
 40
0.0335864597
 40
0.0685999599
 40
0.1062806318
 40
0.1475764697
 40
0.1931479017
 40
0.2434037709
 40
0.3586308534
 40
0.4935825715
 40
0.6470122822
 40
0.8167560516
 40
1.0
 40
1.0
 40
1.0
 40
1.0
 10
358.2016157149
 20
126.7557567968
 30
0.0
 10
358.2031236386
 20
126.5475066917
 30
0.0
 10
358.1577587861
 20
126.1204282322
 30
0.0
 10
357.9477097762
 20
125.4912086435
 30
0.0
 10
357.5993651003
 20
124.8720166332
 30
0.0
 10
357.1169781493
 20
124.2655519473
 30
0.0
 10
356.5039157462
 20
123.6735582824
 30
0.0
 10
355.4688395976
 20
122.8695499058
 30
0.0
 10
353.8488905477
 20
121.9336913713
 30
0.0
 10
351.5421743051
 20
120.9531497968
 30
0.0
 10
348.8329594716
 20
120.0877626241
 30
0.0
 10
345.7770175899
 20
119.3561028961
 30
0.0
 10
343.619330305
 20
118.9801082266
 30
0.0
 10
342.495166858
 20
118.815032356
 30
0.0
  0
SPLINE
  5
4D2
330
222
100
AcDbEntity
  8
7_ALL_FEATURES
  6
Continuous
 62
     7
100
AcDbSpline
 70
     0
 71
     3
 72
    18
 73
    14
 74
     0
 42
0.000000001
 43
0.0000001
 40
0.0
 40
0.0
 40
0.0
 40
0.0
 40
0.0335864597
 40
0.0685999599
 40
0.1062806318
 40
0.1475764697
 40
0.1931479017
 40
0.2434037709
 40
0.3586308534
 40
0.4935825715
 40
0.6470122822
 40
0.8167560516
 40
1.0
 40
1.0
 40
1.0
 40
1.0
 10
358.2345834414
 20
122.1516771511
 30
0.0
 10
358.2360913652
 20
121.943427046
 30
0.0
 10
358.1907265126
 20
121.5163485865
 30
0.0
 10
357.9806775027
 20
120.8871289978
 30
0.0
 10
357.6323328268
 20
120.2679369875
 30
0.0
 10
357.1499458758
 20
119.6614723016
 30
0.0
 10
356.5368834727
 20
119.0694786367
 30
0.0
 10
355.5018073241
 20
118.2654702601
 30
0.0
 10
353.8818582742
 20
117.3296117256
 30
0.0
 10
351.5751420316
 20
116.3490701511
 30
0.0
 10
348.8659271981
 20
115.4836829784
 30
0.0
 10
345.8099853164
 20
114.7520232504
 30
0.0
 10
343.6522980315
 20
114.3760285809
 30
0.0
 10
342.5281345845
 20
114.2109527103
 30
0.0
  0
SPLINE
  5
4D3
330
222
100
AcDbEntity
  8
7_ALL_FEATURES
  6
Continuous
 62
     7
100
AcDbSpline
 70
     0
 71
     3
 72
    18
 73
    14
 74
     0
 42
0.000000001
 43
0.0000001
 40
0.0
 40
0.0
 40
0.0
 40
0.0
 40
0.0335864597
 40
0.0685999599
 40
0.1062806318
 40
0.1475764697
 40
0.1931479017
 40
0.2434037709
 40
0.3586308534
 40
0.4935825715
 40
0.6470122822
 40
0.8167560516
 40
1.0
 40
1.0
 40
1.0
 40
1.0
 10
358.3005188944
 20
112.9435178597
 30
0.0
 10
358.3020268182
 20
112.7352677546
 30
0.0
 10
358.2566619656
 20
112.3081892951
 30
0.0
 10
358.0466129557
 20
111.6789697063
 30
0.0
 10
357.6982682798
 20
111.0597776961
 30
0.0
 10
357.2158813289
 20
110.4533130102
 30
0.0
 10
356.6028189257
 20
109.8613193453
 30
0.0
 10
355.5677427771
 20
109.0573109687
 30
0.0
 10
353.9477937272
 20
108.1214524342
 30
0.0
 10
351.6410774846
 20
107.1409108596
 30
0.0
 10
348.9318626511
 20
106.2755236869
 30
0.0
 10
345.8759207694
 20
105.543863959
 30
0.0
 10
343.7182334845
 20
105.1678692895
 30
0.0
 10
342.5940700376
 20
105.0027934189
 30
0.0
  0
SPLINE
  5
4D4
330
222
100
AcDbEntity
  8
7_ALL_FEATURES
  6
Continuous
 62
     7
100
AcDbSpline
 70
     0
 71
     3
 72
    18
 73
    14
 74
     0
 42
0.000000001
 43
0.0000001
 40
0.0
 40
0.0
 40
0.0
 40
0.0
 40
0.0335864597
 40
0.0685999599
 40
0.1062806318
 40
0.1475764697
 40
0.1931479017
 40
0.2434037709
 40
0.3586308534
 40
0.4935825715
 40
0.6470122822
 40
0.8167560516
 40
1.0
 40
1.0
 40
1.0
 40
1.0
 10
358.3334866209
 20
108.339438214
 30
0.0
 10
358.3349945447
 20
108.1311881089
 30
0.0
 10
358.2896296921
 20
107.7041096494
 30
0.0
 10
358.0795806822
 20
107.0748900606
 30
0.0
 10
357.7312360063
 20
106.4556980504
 30
0.0
 10
357.2488490554
 20
105.8492333645
 30
0.0
 10
356.6357866522
 20
105.2572396995
 30
0.0
 10
355.6007105036
 20
104.4532313229
 30
0.0
 10
353.9807614538
 20
103.5173727885
 30
0.0
 10
351.6740452111
 20
102.5368312139
 30
0.0
 10
348.9648303776
 20
101.6714440412
 30
0.0
 10
345.9088884959
 20
100.9397843132
 30
0.0
 10
343.7512012111
 20
100.5637896437
 30
0.0
 10
342.6270377641
 20
100.3987137732
 30
0.0
  0
ENDSEC
  0
SECTION
  2
OBJECTS
  0
DICTIONARY
  5
C
330
0
100
AcDbDictionary
281
     1
  3
ACAD_DETAILVIEWSTYLE
350
568
  3
ACAD_GROUP
350
D
  3
ACAD_IMAGE_VARS
350
51E
  3
ACAD_LAYOUT
350
1A
  3
ACAD_MLINESTYLE
350
17
  3
ACAD_PLOTSETTINGS
350
19
  3
ACAD_PLOTSTYLENAME
350
E
  3
ACAD_SCALELIST
350
4DA
  3
ACAD_SECTIONVIEWSTYLE
350
569
  3
AcDbVariableDictionary
350
563
  3
APPDATA
350
51C
  3
DWGPROPS
350
56A
  0
DICTIONARY
  5
568
102
{ACAD_REACTORS
330
C
102
}
330
C
100
AcDbDictionary
281
     1
  0
DICTIONARY
  5
D
102
{ACAD_REACTORS
330
C
102
}
330
C
100
AcDbDictionary
281
     1
  0
RASTERVARIABLES
  5
51E
102
{ACAD_REACTORS
330
C
102
}
330
C
100
AcDbRasterVariables
 90
        0
 70
     1
 71
     1
 72
     1
  0
DICTIONARY
  5
1A
102
{ACAD_REACTORS
330
C
102
}
330
C
100
AcDbDictionary
281
     1
  3
Layout1
350
4D7
  3
Model
350
4D6
  0
DICTIONARY
  5
17
102
{ACAD_REACTORS
330
C
102
}
330
C
100
AcDbDictionary
281
     1
  3
Standard
350
18
  0
DICTIONARY
  5
19
102
{ACAD_REACTORS
330
C
102
}
330
C
100
AcDbDictionary
281
     1
  0
ACDBDICTIONARYWDFLT
  5
E
102
{ACAD_REACTORS
330
C
102
}
330
C
100
AcDbDictionary
281
     1
  3
Normal
350
F
100
AcDbDictionaryWithDefault
340
F
  0
DICTIONARY
  5
4DA
102
{ACAD_REACTORS
330
C
102
}
330
C
100
AcDbDictionary
281
     1
  3
A0
350
4DB
  3
A1
350
4DC
  3
A2
350
4DD
  3
A3
350
4DE
  3
A4
350
4DF
  3
A5
350
4E0
  3
A6
350
4E1
  3
A7
350
4E2
  3
A8
350
4E3
  3
A9
350
4E4
  3
B0
350
4E5
  3
B1
350
4E6
  3
B2
350
4E7
  3
B3
350
4E8
  3
B4
350
4E9
  3
B5
350
4EA
  3
B6
350
4EB
  3
B7
350
4EC
  3
B8
350
4ED
  3
B9
350
4EE
  3
C0
350
4EF
  3
C1
350
4F0
  3
C2
350
4F1
  3
C3
350
4F2
  3
C4
350
4F3
  3
C5
350
4F4
  3
C6
350
4F5
  3
C7
350
4F6
  3
C8
350
4F7
  3
C9
350
4F8
  3
D0
350
4F9
  3
D1
350
4FA
  3
D2
350
4FB
  0
DICTIONARY
  5
569
102
{ACAD_REACTORS
330
C
102
}
330
C
100
AcDbDictionary
281
     1
  0
DICTIONARY
  5
563
102
{ACAD_REACTORS
330
C
102
}
330
C
100
AcDbDictionary
281
     1
  0
DICTIONARY
  5
51C
102
{ACAD_REACTORS
330
C
102
}
330
C
100
AcDbDictionary
281
     1
  0
XRECORD
  5
56A
102
{ACAD_REACTORS
330
C
102
}
330
C
100
AcDbXrecord
280
     1
  1
DWGPROPS COOKIE
  2

  3

  4

  6

  7

  8
umberto.novello
  9

300
=
301
=
302
=
303
=
304
=
305
=
306
=
307
=
308
=
309
=
 40
0.0
 41
0.0
 42
2458444.382449977
  1

 90
        0
  0
LAYOUT
  5
4D7
102
{ACAD_REACTORS
330
1A
102
}
330
1A
100
AcDbPlotSettings
  1

  2
none_device
  4
ISO_A3_(420.00_x_297.00_MM)
  6

 40
0.0
 41
0.0
 42
0.0
 43
0.0
 44
420.0
 45
297.0
 46
0.0
 47
0.0
 48
0.0
 49
0.0
140
0.0
141
0.0
142
1.0
143
1.0
 70
     0
 72
     1
 73
     0
 74
     0
  7

 75
     0
147
1.0
148
0.0
149
0.0
100
AcDbLayout
  1
Layout1
 70
     0
 71
     1
 10
0.0
 20
0.0
 11
420.0
 21
297.0
 12
0.0
 22
0.0
 32
0.0
 14
0.0
 24
0.0
 34
0.0
 15
0.0
 25
0.0
 35
0.0
146
0.0
 13
0.0
 23
0.0
 33
0.0
 16
1.0
 26
0.0
 36
0.0
 17
0.0
 27
1.0
 37
0.0
 76
     0
330
223
  0
LAYOUT
  5
4D6
102
{ACAD_REACTORS
330
1A
102
}
330
1A
100
AcDbPlotSettings
  1

  2
none_device
  4
ISO_A3_(420.00_x_297.00_MM)
  6

 40
0.0
 41
0.0
 42
0.0
 43
0.0
 44
420.0
 45
297.0
 46
0.0
 47
0.0
 48
0.0
 49
0.0
140
0.0
141
0.0
142
1.0
143
1.0
 70
  1024
 72
     1
 73
     0
 74
     0
  7

 75
     0
147
1.0
148
0.0
149
0.0
100
AcDbLayout
  1
Model
 70
     0
 71
     0
 10
0.0
 20
0.0
 11
420.0
 21
297.0
 12
0.0
 22
0.0
 32
0.0
 14
0.0
 24
0.0
 34
0.0
 15
0.0
 25
0.0
 35
0.0
146
0.0
 13
0.0
 23
0.0
 33
0.0
 16
1.0
 26
0.0
 36
0.0
 17
0.0
 27
1.0
 37
0.0
 76
     0
330
222
331
1F4
  0
MLINESTYLE
  5
18
102
{ACAD_REACTORS
330
17
102
}
330
17
100
AcDbMlineStyle
  2
STANDARD
 70
     0
  3

 62
   256
 51
90.0
 52
90.0
 71
     2
 49
0.5
 62
   256
  6
BYLAYER
 49
-0.5
 62
   256
  6
BYLAYER
  0
ACDBPLACEHOLDER
  5
F
102
{ACAD_REACTORS
330
E
102
}
330
E
  0
SCALE
  5
4DB
102
{ACAD_REACTORS
330
4DA
102
}
330
4DA
100
AcDbScale
 70
     0
300
1:1
140
1.0
141
1.0
290
     1
  0
SCALE
  5
4DC
102
{ACAD_REACTORS
330
4DA
102
}
330
4DA
100
AcDbScale
 70
     0
300
1:2
140
1.0
141
2.0
290
     0
  0
SCALE
  5
4DD
102
{ACAD_REACTORS
330
4DA
102
}
330
4DA
100
AcDbScale
 70
     0
300
1:4
140
1.0
141
4.0
290
     0
  0
SCALE
  5
4DE
102
{ACAD_REACTORS
330
4DA
102
}
330
4DA
100
AcDbScale
 70
     0
300
1:5
140
1.0
141
5.0
290
     0
  0
SCALE
  5
4DF
102
{ACAD_REACTORS
330
4DA
102
}
330
4DA
100
AcDbScale
 70
     0
300
1:8
140
1.0
141
8.0
290
     0
  0
SCALE
  5
4E0
102
{ACAD_REACTORS
330
4DA
102
}
330
4DA
100
AcDbScale
 70
     0
300
1:10
140
1.0
141
10.0
290
     0
  0
SCALE
  5
4E1
102
{ACAD_REACTORS
330
4DA
102
}
330
4DA
100
AcDbScale
 70
     0
300
1:16
140
1.0
141
16.0
290
     0
  0
SCALE
  5
4E2
102
{ACAD_REACTORS
330
4DA
102
}
330
4DA
100
AcDbScale
 70
     0
300
1:20
140
1.0
141
20.0
290
     0
  0
SCALE
  5
4E3
102
{ACAD_REACTORS
330
4DA
102
}
330
4DA
100
AcDbScale
 70
     0
300
1:30
140
1.0
141
30.0
290
     0
  0
SCALE
  5
4E4
102
{ACAD_REACTORS
330
4DA
102
}
330
4DA
100
AcDbScale
 70
     0
300
1:40
140
1.0
141
40.0
290
     0
  0
SCALE
  5
4E5
102
{ACAD_REACTORS
330
4DA
102
}
330
4DA
100
AcDbScale
 70
     0
300
1:50
140
1.0
141
50.0
290
     0
  0
SCALE
  5
4E6
102
{ACAD_REACTORS
330
4DA
102
}
330
4DA
100
AcDbScale
 70
     0
300
1:100
140
1.0
141
100.0
290
     0
  0
SCALE
  5
4E7
102
{ACAD_REACTORS
330
4DA
102
}
330
4DA
100
AcDbScale
 70
     0
300
2:1
140
2.0
141
1.0
290
     0
  0
SCALE
  5
4E8
102
{ACAD_REACTORS
330
4DA
102
}
330
4DA
100
AcDbScale
 70
     0
300
4:1
140
4.0
141
1.0
290
     0
  0
SCALE
  5
4E9
102
{ACAD_REACTORS
330
4DA
102
}
330
4DA
100
AcDbScale
 70
     0
300
8:1
140
8.0
141
1.0
290
     0
  0
SCALE
  5
4EA
102
{ACAD_REACTORS
330
4DA
102
}
330
4DA
100
AcDbScale
 70
     0
300
10:1
140
10.0
141
1.0
290
     0
  0
SCALE
  5
4EB
102
{ACAD_REACTORS
330
4DA
102
}
330
4DA
100
AcDbScale
 70
     0
300
100:1
140
100.0
141
1.0
290
     0
  0
SCALE
  5
4EC
102
{ACAD_REACTORS
330
4DA
102
}
330
4DA
100
AcDbScale
 70
     0
300
1/128" = 1'-0"
140
0.0078125
141
12.0
290
     0
  0
SCALE
  5
4ED
102
{ACAD_REACTORS
330
4DA
102
}
330
4DA
100
AcDbScale
 70
     0
300
1/64" = 1'-0"
140
0.015625
141
12.0
290
     0
  0
SCALE
  5
4EE
102
{ACAD_REACTORS
330
4DA
102
}
330
4DA
100
AcDbScale
 70
     0
300
1/32" = 1'-0"
140
0.03125
141
12.0
290
     0
  0
SCALE
  5
4EF
102
{ACAD_REACTORS
330
4DA
102
}
330
4DA
100
AcDbScale
 70
     0
300
1/16" = 1'-0"
140
0.0625
141
12.0
290
     0
  0
SCALE
  5
4F0
102
{ACAD_REACTORS
330
4DA
102
}
330
4DA
100
AcDbScale
 70
     0
300
3/32" = 1'-0"
140
0.09375
141
12.0
290
     0
  0
SCALE
  5
4F1
102
{ACAD_REACTORS
330
4DA
102
}
330
4DA
100
AcDbScale
 70
     0
300
1/8" = 1'-0"
140
0.125
141
12.0
290
     0
  0
SCALE
  5
4F2
102
{ACAD_REACTORS
330
4DA
102
}
330
4DA
100
AcDbScale
 70
     0
300
3/16" = 1'-0"
140
0.1875
141
12.0
290
     0
  0
SCALE
  5
4F3
102
{ACAD_REACTORS
330
4DA
102
}
330
4DA
100
AcDbScale
 70
     0
300
1/4" = 1'-0"
140
0.25
141
12.0
290
     0
  0
SCALE
  5
4F4
102
{ACAD_REACTORS
330
4DA
102
}
330
4DA
100
AcDbScale
 70
     0
300
3/8" = 1'-0"
140
0.375
141
12.0
290
     0
  0
SCALE
  5
4F5
102
{ACAD_REACTORS
330
4DA
102
}
330
4DA
100
AcDbScale
 70
     0
300
1/2" = 1'-0"
140
0.5
141
12.0
290
     0
  0
SCALE
  5
4F6
102
{ACAD_REACTORS
330
4DA
102
}
330
4DA
100
AcDbScale
 70
     0
300
3/4" = 1'-0"
140
0.75
141
12.0
290
     0
  0
SCALE
  5
4F7
102
{ACAD_REACTORS
330
4DA
102
}
330
4DA
100
AcDbScale
 70
     0
300
1" = 1'-0"
140
1.0
141
12.0
290
     0
  0
SCALE
  5
4F8
102
{ACAD_REACTORS
330
4DA
102
}
330
4DA
100
AcDbScale
 70
     0
300
1-1/2" = 1'-0"
140
1.5
141
12.0
290
     0
  0
SCALE
  5
4F9
102
{ACAD_REACTORS
330
4DA
102
}
330
4DA
100
AcDbScale
 70
     0
300
3" = 1'-0"
140
3.0
141
12.0
290
     0
  0
SCALE
  5
4FA
102
{ACAD_REACTORS
330
4DA
102
}
330
4DA
100
AcDbScale
 70
     0
300
6" = 1'-0"
140
6.0
141
12.0
290
     0
  0
SCALE
  5
4FB
102
{ACAD_REACTORS
330
4DA
102
}
330
4DA
100
AcDbScale
 70
     0
300
1'-0" = 1'-0"
140
12.0
141
12.0
290
     0
  0
ENDSEC
  0
EOF
