  0
SECTION
  2
HEADER
  9
$ACADVER
  1
AC1021
  9
$ACADMAINTVER
 70
    25
  9
$DWGCODEPAGE
  3
ANSI_1252
  9
$LASTSAVEDBY
  1
umberto.novello
  9
$INSBASE
 10
0.0
 20
0.0
 30
0.0
  9
$EXTMIN
 10
0.0
 20
0.0
 30
0.0
  9
$EXTMAX
 10
420.0
 20
297.0
 30
0.0
  9
$LIMMIN
 10
0.0
 20
0.0
  9
$LIMMAX
 10
420.0
 20
297.0
  9
$ORTHOMODE
 70
     0
  9
$REGENMODE
 70
     1
  9
$FILLMODE
 70
     1
  9
$QTEXTMODE
 70
     0
  9
$MIRRTEXT
 70
     1
  9
$LTSCALE
 40
23.1
  9
$ATTMODE
 70
     1
  9
$TEXTSIZE
 40
0.2
  9
$TRACEWID
 40
0.05
  9
$TEXTSTYLE
  7
STANDARD
  9
$CLAYER
  8
0
  9
$CELTYPE
  6
BYLAYER
  9
$CECOLOR
 62
   256
  9
$CELTSCALE
 40
1.0
  9
$DISPSILH
 70
     0
  9
$DIMSCALE
 40
1.0
  9
$DIMASZ
 40
2.5
  9
$DIMEXO
 40
2.625
  9
$DIMDLI
 40
15.96
  9
$DIMRND
 40
0.0
  9
$DIMDLE
 40
0.0
  9
$DIMEXE
 40
7.56
  9
$DIMTP
 40
0.01
  9
$DIMTM
 40
0.01
  9
$DIMTXT
 40
3.0
  9
$DIMCEN
 40
3.78
  9
$DIMTSZ
 40
0.0
  9
$DIMTOL
 70
     1
  9
$DIMLIM
 70
     0
  9
$DIMTIH
 70
     1
  9
$DIMTOH
 70
     1
  9
$DIMSE1
 70
     0
  9
$DIMSE2
 70
     0
  9
$DIMTAD
 70
     0
  9
$DIMZIN
 70
     0
  9
$DIMBLK
  1
CLOSED
  9
$DIMASO
 70
     1
  9
$DIMSHO
 70
     1
  9
$DIMPOST
  1

  9
$DIMAPOST
  1

  9
$DIMALT
 70
     0
  9
$DIMALTD
 70
     2
  9
$DIMALTF
 40
25.4
  9
$DIMLFAC
 40
1.0
  9
$DIMTOFL
 70
     0
  9
$DIMTVP
 40
0.0
  9
$DIMTIX
 70
     0
  9
$DIMSOXD
 70
     0
  9
$DIMSAH
 70
     0
  9
$DIMBLK1
  1

  9
$DIMBLK2
  1

  9
$DIMSTYLE
  2
STANDARD
  9
$DIMCLRD
 70
     0
  9
$DIMCLRE
 70
     0
  9
$DIMCLRT
 70
     0
  9
$DIMTFAC
 40
1.0
  9
$DIMGAP
 40
0.09
  9
$DIMJUST
 70
     0
  9
$DIMSD1
 70
     0
  9
$DIMSD2
 70
     0
  9
$DIMTOLJ
 70
     1
  9
$DIMTZIN
 70
     0
  9
$DIMALTZ
 70
     0
  9
$DIMALTTZ
 70
     0
  9
$DIMUPT
 70
     0
  9
$DIMDEC
 70
     4
  9
$DIMTDEC
 70
     4
  9
$DIMALTU
 70
     2
  9
$DIMALTTD
 70
     2
  9
$DIMTXSTY
  7
STANDARD
  9
$DIMAUNIT
 70
     0
  9
$DIMADEC
 70
     0
  9
$DIMALTRND
 40
0.0
  9
$DIMAZIN
 70
     0
  9
$DIMDSEP
 70
    46
  9
$DIMATFIT
 70
     3
  9
$DIMFRAC
 70
     0
  9
$DIMLDRBLK
  1

  9
$DIMLUNIT
 70
     2
  9
$DIMLWD
 70
    -2
  9
$DIMLWE
 70
    -2
  9
$DIMTMOVE
 70
     0
  9
$DIMFXL
 40
1.0
  9
$DIMFXLON
 70
     0
  9
$DIMJOGANG
 40
0.7853981633974483
  9
$DIMTFILL
 70
     0
  9
$DIMTFILLCLR
 70
     0
  9
$DIMARCSYM
 70
     0
  9
$DIMLTYPE
  6

  9
$DIMLTEX1
  6

  9
$DIMLTEX2
  6

  9
$LUNITS
 70
     2
  9
$LUPREC
 70
     4
  9
$SKETCHINC
 40
0.1
  9
$FILLETRAD
 40
0.5
  9
$AUNITS
 70
     0
  9
$AUPREC
 70
     0
  9
$MENU
  1
.
  9
$ELEVATION
 40
0.0
  9
$PELEVATION
 40
0.0
  9
$THICKNESS
 40
0.0
  9
$LIMCHECK
 70
     0
  9
$CHAMFERA
 40
0.0
  9
$CHAMFERB
 40
0.0
  9
$CHAMFERC
 40
0.0
  9
$CHAMFERD
 40
0.0
  9
$SKPOLY
 70
     0
  9
$TDCREATE
 40
2447893.041666667
  9
$TDUCREATE
 40
0.0
  9
$TDUPDATE
 40
2458444.424828345
  9
$TDUUPDATE
 40
2458444.383161678
  9
$TDINDWG
 40
0.0006789236
  9
$TDUSRTIMER
 40
0.0006789236
  9
$USRTIMER
 70
     1
  9
$ANGBASE
 50
0.0
  9
$ANGDIR
 70
     0
  9
$PDMODE
 70
     3
  9
$PDSIZE
 40
0.3125
  9
$PLINEWID
 40
0.0
  9
$SPLFRAME
 70
     0
  9
$SPLINETYPE
 70
     6
  9
$SPLINESEGS
 70
     8
  9
$HANDSEED
  5
608
  9
$SURFTAB1
 70
     6
  9
$SURFTAB2
 70
     6
  9
$SURFTYPE
 70
     6
  9
$SURFU
 70
     6
  9
$SURFV
 70
     6
  9
$UCSBASE
  2

  9
$UCSNAME
  2

  9
$UCSORG
 10
0.0
 20
0.0
 30
0.0
  9
$UCSXDIR
 10
1.0
 20
0.0
 30
0.0
  9
$UCSYDIR
 10
0.0
 20
1.0
 30
0.0
  9
$UCSORTHOREF
  2

  9
$UCSORTHOVIEW
 70
     0
  9
$UCSORGTOP
 10
0.0
 20
0.0
 30
0.0
  9
$UCSORGBOTTOM
 10
0.0
 20
0.0
 30
0.0
  9
$UCSORGLEFT
 10
0.0
 20
0.0
 30
0.0
  9
$UCSORGRIGHT
 10
0.0
 20
0.0
 30
0.0
  9
$UCSORGFRONT
 10
0.0
 20
0.0
 30
0.0
  9
$UCSORGBACK
 10
0.0
 20
0.0
 30
0.0
  9
$PUCSBASE
  2

  9
$PUCSNAME
  2

  9
$PUCSORG
 10
0.0
 20
0.0
 30
0.0
  9
$PUCSXDIR
 10
1.0
 20
0.0
 30
0.0
  9
$PUCSYDIR
 10
0.0
 20
1.0
 30
0.0
  9
$PUCSORTHOREF
  2

  9
$PUCSORTHOVIEW
 70
     0
  9
$PUCSORGTOP
 10
0.0
 20
0.0
 30
0.0
  9
$PUCSORGBOTTOM
 10
0.0
 20
0.0
 30
0.0
  9
$PUCSORGLEFT
 10
0.0
 20
0.0
 30
0.0
  9
$PUCSORGRIGHT
 10
0.0
 20
0.0
 30
0.0
  9
$PUCSORGFRONT
 10
0.0
 20
0.0
 30
0.0
  9
$PUCSORGBACK
 10
0.0
 20
0.0
 30
0.0
  9
$USERI1
 70
     0
  9
$USERI2
 70
     0
  9
$USERI3
 70
     0
  9
$USERI4
 70
     0
  9
$USERI5
 70
     0
  9
$USERR1
 40
0.0
  9
$USERR2
 40
0.0
  9
$USERR3
 40
0.0
  9
$USERR4
 40
0.0
  9
$USERR5
 40
0.0
  9
$WORLDVIEW
 70
     1
  9
$SHADEDGE
 70
     3
  9
$SHADEDIF
 70
    70
  9
$TILEMODE
 70
     1
  9
$MAXACTVP
 70
    64
  9
$PINSBASE
 10
0.0
 20
0.0
 30
0.0
  9
$PLIMCHECK
 70
     0
  9
$PEXTMIN
 10
1.000000000000000E+20
 20
1.000000000000000E+20
 30
1.000000000000000E+20
  9
$PEXTMAX
 10
-1.000000000000000E+20
 20
-1.000000000000000E+20
 30
-1.000000000000000E+20
  9
$PLIMMIN
 10
0.0
 20
0.0
  9
$PLIMMAX
 10
420.0
 20
297.0
  9
$UNITMODE
 70
     0
  9
$VISRETAIN
 70
     1
  9
$PLINEGEN
 70
     0
  9
$PSLTSCALE
 70
     1
  9
$TREEDEPTH
 70
  3020
  9
$CMLSTYLE
  2
Standard
  9
$CMLJUST
 70
     0
  9
$CMLSCALE
 40
1.0
  9
$PROXYGRAPHICS
 70
     1
  9
$MEASUREMENT
 70
     1
  9
$CELWEIGHT
370
    -1
  9
$ENDCAPS
280
     0
  9
$JOINSTYLE
280
     0
  9
$LWDISPLAY
290
     0
  9
$INSUNITS
 70
     4
  9
$HYPERLINKBASE
  1

  9
$STYLESHEET
  1

  9
$XEDIT
290
     1
  9
$CEPSNTYPE
380
     0
  9
$PSTYLEMODE
290
     1
  9
$FINGERPRINTGUID
  2
{85A11610-F98E-4B7B-9133-3F1D5B865E8C}
  9
$VERSIONGUID
  2
{FAEB1C32-E019-11D5-929B-00C0DF256EC4}
  9
$EXTNAMES
290
     1
  9
$PSVPSCALE
 40
0.0
  9
$OLESTARTUP
290
     0
  9
$SORTENTS
280
   127
  9
$INDEXCTL
280
     0
  9
$HIDETEXT
280
     1
  9
$XCLIPFRAME
290
     0
  9
$HALOGAP
280
     0
  9
$OBSCOLOR
 70
   257
  9
$OBSLTYPE
280
     0
  9
$INTERSECTIONDISPLAY
280
     0
  9
$INTERSECTIONCOLOR
 70
   257
  9
$DIMASSOC
280
     2
  9
$PROJECTNAME
  1

  9
$CAMERADISPLAY
290
     0
  9
$LENSLENGTH
 40
50.0
  9
$CAMERAHEIGHT
 40
0.0
  9
$STEPSPERSEC
 40
2.0
  9
$STEPSIZE
 40
6.0
  9
$3DDWFPREC
 40
2.0
  9
$PSOLWIDTH
 40
0.25
  9
$PSOLHEIGHT
 40
4.0
  9
$LOFTANG1
 40
1.570796326794897
  9
$LOFTANG2
 40
1.570796326794897
  9
$LOFTMAG1
 40
0.0
  9
$LOFTMAG2
 40
0.0
  9
$LOFTPARAM
 70
     7
  9
$LOFTNORMALS
280
     1
  9
$LATITUDE
 40
37.795
  9
$LONGITUDE
 40
-122.394
  9
$NORTHDIRECTION
 40
0.0
  9
$TIMEZONE
 70
 -8000
  9
$LIGHTGLYPHDISPLAY
280
     1
  9
$TILEMODELIGHTSYNCH
280
     1
  9
$SOLIDHIST
280
     0
  9
$SHOWHIST
280
     1
  9
$DWFFRAME
280
     2
  9
$DGNFRAME
280
     2
  9
$REALWORLDSCALE
290
     1
  9
$INTERFERECOLOR
 62
   256
  9
$CSHADOW
280
     0
  9
$SHADOWPLANELOCATION
 40
0.0
  0
ENDSEC
  0
SECTION
  2
CLASSES
  0
CLASS
  1
ACDBDICTIONARYWDFLT
  2
AcDbDictionaryWithDefault
  3
ObjectDBX Classes
 90
        0
 91
        7
280
     0
281
     0
  0
CLASS
  1
ACDBPLACEHOLDER
  2
AcDbPlaceHolder
  3
ObjectDBX Classes
 90
        0
 91
        1
280
     0
281
     0
  0
CLASS
  1
LAYOUT
  2
AcDbLayout
  3
ObjectDBX Classes
 90
        0
 91
        1
280
     0
281
     0
  0
CLASS
  1
TABLESTYLE
  2
AcDbTableStyle
  3
ObjectDBX Classes
 90
     4095
 91
        7
280
     0
281
     0
  0
CLASS
  1
ACAD_TABLE
  2
AcDbTable
  3
ObjectDBX Classes
 90
     1025
 91
        6
280
     0
281
     1
  0
CLASS
  1
SCALE
  2
AcDbScale
  3
ObjectDBX Classes
 90
     1153
 91
        7
280
     0
281
     0
  0
CLASS
  1
TABLEGEOMETRY
  2
AcDbTableGeometry
  3
ObjectDBX Classes
 90
     1152
 91
        6
280
     0
281
     0
  0
CLASS
  1
VISUALSTYLE
  2
AcDbVisualStyle
  3
ObjectDBX Classes
 90
     4095
 91
        7
280
     0
281
     0
  0
CLASS
  1
MATERIAL
  2
AcDbMaterial
  3
ObjectDBX Classes
 90
     1153
 91
        7
280
     0
281
     0
  0
CLASS
  1
MLEADERSTYLE
  2
AcDbMLeaderStyle
  3
ACDB_MLEADERSTYLE_CLASS
 90
     4095
 91
        7
280
     0
281
     0
  0
CLASS
  1
SUN
  2
AcDbSun
  3
SCENEOE
 90
     1153
 91
        6
280
     0
281
     0
  0
CLASS
  1
DICTIONARYVAR
  2
AcDbDictionaryVar
  3
ObjectDBX Classes
 90
        0
 91
        5
280
     0
281
     0
  0
CLASS
  1
CELLSTYLEMAP
  2
AcDbCellStyleMap
  3
ObjectDBX Classes
 90
     1152
 91
        4
280
     0
281
     0
  0
ENDSEC
  0
SECTION
  2
TABLES
  0
TABLE
  2
VPORT
  5
8
330
0
100
AcDbSymbolTable
 70
     1
  0
VPORT
  5
1F4
330
8
100
AcDbSymbolTableRecord
100
AcDbViewportTableRecord
  2
*ACTIVE
 70
     0
 10
0.0
 20
0.0
 11
1.0
 21
1.0
 12
341.7666887159532
 22
143.7087081712062
 13
0.0
 23
0.0
 14
1.0
 24
1.0
 15
0.0
 25
0.0
 16
0.0
 26
0.0
 36
1.0
 17
0.0
 27
0.0
 37
0.0
 40
371.2499999999999
 41
1.929961089494163
 42
50.0
 43
0.0
 44
0.0
 50
0.0
 51
0.0
 71
    16
 72
   100
 73
     1
 74
     1
 75
     0
 76
     0
 77
     0
 78
     0
281
     0
 65
     1
110
0.0
120
0.0
130
0.0
111
1.0
121
0.0
131
0.0
112
0.0
122
1.0
132
0.0
 79
     0
146
0.0
348
5E0
 60
     3
 61
     5
292
     1
282
     1
141
0.0
142
0.0
 63
   256
361
5FB
  0
ENDTAB
  0
TABLE
  2
LTYPE
  5
5
330
0
100
AcDbSymbolTable
 70
     6
  0
LTYPE
  5
14
330
5
100
AcDbSymbolTableRecord
100
AcDbLinetypeTableRecord
  2
BYBLOCK
 70
     0
  3

 72
    65
 73
     0
 40
0.0
  0
LTYPE
  5
15
330
5
100
AcDbSymbolTableRecord
100
AcDbLinetypeTableRecord
  2
BYLAYER
 70
     0
  3

 72
    65
 73
     0
 40
0.0
  0
LTYPE
  5
16
330
5
100
AcDbSymbolTableRecord
100
AcDbLinetypeTableRecord
  2
CONTINUOUS
 70
     0
  3
Solid line
 72
    65
 73
     0
 40
0.0
  0
LTYPE
  5
1F5
330
5
100
AcDbSymbolTableRecord
100
AcDbLinetypeTableRecord
  2
CENTER
 70
     0
  3
____ _ ____ _ ____ _ ____ _ ____ _ ____ _ ____
 72
    65
 73
     4
 40
0.6
 49
0.375
 74
     0
 49
-0.075
 74
     0
 49
0.075
 74
     0
 49
-0.075
 74
     0
  0
LTYPE
  5
1F6
330
5
100
AcDbSymbolTableRecord
100
AcDbLinetypeTableRecord
  2
HIDDEN
 70
     0
  3
- - - - - - - - - - - - - - - - - - - -
 72
    65
 73
     2
 40
0.2
 49
0.1
 74
     0
 49
-0.1
 74
     0
  0
LTYPE
  5
1F7
330
5
100
AcDbSymbolTableRecord
100
AcDbLinetypeTableRecord
  2
PHANTOM
 70
     0
  3
_____ _ _ _____ _ _ _____ _ _ _____
 72
    65
 73
     6
 40
0.8
 49
0.45
 74
     0
 49
-0.05
 74
     0
 49
0.1
 74
     0
 49
-0.05
 74
     0
 49
0.1
 74
     0
 49
-0.05
 74
     0
  0
LTYPE
  5
1F8
330
5
100
AcDbSymbolTableRecord
100
AcDbLinetypeTableRecord
  2
DOT
 70
     0
  3
. . . . . . . . . . . . . . . . . . . .
 72
    65
 73
     2
 40
0.2
 49
0.1
 74
     0
 49
-0.1
 74
     0
  0
LTYPE
  5
1F9
330
5
100
AcDbSymbolTableRecord
100
AcDbLinetypeTableRecord
  2
DASHED
 70
     0
  3
- - - - - - - - - - - - - - - - - - - -
 72
    65
 73
     2
 40
0.2
 49
0.1
 74
     0
 49
-0.1
 74
     0
  0
ENDTAB
  0
TABLE
  2
LAYER
  5
2
330
0
100
AcDbSymbolTable
 70
    38
  0
LAYER
  5
10
330
2
100
AcDbSymbolTableRecord
100
AcDbLayerTableRecord
  2
0
 70
     0
 62
     7
  6
CONTINUOUS
370
    -3
390
F
347
5F7
  0
LAYER
  5
1FA
330
2
100
AcDbSymbolTableRecord
100
AcDbLayerTableRecord
  2
DEFAULT_1
 70
     0
 62
     7
  6
CENTER
370
    -3
390
F
347
5F7
  0
LAYER
  5
1FB
330
2
100
AcDbSymbolTableRecord
100
AcDbLayerTableRecord
  2
DEFAULT_2
 70
     0
 62
     8
  6
HIDDEN
370
    -3
390
F
347
5F7
  0
LAYER
  5
1FC
330
2
100
AcDbSymbolTableRecord
100
AcDbLayerTableRecord
  2
DEFAULT_3
 70
     0
 62
     7
  6
PHANTOM
370
    -3
390
F
347
5F7
  0
LAYER
  5
1FD
330
2
100
AcDbSymbolTableRecord
100
AcDbLayerTableRecord
  2
01_ALL_DTM_PLN
 70
     0
 62
     7
  6
CONTINUOUS
370
    -3
390
F
347
5F7
  0
LAYER
  5
1FE
330
2
100
AcDbSymbolTableRecord
100
AcDbLayerTableRecord
  2
01__ASM_ALL_DTM_PLN
 70
     0
 62
     7
  6
CONTINUOUS
370
    -3
390
F
347
5F7
  0
LAYER
  5
1FF
330
2
100
AcDbSymbolTableRecord
100
AcDbLayerTableRecord
  2
01__ASM_DEF_DTM_PLN
 70
     0
 62
     7
  6
CONTINUOUS
370
    -3
390
F
347
5F7
  0
LAYER
  5
200
330
2
100
AcDbSymbolTableRecord
100
AcDbLayerTableRecord
  2
01___PRT_ALL_DTM_PLN
 70
     0
 62
     7
  6
CONTINUOUS
370
    -3
390
F
347
5F7
  0
LAYER
  5
201
330
2
100
AcDbSymbolTableRecord
100
AcDbLayerTableRecord
  2
01___PRT_DEF_DTM_PLN
 70
     0
 62
     7
  6
CONTINUOUS
370
    -3
390
F
347
5F7
  0
LAYER
  5
202
330
2
100
AcDbSymbolTableRecord
100
AcDbLayerTableRecord
  2
02_ALL_AXES
 70
     0
 62
     7
  6
CONTINUOUS
370
    -3
390
F
347
5F7
  0
LAYER
  5
203
330
2
100
AcDbSymbolTableRecord
100
AcDbLayerTableRecord
  2
02__ASM_ALL_AXES
 70
     0
 62
     7
  6
CONTINUOUS
370
    -3
390
F
347
5F7
  0
LAYER
  5
204
330
2
100
AcDbSymbolTableRecord
100
AcDbLayerTableRecord
  2
02___PRT_ALL_AXES
 70
     0
 62
     7
  6
CONTINUOUS
370
    -3
390
F
347
5F7
  0
LAYER
  5
205
330
2
100
AcDbSymbolTableRecord
100
AcDbLayerTableRecord
  2
03_ALL_CURVES
 70
     0
 62
     7
  6
CONTINUOUS
370
    -3
390
F
347
5F7
  0
LAYER
  5
206
330
2
100
AcDbSymbolTableRecord
100
AcDbLayerTableRecord
  2
03__ASM_ALL_CURVES
 70
     0
 62
     7
  6
CONTINUOUS
370
    -3
390
F
347
5F7
  0
LAYER
  5
207
330
2
100
AcDbSymbolTableRecord
100
AcDbLayerTableRecord
  2
03___PRT_ALL_CURVES
 70
     0
 62
     7
  6
CONTINUOUS
370
    -3
390
F
347
5F7
  0
LAYER
  5
208
330
2
100
AcDbSymbolTableRecord
100
AcDbLayerTableRecord
  2
04_ALL_DTM_PNT
 70
     0
 62
     7
  6
CONTINUOUS
370
    -3
390
F
347
5F7
  0
LAYER
  5
209
330
2
100
AcDbSymbolTableRecord
100
AcDbLayerTableRecord
  2
04__ASM_ALL_DTM_PNT
 70
     0
 62
     7
  6
CONTINUOUS
370
    -3
390
F
347
5F7
  0
LAYER
  5
20A
330
2
100
AcDbSymbolTableRecord
100
AcDbLayerTableRecord
  2
04___PRT_ALL_DTM_PNT
 70
     0
 62
     7
  6
CONTINUOUS
370
    -3
390
F
347
5F7
  0
LAYER
  5
20B
330
2
100
AcDbSymbolTableRecord
100
AcDbLayerTableRecord
  2
05_ALL_DTM_CSYS
 70
     0
 62
     7
  6
CONTINUOUS
370
    -3
390
F
347
5F7
  0
LAYER
  5
20C
330
2
100
AcDbSymbolTableRecord
100
AcDbLayerTableRecord
  2
05__ASM_ALL_DTM_CSYS
 70
     0
 62
     7
  6
CONTINUOUS
370
    -3
390
F
347
5F7
  0
LAYER
  5
20D
330
2
100
AcDbSymbolTableRecord
100
AcDbLayerTableRecord
  2
05__ASM_DEF_DTM_CSYS
 70
     0
 62
     7
  6
CONTINUOUS
370
    -3
390
F
347
5F7
  0
LAYER
  5
20E
330
2
100
AcDbSymbolTableRecord
100
AcDbLayerTableRecord
  2
05___PRT_ALL_DTM_CSYS
 70
     0
 62
     7
  6
CONTINUOUS
370
    -3
390
F
347
5F7
  0
LAYER
  5
20F
330
2
100
AcDbSymbolTableRecord
100
AcDbLayerTableRecord
  2
05___PRT_DEF_DTM_CSYS
 70
     0
 62
     7
  6
CONTINUOUS
370
    -3
390
F
347
5F7
  0
LAYER
  5
210
330
2
100
AcDbSymbolTableRecord
100
AcDbLayerTableRecord
  2
06_ALL_SURFS
 70
     0
 62
     7
  6
CONTINUOUS
370
    -3
390
F
347
5F7
  0
LAYER
  5
211
330
2
100
AcDbSymbolTableRecord
100
AcDbLayerTableRecord
  2
06__ASM_ALL_SURFS
 70
     0
 62
     7
  6
CONTINUOUS
370
    -3
390
F
347
5F7
  0
LAYER
  5
212
330
2
100
AcDbSymbolTableRecord
100
AcDbLayerTableRecord
  2
06___PRT_ALL_SURFS
 70
     0
 62
     7
  6
CONTINUOUS
370
    -3
390
F
347
5F7
  0
LAYER
  5
213
330
2
100
AcDbSymbolTableRecord
100
AcDbLayerTableRecord
  2
07__ASM_ALL_SKELETONS
 70
     0
 62
     7
  6
CONTINUOUS
370
    -3
390
F
347
5F7
  0
LAYER
  5
214
330
2
100
AcDbSymbolTableRecord
100
AcDbLayerTableRecord
  2
1_ALL_PLANES
 70
     0
 62
     7
  6
CONTINUOUS
370
    -3
390
F
347
5F7
  0
LAYER
  5
215
330
2
100
AcDbSymbolTableRecord
100
AcDbLayerTableRecord
  2
2_ALL_CSYS
 70
     0
 62
     7
  6
CONTINUOUS
370
    -3
390
F
347
5F7
  0
LAYER
  5
216
330
2
100
AcDbSymbolTableRecord
100
AcDbLayerTableRecord
  2
3_ALL_AXES
 70
     0
 62
     7
  6
CONTINUOUS
370
    -3
390
F
347
5F7
  0
LAYER
  5
217
330
2
100
AcDbSymbolTableRecord
100
AcDbLayerTableRecord
  2
4_ALL_POINTS
 70
     0
 62
     7
  6
CONTINUOUS
370
    -3
390
F
347
5F7
  0
LAYER
  5
218
330
2
100
AcDbSymbolTableRecord
100
AcDbLayerTableRecord
  2
5_ALL_CURVES
 70
     0
 62
     7
  6
CONTINUOUS
370
    -3
390
F
347
5F7
  0
LAYER
  5
219
330
2
100
AcDbSymbolTableRecord
100
AcDbLayerTableRecord
  2
5__LED
 70
     0
 62
     7
  6
CONTINUOUS
370
    -3
390
F
347
5F7
  0
LAYER
  5
21A
330
2
100
AcDbSymbolTableRecord
100
AcDbLayerTableRecord
  2
6_ALL_SURFS
 70
     0
 62
     7
  6
CONTINUOUS
370
    -3
390
F
347
5F7
  0
LAYER
  5
21B
330
2
100
AcDbSymbolTableRecord
100
AcDbLayerTableRecord
  2
7_ALL_FEATURES
 70
     0
 62
     7
  6
CONTINUOUS
370
    -3
390
F
347
5F7
  0
LAYER
  5
21C
330
2
100
AcDbSymbolTableRecord
100
AcDbLayerTableRecord
  2
8_ALL_NOTES_BALLOONS_SYMBOLS_GT
 70
     0
 62
     7
  6
CONTINUOUS
370
    -3
390
F
347
5F7
  0
LAYER
  5
21D
330
2
100
AcDbSymbolTableRecord
100
AcDbLayerTableRecord
  2
INTF_MAGENTA
 70
     0
 62
     7
  6
CONTINUOUS
370
    -3
390
F
347
5F7
  0
LAYER
  5
21E
330
2
100
AcDbSymbolTableRecord
100
AcDbLayerTableRecord
  2
INTF_RED
 70
     0
 62
     7
  6
CONTINUOUS
370
    -3
390
F
347
5F7
  0
ENDTAB
  0
TABLE
  2
STYLE
  5
3
330
0
100
AcDbSymbolTable
 70
     5
  0
STYLE
  5
11
330
3
100
AcDbSymbolTableRecord
100
AcDbTextStyleTableRecord
  2
STANDARD
 70
     0
 40
0.0
 41
0.85
 50
0.0
 71
     0
 42
0.2
  3
txt
  4

  0
STYLE
  5
21F
330
3
100
AcDbSymbolTableRecord
100
AcDbTextStyleTableRecord
  2
TEXTSTYLE_1
 70
     0
 40
0.0
 41
0.8
 50
0.0
 71
     0
 42
0.2
  3
gdt
  4

  0
STYLE
  5
220
330
3
100
AcDbSymbolTableRecord
100
AcDbTextStyleTableRecord
  2
TEXTSTYLE_2
 70
     0
 40
0.0
 41
0.9
 50
0.0
 71
     0
 42
0.2
  3
txt
  4

  0
STYLE
  5
221
330
3
100
AcDbSymbolTableRecord
100
AcDbTextStyleTableRecord
  2
TEXTSTYLE_3
 70
     0
 40
0.0
 41
0.9
 50
0.0
 71
     0
 42
0.2
  3
txt
  4

  0
STYLE
  5
222
330
3
100
AcDbSymbolTableRecord
100
AcDbTextStyleTableRecord
  2
TEXTSTYLE_4
 70
     0
 40
0.0
 41
0.85
 50
0.0
 71
     0
 42
0.2
  3
txt
  4

  0
ENDTAB
  0
TABLE
  2
VIEW
  5
6
330
0
100
AcDbSymbolTable
 70
     0
  0
ENDTAB
  0
TABLE
  2
UCS
  5
7
330
0
100
AcDbSymbolTable
 70
     0
  0
ENDTAB
  0
TABLE
  2
APPID
  5
9
330
0
100
AcDbSymbolTable
 70
     2
  0
APPID
  5
223
330
9
100
AcDbSymbolTableRecord
100
AcDbRegAppTableRecord
  2
ACAD
 70
     0
  0
APPID
  5
602
330
9
100
AcDbSymbolTableRecord
100
AcDbRegAppTableRecord
  2
ACAD_MLEADERVER
 70
     0
  0
ENDTAB
  0
TABLE
  2
DIMSTYLE
  5
A
330
0
100
AcDbSymbolTable
 70
     3
100
AcDbDimStyleTable
  0
DIMSTYLE
105
22C
330
A
100
AcDbSymbolTableRecord
100
AcDbDimStyleTableRecord
  2
STANDARD
 70
     0
 41
2.5
 47
0.01
 48
0.01
 71
     1
 73
     0
 74
     0
 77
     1
 78
     8
140
3.0
178
     0
271
     2
272
     2
284
     8
340
11
341
226
342
226
343
226
344
226
  0
DIMSTYLE
105
22D
330
A
100
AcDbSymbolTableRecord
100
AcDbDimStyleTableRecord
  2
DIMSTYLE_1
 70
     0
 41
2.5
 47
0.3
 48
0.3
 73
     0
 74
     0
 77
     1
 78
     8
140
3.0
144
1.3333333333
178
     0
271
     2
272
     2
284
     8
340
11
341
226
342
226
343
226
344
226
  0
DIMSTYLE
105
22E
330
A
100
AcDbSymbolTableRecord
100
AcDbDimStyleTableRecord
  2
DIMSTYLE_2
 70
     0
 41
2.5
 47
0.3
 48
0.3
 73
     0
 74
     0
 77
     1
 78
     8
140
3.0
144
1.3333333333
178
     0
271
     0
272
     0
284
     8
340
11
341
226
342
226
343
226
344
226
  0
ENDTAB
  0
TABLE
  2
BLOCK_RECORD
  5
1
330
0
100
AcDbSymbolTable
 70
     6
  0
BLOCK_RECORD
  5
224
330
1
100
AcDbSymbolTableRecord
100
AcDbBlockTableRecord
  2
*Model_Space
340
5B4
 70
     0
280
     1
281
     0
  0
BLOCK_RECORD
  5
225
330
1
100
AcDbSymbolTableRecord
100
AcDbBlockTableRecord
  2
*Paper_Space
340
5B5
 70
     0
280
     1
281
     0
  0
BLOCK_RECORD
  5
226
330
1
100
AcDbSymbolTableRecord
100
AcDbBlockTableRecord
  2
_CLOSED
340
0
102
{BLKREFS
331
276
331
277
331
27E
331
27F
331
286
331
287
102
}
 70
     0
280
     1
281
     0
  0
BLOCK_RECORD
  5
227
330
1
100
AcDbSymbolTableRecord
100
AcDbBlockTableRecord
  2
*D1
340
0
 70
     0
280
     1
281
     0
  0
BLOCK_RECORD
  5
228
330
1
100
AcDbSymbolTableRecord
100
AcDbBlockTableRecord
  2
*D2
340
0
 70
     0
280
     1
281
     0
  0
BLOCK_RECORD
  5
229
330
1
100
AcDbSymbolTableRecord
100
AcDbBlockTableRecord
  2
*D3
340
0
 70
     0
280
     1
281
     0
  0
BLOCK_RECORD
  5
22A
330
1
100
AcDbSymbolTableRecord
100
AcDbBlockTableRecord
  2
LOGO2_BL0
340
0
102
{BLKREFS
331
298
102
}
 70
     0
280
     1
281
     0
  0
BLOCK_RECORD
  5
22B
330
1
100
AcDbSymbolTableRecord
100
AcDbBlockTableRecord
  2
*T5
340
0
102
{BLKREFS
331
3C2
102
}
 70
     0
280
     1
281
     0
  0
ENDTAB
  0
ENDSEC
  0
SECTION
  2
BLOCKS
  0
BLOCK
  5
20
330
224
100
AcDbEntity
  8
0
100
AcDbBlockBegin
  2
*Model_Space
 70
     0
 10
0.0
 20
0.0
 30
0.0
  3
*Model_Space
  1

  0
ENDBLK
  5
21
330
224
100
AcDbEntity
  8
0
100
AcDbBlockEnd
  0
BLOCK
  5
1C
330
225
100
AcDbEntity
 67
     1
  8
0
100
AcDbBlockBegin
  2
*Paper_Space
 70
     0
 10
0.0
 20
0.0
 30
0.0
  3
*Paper_Space
  1

  0
ENDBLK
  5
1D
330
225
100
AcDbEntity
 67
     1
  8
0
100
AcDbBlockEnd
  0
BLOCK
  5
26B
330
226
100
AcDbEntity
  8
0
100
AcDbBlockBegin
  2
_CLOSED
 70
     0
 10
0.0
 20
0.0
 30
0.0
  3
_CLOSED
  1

  0
LINE
  5
26C
330
226
100
AcDbEntity
  8
0
  6
ByBlock
 62
     0
100
AcDbLine
 10
0.0
 20
0.0
 30
0.0
 11
-1.0
 21
0.2
 31
0.0
  0
LINE
  5
26D
330
226
100
AcDbEntity
  8
0
  6
ByBlock
 62
     0
100
AcDbLine
 10
-1.0
 20
0.2
 30
0.0
 11
-1.0
 21
-0.2
 31
0.0
  0
LINE
  5
26E
330
226
100
AcDbEntity
  8
0
  6
ByBlock
 62
     0
100
AcDbLine
 10
-1.0
 20
-0.2
 30
0.0
 11
0.0
 21
0.0
 31
0.0
  0
LINE
  5
26F
330
226
100
AcDbEntity
  8
0
  6
ByBlock
 62
     0
100
AcDbLine
 10
-1.0
 20
0.0
 30
0.0
 11
0.0
 21
0.0
 31
0.0
  0
ENDBLK
  5
270
330
226
100
AcDbEntity
  8
0
  6
ByBlock
 62
     0
100
AcDbBlockEnd
  0
BLOCK
  5
271
330
227
100
AcDbEntity
  8
0
100
AcDbBlockBegin
  2
*D1
 70
     1
 10
0.0
 20
0.0
 30
0.0
  3
*D1
  1

  0
LINE
  5
272
330
227
100
AcDbEntity
  8
0
  6
Continuous
 62
     2
100
AcDbLine
 10
31.4382102273
 20
30.5380156301
 30
0.0
 11
31.4382102273
 21
13.9076704545
 31
0.0
  0
LINE
  5
273
330
227
100
AcDbEntity
  8
0
  6
Continuous
 62
     2
100
AcDbLine
 10
121.4382102273
 20
30.5380156301
 30
0.0
 11
121.4382102273
 21
13.9076704545
 31
0.0
  0
LINE
  5
274
330
227
100
AcDbEntity
  8
0
  6
Continuous
 62
     2
100
AcDbLine
 10
31.4382102273
 20
14.6576704545
 30
0.0
 11
76.4382102273
 21
14.6576704545
 31
0.0
  0
LINE
  5
275
330
227
100
AcDbEntity
  8
0
  6
Continuous
 62
     2
100
AcDbLine
 10
121.4382102273
 20
14.6576704545
 30
0.0
 11
76.4382102273
 21
14.6576704545
 31
0.0
  0
INSERT
  5
276
330
227
100
AcDbEntity
  8
0
  6
Continuous
 62
     2
100
AcDbBlockReference
  2
_CLOSED
 10
31.4382102273
 20
14.6576704545
 30
0.0
 41
2.5
 42
2.5
 43
2.5
 50
180.0
  0
INSERT
  5
277
330
227
100
AcDbEntity
  8
0
  6
Continuous
 62
     2
100
AcDbBlockReference
  2
_CLOSED
 10
121.4382102273
 20
14.6576704545
 30
0.0
 41
2.5
 42
2.5
 43
2.5
  0
ENDBLK
  5
278
330
227
100
AcDbEntity
  8
0
  6
ByBlock
 62
     0
100
AcDbBlockEnd
  0
BLOCK
  5
279
330
228
100
AcDbEntity
  8
0
100
AcDbBlockBegin
  2
*D2
 70
     1
 10
0.0
 20
0.0
 30
0.0
  3
*D2
  1

  0
LINE
  5
27A
330
228
100
AcDbEntity
  8
0
  6
Continuous
 62
     2
100
AcDbLine
 10
126.2012046509
 20
124.6576704545
 30
0.0
 11
142.1882102273
 21
124.6576704545
 31
0.0
  0
LINE
  5
27B
330
228
100
AcDbEntity
  8
0
  6
Continuous
 62
     2
100
AcDbLine
 10
126.2012046509
 20
34.6576704545
 30
0.0
 11
142.1882102273
 21
34.6576704545
 31
0.0
  0
LINE
  5
27C
330
228
100
AcDbEntity
  8
0
  6
Continuous
 62
     2
100
AcDbLine
 10
141.4382102273
 20
124.6576704545
 30
0.0
 11
141.4382102273
 21
79.6576704545
 31
0.0
  0
LINE
  5
27D
330
228
100
AcDbEntity
  8
0
  6
Continuous
 62
     2
100
AcDbLine
 10
141.4382102273
 20
34.6576704545
 30
0.0
 11
141.4382102273
 21
79.6576704545
 31
0.0
  0
INSERT
  5
27E
330
228
100
AcDbEntity
  8
0
  6
Continuous
 62
     2
100
AcDbBlockReference
  2
_CLOSED
 10
141.4382102273
 20
124.6576704545
 30
0.0
 41
2.5
 42
2.5
 43
2.5
 50
90.0
  0
INSERT
  5
27F
330
228
100
AcDbEntity
  8
0
  6
Continuous
 62
     2
100
AcDbBlockReference
  2
_CLOSED
 10
141.4382102273
 20
34.6576704545
 30
0.0
 41
2.5
 42
2.5
 43
2.5
 50
270.0
  0
ENDBLK
  5
280
330
228
100
AcDbEntity
  8
0
  6
ByBlock
 62
     0
100
AcDbBlockEnd
  0
BLOCK
  5
281
330
229
100
AcDbEntity
  8
0
100
AcDbBlockBegin
  2
*D3
 70
     1
 10
0.0
 20
0.0
 30
0.0
  3
*D3
  1

  0
LINE
  5
282
330
229
100
AcDbEntity
  8
0
  6
Continuous
 62
     2
100
AcDbLine
 10
126.2012046509
 20
236.0293666237
 30
0.0
 11
142.1882102273
 21
236.0293666237
 31
0.0
  0
LINE
  5
283
330
229
100
AcDbEntity
  8
0
  6
Continuous
 62
     2
100
AcDbLine
 10
127.1216591963
 20
186.1543666237
 30
0.0
 11
142.1882102273
 21
186.1543666237
 31
0.0
  0
LINE
  5
284
330
229
100
AcDbEntity
  8
0
  6
Continuous
 62
     2
100
AcDbLine
 10
141.4382102273
 20
236.0293666237
 30
0.0
 11
141.4382102273
 21
211.0918666237
 31
0.0
  0
LINE
  5
285
330
229
100
AcDbEntity
  8
0
  6
Continuous
 62
     2
100
AcDbLine
 10
141.4382102273
 20
186.1543666237
 30
0.0
 11
141.4382102273
 21
211.0918666237
 31
0.0
  0
INSERT
  5
286
330
229
100
AcDbEntity
  8
0
  6
Continuous
 62
     2
100
AcDbBlockReference
  2
_CLOSED
 10
141.4382102273
 20
236.0293666237
 30
0.0
 41
2.5
 42
2.5
 43
2.5
 50
90.0
  0
INSERT
  5
287
330
229
100
AcDbEntity
  8
0
  6
Continuous
 62
     2
100
AcDbBlockReference
  2
_CLOSED
 10
141.4382102273
 20
186.1543666237
 30
0.0
 41
2.5
 42
2.5
 43
2.5
 50
270.0
  0
ENDBLK
  5
288
330
229
100
AcDbEntity
  8
0
  6
ByBlock
 62
     0
100
AcDbBlockEnd
  0
BLOCK
  5
22F
330
22A
100
AcDbEntity
  8
0
100
AcDbBlockBegin
  2
LOGO2_BL0
 70
     0
 10
333.1473869546
 20
37.5239270671
 30
0.0
  3
LOGO2_BL0
  1

  0
LINE
  5
230
330
22A
100
AcDbEntity
  8
0
  6
Continuous
 62
     7
100
AcDbLine
 10
324.8903121828
 20
40.7194184059
 30
0.0
 11
323.5859712535
 21
40.7194184059
 31
0.0
  0
LINE
  5
231
330
22A
100
AcDbEntity
  8
0
  6
Continuous
 62
     7
100
AcDbLine
 10
323.5859712535
 20
40.7194184059
 30
0.0
 11
323.5859712535
 21
30.260352346
 31
0.0
  0
LINE
  5
232
330
22A
100
AcDbEntity
  8
0
  6
Continuous
 62
     7
100
AcDbLine
 10
323.5859712535
 20
30.260352346
 30
0.0
 11
328.0670261417
 21
30.260352346
 31
0.0
  0
LINE
  5
233
330
22A
100
AcDbEntity
  8
0
  6
Continuous
 62
     7
100
AcDbLine
 10
328.0670261417
 20
30.260352346
 30
0.0
 11
328.0670261417
 21
31.4532066711
 31
0.0
  0
LINE
  5
234
330
22A
100
AcDbEntity
  8
0
  6
Continuous
 62
     7
100
AcDbLine
 10
328.0670261417
 20
31.4532066711
 30
0.0
 11
324.8903121828
 21
31.4532066711
 31
0.0
  0
LINE
  5
235
330
22A
100
AcDbEntity
  8
0
  6
Continuous
 62
     7
100
AcDbLine
 10
324.8903121828
 20
31.4532066711
 30
0.0
 11
324.8903121828
 21
40.7194184059
 31
0.0
  0
LINE
  5
236
330
22A
100
AcDbEntity
  8
0
  6
Continuous
 62
     7
100
AcDbLine
 10
339.8266383991
 20
40.7194184059
 30
0.0
 11
338.522820881
 21
40.7194184059
 31
0.0
  0
LINE
  5
237
330
22A
100
AcDbEntity
  8
0
  6
Continuous
 62
     7
100
AcDbLine
 10
338.522820881
 20
40.7194184059
 30
0.0
 11
338.522820881
 21
30.260352346
 31
0.0
  0
LINE
  5
238
330
22A
100
AcDbEntity
  8
0
  6
Continuous
 62
     7
100
AcDbLine
 10
338.522820881
 20
30.260352346
 30
0.0
 11
343.0040066221
 21
30.260352346
 31
0.0
  0
LINE
  5
239
330
22A
100
AcDbEntity
  8
0
  6
Continuous
 62
     7
100
AcDbLine
 10
343.0040066221
 20
30.260352346
 30
0.0
 11
343.0040066221
 21
31.4532066711
 31
0.0
  0
LINE
  5
23A
330
22A
100
AcDbEntity
  8
0
  6
Continuous
 62
     7
100
AcDbLine
 10
343.0040066221
 20
31.4532066711
 30
0.0
 11
339.8266383991
 21
31.4532066711
 31
0.0
  0
LINE
  5
23B
330
22A
100
AcDbEntity
  8
0
  6
Continuous
 62
     7
100
AcDbLine
 10
339.8266383991
 20
31.4532066711
 30
0.0
 11
339.8266383991
 21
40.7194184059
 31
0.0
  0
LWPOLYLINE
  5
23C
330
22A
100
AcDbEntity
  8
0
  6
Continuous
 62
     7
100
AcDbPolyline
 90
        2
 70
     0
 43
0.2
 10
321.9403661644
 20
26.9168010391
 10
321.9403661644
 20
25.0597377898
  0
LWPOLYLINE
  5
23D
330
22A
100
AcDbEntity
  8
0
  6
Continuous
 62
     7
100
AcDbPolyline
 90
        2
 70
     0
 43
0.2
 10
321.9403661644
 20
25.0597377898
 10
322.7360821748
 20
25.0597377898
  0
LWPOLYLINE
  5
23E
330
22A
100
AcDbEntity
  8
0
  6
Continuous
 62
     7
100
AcDbPolyline
 90
        2
 70
     0
 43
0.2
 10
322.7360821748
 20
25.0597377898
 10
322.7360821748
 20
25.2717193614
  0
LWPOLYLINE
  5
23F
330
22A
100
AcDbEntity
  8
0
  6
Continuous
 62
     7
100
AcDbPolyline
 90
        2
 70
     0
 43
0.2
 10
322.7360821748
 20
25.2717193614
 10
322.1719756593
 20
25.2717193614
  0
LWPOLYLINE
  5
240
330
22A
100
AcDbEntity
  8
0
  6
Continuous
 62
     7
100
AcDbPolyline
 90
        2
 70
     0
 43
0.2
 10
322.1719756593
 20
25.2717193614
 10
322.1719756593
 20
26.9168010391
  0
LWPOLYLINE
  5
241
330
22A
100
AcDbEntity
  8
0
  6
Continuous
 62
     7
100
AcDbPolyline
 90
        2
 70
     0
 43
0.2
 10
322.1719756593
 20
26.9168010391
 10
321.9403661644
 20
26.9168010391
  0
SPLINE
  5
242
330
22A
100
AcDbEntity
  8
0
  6
Continuous
 62
     7
100
AcDbSpline
 70
     3
 71
     3
 72
    35
 73
    31
 74
     0
 42
0.000000001
 43
0.0000001
 40
0.0
 40
0.0
 40
0.0
 40
0.0
 40
1.0
 40
1.0
 40
1.0
 40
2.0
 40
2.0
 40
2.0
 40
3.0
 40
3.0
 40
3.0
 40
4.0
 40
4.0
 40
4.0
 40
5.0
 40
5.0
 40
5.0
 40
6.0
 40
6.0
 40
6.0
 40
7.0
 40
7.0
 40
7.0
 40
8.0
 40
8.0
 40
8.0
 40
9.0
 40
9.0
 40
9.0
 40
10.0
 40
10.0
 40
10.0
 40
10.0
 10
324.1343754303
 20
26.2122894457
 30
0.0
 10
324.1343754303
 20
26.2122894457
 30
0.0
 10
324.1343754303
 20
25.5501741665
 30
0.0
 10
324.1343754303
 20
25.5501741665
 30
0.0
 10
324.1343754303
 20
25.2350805712
 30
0.0
 10
324.2822391191
 20
25.0204819432
 30
0.0
 10
324.6223256034
 20
25.0204819432
 30
0.0
 10
324.9618886764
 20
25.0204819432
 30
0.0
 10
325.1100140709
 20
25.2350805712
 30
0.0
 10
325.1100140709
 20
25.5501741665
 30
0.0
 10
325.1100140709
 20
25.5501741665
 30
0.0
 10
325.1100140709
 20
26.2122894457
 30
0.0
 10
325.1100140709
 20
26.2122894457
 30
0.0
 10
325.1100140709
 20
26.2122894457
 30
0.0
 10
324.887956832
 20
26.2122894457
 30
0.0
 10
324.887956832
 20
26.2122894457
 30
0.0
 10
324.887956832
 20
26.2122894457
 30
0.0
 10
324.887956832
 20
25.5752979083
 30
0.0
 10
324.887956832
 20
25.5752979083
 30
0.0
 10
324.887956832
 20
25.3894869011
 30
0.0
 10
324.8412423746
 20
25.2267059906
 30
0.0
 10
324.6223256034
 20
25.2267059906
 30
0.0
 10
324.402885421
 20
25.2267059906
 30
0.0
 10
324.3561709636
 20
25.3894869011
 30
0.0
 10
324.3561709636
 20
25.5752979083
 30
0.0
 10
324.3561709636
 20
25.5752979083
 30
0.0
 10
324.3561709636
 20
26.2122894457
 30
0.0
 10
324.3561709636
 20
26.2122894457
 30
0.0
 10
324.3561709636
 20
26.2122894457
 30
0.0
 10
324.1343754303
 20
26.2122894457
 30
0.0
 10
324.1343754303
 20
26.2122894457
 30
0.0
  0
SPLINE
  5
243
330
22A
100
AcDbEntity
  8
0
  6
Continuous
 62
     7
100
AcDbSpline
 70
     3
 71
     3
 72
    35
 73
    31
 74
     0
 42
0.000000001
 43
0.0000001
 40
0.0
 40
0.0
 40
0.0
 40
0.0
 40
1.0
 40
1.0
 40
1.0
 40
2.0
 40
2.0
 40
2.0
 40
3.0
 40
3.0
 40
3.0
 40
4.0
 40
4.0
 40
4.0
 40
5.0
 40
5.0
 40
5.0
 40
6.0
 40
6.0
 40
6.0
 40
7.0
 40
7.0
 40
7.0
 40
8.0
 40
8.0
 40
8.0
 40
9.0
 40
9.0
 40
9.0
 40
10.0
 40
10.0
 40
10.0
 40
10.0
 10
327.5331466281
 20
26.1709399539
 30
0.0
 10
327.4446901205
 20
26.2222342601
 30
0.0
 10
327.3312407238
 20
26.2473580019
 30
0.0
 10
327.2276052888
 20
26.2473580019
 30
0.0
 10
326.8727324356
 20
26.2473580019
 30
0.0
 10
326.5972872454
 20
25.9835587129
 30
0.0
 10
326.5972872454
 20
25.6260688032
 30
0.0
 10
326.5972872454
 20
25.2811407645
 30
0.0
 10
326.8757420505
 20
25.0210053545
 30
0.0
 10
327.2153051235
 20
25.0210053545
 30
0.0
 10
327.3312407238
 20
25.0210053545
 30
0.0
 10
327.4319973967
 20
25.0429886286
 30
0.0
 10
327.5331466281
 20
25.0968999912
 30
0.0
 10
327.5331466281
 20
25.0968999912
 30
0.0
 10
327.5331466281
 20
25.3795420867
 30
0.0
 10
327.5331466281
 20
25.3795420867
 30
0.0
 10
327.4492699692
 20
25.2863748774
 30
0.0
 10
327.345765387
 20
25.2272294019
 30
0.0
 10
327.2176604743
 20
25.2272294019
 30
0.0
 10
326.9839573343
 20
25.2272294019
 30
0.0
 10
326.8186902202
 20
25.3994317156
 30
0.0
 10
326.8186902202
 20
25.6360136177
 30
0.0
 10
326.8186902202
 20
25.8479951893
 30
0.0
 10
326.9864435379
 20
26.040087132
 30
0.0
 10
327.2032666639
 20
26.040087132
 30
0.0
 10
327.3360822782
 20
26.040087132
 30
0.0
 10
327.4446901205
 20
25.9861757693
 30
0.0
 10
327.5331466281
 20
25.8851573907
 30
0.0
 10
327.5331466281
 20
25.8851573907
 30
0.0
 10
327.5331466281
 20
26.1709399539
 30
0.0
 10
327.5331466281
 20
26.1709399539
 30
0.0
  0
SPLINE
  5
244
330
22A
100
AcDbEntity
  8
0
  6
Continuous
 62
     7
100
AcDbSpline
 70
     3
 71
     3
 72
    32
 73
    28
 74
     0
 42
0.000000001
 43
0.0000001
 40
0.0
 40
0.0
 40
0.0
 40
0.0
 40
1.0
 40
1.0
 40
1.0
 40
2.0
 40
2.0
 40
2.0
 40
3.0
 40
3.0
 40
3.0
 40
4.0
 40
4.0
 40
4.0
 40
5.0
 40
5.0
 40
5.0
 40
6.0
 40
6.0
 40
6.0
 40
7.0
 40
7.0
 40
7.0
 40
8.0
 40
8.0
 40
8.0
 40
9.0
 40
9.0
 40
9.0
 40
9.0
 10
330.0650178804
 20
25.5993748276
 30
0.0
 10
330.0650178804
 20
25.5993748276
 30
0.0
 10
330.0650178804
 20
25.6333965613
 30
0.0
 10
330.0650178804
 20
25.6333965613
 30
0.0
 10
330.0650178804
 20
25.9757075435
 30
0.0
 10
329.8921613025
 20
26.2473580019
 30
0.0
 10
329.5255116954
 20
26.2473580019
 30
0.0
 10
329.153889681
 20
26.2473580019
 30
0.0
 10
328.9641530891
 20
25.9809416564
 30
0.0
 10
328.9641530891
 20
25.6260688032
 30
0.0
 10
328.9641530891
 20
25.2863748774
 30
0.0
 10
329.1782283059
 20
25.0204819432
 30
0.0
 10
329.5303532498
 20
25.0204819432
 30
0.0
 10
329.754373281
 20
25.0204819432
 30
0.0
 10
329.9565408909
 20
25.1361558378
 30
0.0
 10
330.0650178804
 20
25.3355755385
 30
0.0
 10
330.0650178804
 20
25.3355755385
 30
0.0
 10
329.8773749337
 20
25.4423514412
 30
0.0
 10
329.8773749337
 20
25.4423514412
 30
0.0
 10
329.7938908332
 20
25.3036474499
 30
0.0
 10
329.7026864163
 20
25.2178079987
 30
0.0
 10
329.5331011591
 20
25.2178079987
 30
0.0
 10
329.3211195875
 20
25.2178079987
 30
0.0
 10
329.1881731204
 20
25.4025721833
 30
0.0
 10
329.1858177696
 20
25.5993748276
 30
0.0
 10
329.1858177696
 20
25.5993748276
 30
0.0
 10
330.0650178804
 20
25.5993748276
 30
0.0
 10
330.0650178804
 20
25.5993748276
 30
0.0
  0
SPLINE
  5
245
330
22A
100
AcDbEntity
  8
0
  6
Continuous
 62
     7
100
AcDbSpline
 70
     3
 71
     3
 72
    14
 73
    10
 74
     0
 42
0.000000001
 43
0.0000001
 40
0.0
 40
0.0
 40
0.0
 40
0.0
 40
1.0
 40
1.0
 40
1.0
 40
2.0
 40
2.0
 40
2.0
 40
3.0
 40
3.0
 40
3.0
 40
3.0
 10
329.1978562292
 20
25.7668664397
 30
0.0
 10
329.2254661746
 20
25.9317409954
 30
0.0
 10
329.3533093817
 20
26.054742648
 30
0.0
 10
329.5255116954
 20
26.054742648
 30
0.0
 10
329.7026864163
 20
26.054742648
 30
0.0
 10
329.816135813
 20
25.9390687534
 30
0.0
 10
329.8433531999
 20
25.7668664397
 30
0.0
 10
329.8433531999
 20
25.7668664397
 30
0.0
 10
329.1978562292
 20
25.7668664397
 30
0.0
 10
329.1978562292
 20
25.7668664397
 30
0.0
  0
SPLINE
  5
246
330
22A
100
AcDbEntity
  8
0
  6
Continuous
 62
     7
100
AcDbSpline
 70
     3
 71
     3
 72
    20
 73
    16
 74
     0
 42
0.000000001
 43
0.0000001
 40
0.0
 40
0.0
 40
0.0
 40
0.0
 40
1.0
 40
1.0
 40
1.0
 40
2.0
 40
2.0
 40
2.0
 40
3.0
 40
3.0
 40
3.0
 40
4.0
 40
4.0
 40
4.0
 40
5.0
 40
5.0
 40
5.0
 40
5.0
 10
332.0890493306
 20
25.9762309548
 30
0.0
 10
332.0890493306
 20
25.9762309548
 30
0.0
 10
332.5001888972
 20
25.4737561185
 30
0.0
 10
332.5001888972
 20
25.4737561185
 30
0.0
 10
332.3841224441
 20
25.3580822239
 30
0.0
 10
332.2463344226
 20
25.2277528132
 30
0.0
 10
332.0743938145
 20
25.2277528132
 30
0.0
 10
331.8969573879
 20
25.2277528132
 30
0.0
 10
331.7294657758
 20
25.3921039576
 30
0.0
 10
331.7294657758
 20
25.5690169729
 30
0.0
 10
331.7294657758
 20
25.7469768107
 30
0.0
 10
331.9392228494
 20
25.8731189311
 30
0.0
 10
332.0668043508
 20
25.9610520275
 30
0.0
 10
332.0668043508
 20
25.9610520275
 30
0.0
 10
332.0890493306
 20
25.9762309548
 30
0.0
 10
332.0890493306
 20
25.9762309548
 30
0.0
  0
SPLINE
  5
247
330
22A
100
AcDbEntity
  8
0
  6
Continuous
 62
     7
100
AcDbSpline
 70
     3
 71
     3
 72
    23
 73
    19
 74
     0
 42
0.000000001
 43
0.0000001
 40
0.0
 40
0.0
 40
0.0
 40
0.0
 40
1.0
 40
1.0
 40
1.0
 40
2.0
 40
2.0
 40
2.0
 40
3.0
 40
3.0
 40
3.0
 40
4.0
 40
4.0
 40
4.0
 40
5.0
 40
5.0
 40
5.0
 40
6.0
 40
6.0
 40
6.0
 40
6.0
 10
332.1383808444
 20
26.2672476309
 30
0.0
 10
332.1383808444
 20
26.2672476309
 30
0.0
 10
332.0767491653
 20
26.3457593241
 30
0.0
 10
332.0767491653
 20
26.3457593241
 30
0.0
 10
332.0228378026
 20
26.4143262028
 30
0.0
 10
331.9660476779
 20
26.4834164928
 30
0.0
 10
331.9660476779
 20
26.5771071133
 30
0.0
 10
331.9660476779
 20
26.6959214757
 30
0.0
 10
332.0619627964
 20
26.7733863463
 30
0.0
 10
332.1729259894
 20
26.7733863463
 30
0.0
 10
332.2961893477
 20
26.7733863463
 30
0.0
 10
332.3894874098
 20
26.7022024111
 30
0.0
 10
332.3894874098
 20
26.5718730004
 30
0.0
 10
332.3894874098
 20
26.4368328882
 30
0.0
 10
332.2613824971
 20
26.3604148401
 30
0.0
 10
332.1678227294
 20
26.2866138485
 30
0.0
 10
332.1678227294
 20
26.2866138485
 30
0.0
 10
332.1383808444
 20
26.2672476309
 30
0.0
 10
332.1383808444
 20
26.2672476309
 30
0.0
  0
SPLINE
  5
248
330
22A
100
AcDbEntity
  8
0
  6
Continuous
 62
     7
100
AcDbSpline
 70
     3
 71
     3
 72
    50
 73
    46
 74
     0
 42
0.000000001
 43
0.0000001
 40
0.0
 40
0.0
 40
0.0
 40
0.0
 40
1.0
 40
1.0
 40
1.0
 40
2.0
 40
2.0
 40
2.0
 40
3.0
 40
3.0
 40
3.0
 40
4.0
 40
4.0
 40
4.0
 40
5.0
 40
5.0
 40
5.0
 40
6.0
 40
6.0
 40
6.0
 40
7.0
 40
7.0
 40
7.0
 40
8.0
 40
8.0
 40
8.0
 40
9.0
 40
9.0
 40
9.0
 40
10.0
 40
10.0
 40
10.0
 40
11.0
 40
11.0
 40
11.0
 40
12.0
 40
12.0
 40
12.0
 40
13.0
 40
13.0
 40
13.0
 40
14.0
 40
14.0
 40
14.0
 40
15.0
 40
15.0
 40
15.0
 40
15.0
 10
332.8405370871
 20
25.0602612011
 30
0.0
 10
332.8405370871
 20
25.0602612011
 30
0.0
 10
333.1259270918
 20
25.0602612011
 30
0.0
 10
333.1259270918
 20
25.0602612011
 30
0.0
 10
333.1259270918
 20
25.0602612011
 30
0.0
 10
332.793560924
 20
25.471139062
 30
0.0
 10
332.793560924
 20
25.471139062
 30
0.0
 10
332.793560924
 20
25.471139062
 30
0.0
 10
333.0200671588
 20
25.7370319963
 30
0.0
 10
333.0200671588
 20
25.7370319963
 30
0.0
 10
333.0200671588
 20
25.7370319963
 30
0.0
 10
332.8718109116
 20
25.8898680923
 30
0.0
 10
332.8718109116
 20
25.8898680923
 30
0.0
 10
332.8718109116
 20
25.8898680923
 30
0.0
 10
332.6559037553
 20
25.6386306742
 30
0.0
 10
332.6559037553
 20
25.6386306742
 30
0.0
 10
332.6559037553
 20
25.6386306742
 30
0.0
 10
332.2688411079
 20
26.1065603655
 30
0.0
 10
332.2688411079
 20
26.1065603655
 30
0.0
 10
332.4242942604
 20
26.2206640263
 30
0.0
 10
332.6065722414
 20
26.3604148401
 30
0.0
 10
332.6065722414
 20
26.5697793553
 30
0.0
 10
332.6065722414
 20
26.8136890154
 30
0.0
 10
332.4045354843
 20
26.9571037083
 30
0.0
 10
332.1780292495
 20
26.9571037083
 30
0.0
 10
331.9338578837
 20
26.9571037083
 30
0.0
 10
331.7494862575
 20
26.8063612574
 30
0.0
 10
331.7494862575
 20
26.5498897263
 30
0.0
 10
331.7494862575
 20
26.3923429287
 30
0.0
 10
331.8481492853
 20
26.25468576
 30
0.0
 10
331.953485807
 20
26.1437225669
 30
0.0
 10
331.953485807
 20
26.1437225669
 30
0.0
 10
331.8379427652
 20
26.0599767609
 30
0.0
 10
331.8379427652
 20
26.0599767609
 30
0.0
 10
331.660244633
 20
25.9317409954
 30
0.0
 10
331.5129043554
 20
25.8040286411
 30
0.0
 10
331.5129043554
 20
25.5669233277
 30
0.0
 10
331.5129043554
 20
25.2465956195
 30
0.0
 10
331.7714695316
 20
25.0204819432
 30
0.0
 10
332.0818524253
 20
25.0204819432
 30
0.0
 10
332.3007691965
 20
25.0204819432
 30
0.0
 10
332.4979643992
 20
25.145577241
 30
0.0
 10
332.6382386243
 20
25.3114986192
 30
0.0
 10
332.6382386243
 20
25.3114986192
 30
0.0
 10
332.8405370871
 20
25.0602612011
 30
0.0
 10
332.8405370871
 20
25.0602612011
 30
0.0
  0
LWPOLYLINE
  5
249
330
22A
100
AcDbEntity
  8
0
  6
Continuous
 62
     7
100
AcDbPolyline
 90
        2
 70
     0
 43
0.2
 10
334.7759811768
 20
26.9168010391
 10
334.5446333876
 20
26.9168010391
  0
LWPOLYLINE
  5
24A
330
22A
100
AcDbEntity
  8
0
  6
Continuous
 62
     7
100
AcDbPolyline
 90
        2
 70
     0
 43
0.2
 10
334.5446333876
 20
26.9168010391
 10
334.5446333876
 20
25.0597377898
  0
LWPOLYLINE
  5
24B
330
22A
100
AcDbEntity
  8
0
  6
Continuous
 62
     7
100
AcDbPolyline
 90
        2
 70
     0
 43
0.2
 10
334.5446333876
 20
25.0597377898
 10
335.3399568395
 20
25.0597377898
  0
LWPOLYLINE
  5
24C
330
22A
100
AcDbEntity
  8
0
  6
Continuous
 62
     7
100
AcDbPolyline
 90
        2
 70
     0
 43
0.2
 10
335.3399568395
 20
25.0597377898
 10
335.3399568395
 20
25.2717193614
  0
LWPOLYLINE
  5
24D
330
22A
100
AcDbEntity
  8
0
  6
Continuous
 62
     7
100
AcDbPolyline
 90
        2
 70
     0
 43
0.2
 10
335.3399568395
 20
25.2717193614
 10
334.7759811768
 20
25.2717193614
  0
LWPOLYLINE
  5
24E
330
22A
100
AcDbEntity
  8
0
  6
Continuous
 62
     7
100
AcDbPolyline
 90
        2
 70
     0
 43
0.2
 10
334.7759811768
 20
25.2717193614
 10
334.7759811768
 20
26.9168010391
  0
LWPOLYLINE
  5
24F
330
22A
100
AcDbEntity
  8
0
  6
Continuous
 62
     7
100
AcDbPolyline
 90
        2
 70
     0
 43
0.2
 10
337.019060251
 20
26.2122894457
 10
336.7979189819
 20
26.2122894457
  0
LWPOLYLINE
  5
250
330
22A
100
AcDbEntity
  8
0
  6
Continuous
 62
     7
100
AcDbPolyline
 90
        2
 70
     0
 43
0.2
 10
336.7979189819
 20
26.2122894457
 10
336.7979189819
 20
25.0602612011
  0
LWPOLYLINE
  5
251
330
22A
100
AcDbEntity
  8
0
  6
Continuous
 62
     7
100
AcDbPolyline
 90
        2
 70
     0
 43
0.2
 10
336.7979189819
 20
25.0602612011
 10
337.019060251
 20
25.0602612011
  0
LWPOLYLINE
  5
252
330
22A
100
AcDbEntity
  8
0
  6
Continuous
 62
     7
100
AcDbPolyline
 90
        2
 70
     0
 43
0.2
 10
337.019060251
 20
25.0602612011
 10
337.019060251
 20
26.2122894457
  0
SPLINE
  5
253
330
22A
100
AcDbEntity
  8
0
  6
Continuous
 62
     7
100
AcDbSpline
 70
     3
 71
     3
 72
    17
 73
    13
 74
     0
 42
0.000000001
 43
0.0000001
 40
0.0
 40
0.0
 40
0.0
 40
0.0
 40
1.0
 40
1.0
 40
1.0
 40
2.0
 40
2.0
 40
2.0
 40
3.0
 40
3.0
 40
3.0
 40
4.0
 40
4.0
 40
4.0
 40
4.0
 10
336.9086204693
 20
26.894817765
 30
0.0
 10
336.8246129576
 20
26.894817765
 30
0.0
 10
336.7560460788
 20
26.825727475
 30
0.0
 10
336.7560460788
 20
26.7398880238
 30
0.0
 10
336.7560460788
 20
26.6556188065
 30
0.0
 10
336.8246129576
 20
26.5896689842
 30
0.0
 10
336.9086204693
 20
26.5896689842
 30
0.0
 10
336.9923662753
 20
26.5896689842
 30
0.0
 10
337.0611948597
 20
26.6556188065
 30
0.0
 10
337.0611948597
 20
26.7398880238
 30
0.0
 10
337.0611948597
 20
26.825727475
 30
0.0
 10
336.9923662753
 20
26.894817765
 30
0.0
 10
336.9086204693
 20
26.894817765
 30
0.0
  0
SPLINE
  5
254
330
22A
100
AcDbEntity
  8
0
  6
Continuous
 62
     7
100
AcDbSpline
 70
     3
 71
     3
 72
    17
 73
    13
 74
     0
 42
0.000000001
 43
0.0000001
 40
0.0
 40
0.0
 40
0.0
 40
0.0
 40
1.0
 40
1.0
 40
1.0
 40
2.0
 40
2.0
 40
2.0
 40
3.0
 40
3.0
 40
3.0
 40
4.0
 40
4.0
 40
4.0
 40
4.0
 10
339.1493441926
 20
25.2178079987
 30
0.0
 10
338.915379347
 20
25.2178079987
 30
0.0
 10
338.7850499363
 20
25.4198447558
 30
0.0
 10
338.7850499363
 20
25.6360136177
 30
0.0
 10
338.7850499363
 20
25.8506122457
 30
0.0
 10
338.9208751655
 20
26.0495085351
 30
0.0
 10
339.1493441926
 20
26.0495085351
 30
0.0
 10
339.3888048568
 20
26.0495085351
 30
0.0
 10
339.5243683804
 20
25.8605570602
 30
0.0
 10
339.5243683804
 20
25.6360136177
 30
0.0
 10
339.5243683804
 20
25.4098999414
 30
0.0
 10
339.3911602076
 20
25.2178079987
 30
0.0
 10
339.1493441926
 20
25.2178079987
 30
0.0
  0
SPLINE
  5
255
330
22A
100
AcDbEntity
  8
0
  6
Continuous
 62
     7
100
AcDbSpline
 70
     3
 71
     3
 72
    50
 73
    46
 74
     0
 42
0.000000001
 43
0.0000001
 40
0.0
 40
0.0
 40
0.0
 40
0.0
 40
1.0
 40
1.0
 40
1.0
 40
2.0
 40
2.0
 40
2.0
 40
3.0
 40
3.0
 40
3.0
 40
4.0
 40
4.0
 40
4.0
 40
5.0
 40
5.0
 40
5.0
 40
6.0
 40
6.0
 40
6.0
 40
7.0
 40
7.0
 40
7.0
 40
8.0
 40
8.0
 40
8.0
 40
9.0
 40
9.0
 40
9.0
 40
10.0
 40
10.0
 40
10.0
 40
11.0
 40
11.0
 40
11.0
 40
12.0
 40
12.0
 40
12.0
 40
13.0
 40
13.0
 40
13.0
 40
14.0
 40
14.0
 40
14.0
 40
15.0
 40
15.0
 40
15.0
 40
15.0
 10
339.7334711899
 20
26.2128128569
 30
0.0
 10
339.7334711899
 20
26.2128128569
 30
0.0
 10
339.5118065095
 20
26.2128128569
 30
0.0
 10
339.5118065095
 20
26.2128128569
 30
0.0
 10
339.5118065095
 20
26.2128128569
 30
0.0
 10
339.5118065095
 20
26.0154868014
 30
0.0
 10
339.5118065095
 20
26.0154868014
 30
0.0
 10
339.5118065095
 20
26.0154868014
 30
0.0
 10
339.5070958079
 20
26.0154868014
 30
0.0
 10
339.5070958079
 20
26.0154868014
 30
0.0
 10
339.4157605382
 20
26.158378083
 30
0.0
 10
339.2778416638
 20
26.2468345907
 30
0.0
 10
339.1051159388
 20
26.2468345907
 30
0.0
 10
338.772749771
 20
26.2468345907
 30
0.0
 10
338.5636469615
 20
25.9589583823
 30
0.0
 10
338.5636469615
 20
25.6433413757
 30
0.0
 10
338.5636469615
 20
25.3135922644
 30
0.0
 10
338.7607113114
 20
25.0204819432
 30
0.0
 10
339.1155841646
 20
25.0204819432
 30
0.0
 10
339.2778416638
 20
25.0204819432
 30
0.0
 10
339.4178541833
 20
25.1089384508
 30
0.0
 10
339.5070958079
 20
25.2397912728
 30
0.0
 10
339.5070958079
 20
25.2397912728
 30
0.0
 10
339.5118065095
 20
25.2397912728
 30
0.0
 10
339.5118065095
 20
25.2397912728
 30
0.0
 10
339.5118065095
 20
25.2397912728
 30
0.0
 10
339.5118065095
 20
25.0204819432
 30
0.0
 10
339.5118065095
 20
25.0204819432
 30
0.0
 10
339.5118065095
 20
24.7839000411
 30
0.0
 10
339.4552780904
 20
24.5970422113
 30
0.0
 10
339.1820573981
 20
24.5970422113
 30
0.0
 10
338.9797589354
 20
24.5970422113
 30
0.0
 10
338.8371293594
 20
24.7153331624
 30
0.0
 10
338.8371293594
 20
24.9215572098
 30
0.0
 10
338.8371293594
 20
24.9215572098
 30
0.0
 10
338.615464679
 20
24.9215572098
 30
0.0
 10
338.615464679
 20
24.9215572098
 30
0.0
 10
338.6204370862
 20
24.5970422113
 30
0.0
 10
338.8515231698
 20
24.4002395671
 30
0.0
 10
339.171850878
 20
24.4002395671
 30
0.0
 10
339.6198909404
 20
24.4002395671
 30
0.0
 10
339.7334711899
 20
24.6854987189
 30
0.0
 10
339.7334711899
 20
25.0822444751
 30
0.0
 10
339.7334711899
 20
25.0822444751
 30
0.0
 10
339.7334711899
 20
26.2128128569
 30
0.0
 10
339.7334711899
 20
26.2128128569
 30
0.0
  0
SPLINE
  5
256
330
22A
100
AcDbEntity
  8
0
  6
Continuous
 62
     7
100
AcDbSpline
 70
     3
 71
     3
 72
    44
 73
    40
 74
     0
 42
0.000000001
 43
0.0000001
 40
0.0
 40
0.0
 40
0.0
 40
0.0
 40
1.0
 40
1.0
 40
1.0
 40
2.0
 40
2.0
 40
2.0
 40
3.0
 40
3.0
 40
3.0
 40
4.0
 40
4.0
 40
4.0
 40
5.0
 40
5.0
 40
5.0
 40
6.0
 40
6.0
 40
6.0
 40
7.0
 40
7.0
 40
7.0
 40
8.0
 40
8.0
 40
8.0
 40
9.0
 40
9.0
 40
9.0
 40
10.0
 40
10.0
 40
10.0
 40
11.0
 40
11.0
 40
11.0
 40
12.0
 40
12.0
 40
12.0
 40
13.0
 40
13.0
 40
13.0
 40
13.0
 10
341.3023965253
 20
27.1978729007
 30
0.0
 10
341.3023965253
 20
27.1978729007
 30
0.0
 10
341.3023965253
 20
25.0597377898
 30
0.0
 10
341.3023965253
 20
25.0597377898
 30
0.0
 10
341.3023965253
 20
25.0597377898
 30
0.0
 10
341.5237995001
 20
25.0597377898
 30
0.0
 10
341.5237995001
 20
25.0597377898
 30
0.0
 10
341.5237995001
 20
25.0597377898
 30
0.0
 10
341.5237995001
 20
25.5894300131
 30
0.0
 10
341.5237995001
 20
25.5894300131
 30
0.0
 10
341.5237995001
 20
25.7993179395
 30
0.0
 10
341.5237995001
 20
26.0500319464
 30
0.0
 10
341.8090586519
 20
26.0500319464
 30
0.0
 10
342.0359574452
 20
26.0500319464
 30
0.0
 10
342.0629131266
 20
25.9170854793
 30
0.0
 10
342.0629131266
 20
25.7208062464
 30
0.0
 10
342.0629131266
 20
25.7208062464
 30
0.0
 10
342.0629131266
 20
25.0597377898
 30
0.0
 10
342.0629131266
 20
25.0597377898
 30
0.0
 10
342.0629131266
 20
25.0597377898
 30
0.0
 10
342.2848395126
 20
25.0597377898
 30
0.0
 10
342.2848395126
 20
25.0597377898
 30
0.0
 10
342.2848395126
 20
25.0597377898
 30
0.0
 10
342.2848395126
 20
25.7469768107
 30
0.0
 10
342.2848395126
 20
25.7469768107
 30
0.0
 10
342.2848395126
 20
26.027525261
 30
0.0
 10
342.2008320009
 20
26.2473580019
 30
0.0
 10
341.8757935911
 20
26.2473580019
 30
0.0
 10
341.7360427773
 20
26.2473580019
 30
0.0
 10
341.5978621973
 20
26.1808847684
 30
0.0
 10
341.5285102016
 20
26.0578831157
 30
0.0
 10
341.5285102016
 20
26.0578831157
 30
0.0
 10
341.5237995001
 20
26.0578831157
 30
0.0
 10
341.5237995001
 20
26.0578831157
 30
0.0
 10
341.5237995001
 20
26.0578831157
 30
0.0
 10
341.5237995001
 20
27.1978729007
 30
0.0
 10
341.5237995001
 20
27.1978729007
 30
0.0
 10
341.5237995001
 20
27.1978729007
 30
0.0
 10
341.3023965253
 20
27.1978729007
 30
0.0
 10
341.3023965253
 20
27.1978729007
 30
0.0
  0
LWPOLYLINE
  5
257
330
22A
100
AcDbEntity
  8
0
  6
Continuous
 62
     7
100
AcDbPolyline
 90
        2
 70
     0
 43
0.2
 10
344.1246301895
 20
26.005541987
 10
344.341060757
 20
26.005541987
  0
LWPOLYLINE
  5
258
330
22A
100
AcDbEntity
  8
0
  6
Continuous
 62
     7
100
AcDbPolyline
 90
        2
 70
     0
 43
0.2
 10
344.341060757
 20
26.005541987
 10
344.341060757
 20
26.2122894457
  0
LWPOLYLINE
  5
259
330
22A
100
AcDbEntity
  8
0
  6
Continuous
 62
     7
100
AcDbPolyline
 90
        2
 70
     0
 43
0.2
 10
344.341060757
 20
26.2122894457
 10
344.1246301895
 20
26.2122894457
  0
LWPOLYLINE
  5
25A
330
22A
100
AcDbEntity
  8
0
  6
Continuous
 62
     7
100
AcDbPolyline
 90
        2
 70
     0
 43
0.2
 10
344.1246301895
 20
26.2122894457
 10
344.1246301895
 20
26.65300175
  0
LWPOLYLINE
  5
25B
330
22A
100
AcDbEntity
  8
0
  6
Continuous
 62
     7
100
AcDbPolyline
 90
        2
 70
     0
 43
0.2
 10
344.1246301895
 20
26.65300175
 10
343.9029655091
 20
26.65300175
  0
LWPOLYLINE
  5
25C
330
22A
100
AcDbEntity
  8
0
  6
Continuous
 62
     7
100
AcDbPolyline
 90
        2
 70
     0
 43
0.2
 10
343.9029655091
 20
26.65300175
 10
343.9029655091
 20
26.2122894457
  0
LWPOLYLINE
  5
25D
330
22A
100
AcDbEntity
  8
0
  6
Continuous
 62
     7
100
AcDbPolyline
 90
        2
 70
     0
 43
0.2
 10
343.9029655091
 20
26.2122894457
 10
343.7823192072
 20
26.2122894457
  0
LWPOLYLINE
  5
25E
330
22A
100
AcDbEntity
  8
0
  6
Continuous
 62
     7
100
AcDbPolyline
 90
        2
 70
     0
 43
0.2
 10
343.7823192072
 20
26.2122894457
 10
343.7823192072
 20
26.005541987
  0
LWPOLYLINE
  5
25F
330
22A
100
AcDbEntity
  8
0
  6
Continuous
 62
     7
100
AcDbPolyline
 90
        2
 70
     0
 43
0.2
 10
343.7823192072
 20
26.005541987
 10
343.9029655091
 20
26.005541987
  0
LWPOLYLINE
  5
260
330
22A
100
AcDbEntity
  8
0
  6
Continuous
 62
     7
100
AcDbPolyline
 90
        2
 70
     0
 43
0.2
 10
343.9029655091
 20
26.005541987
 10
343.9029655091
 20
25.0597377898
  0
LWPOLYLINE
  5
261
330
22A
100
AcDbEntity
  8
0
  6
Continuous
 62
     7
100
AcDbPolyline
 90
        2
 70
     0
 43
0.2
 10
343.9029655091
 20
25.0597377898
 10
344.1246301895
 20
25.0597377898
  0
LWPOLYLINE
  5
262
330
22A
100
AcDbEntity
  8
0
  6
Continuous
 62
     7
100
AcDbPolyline
 90
        2
 70
     0
 43
0.2
 10
344.1246301895
 20
25.0597377898
 10
344.1246301895
 20
26.005541987
  0
SPLINE
  5
263
330
22A
100
AcDbEntity
  8
0
  6
Continuous
 62
     7
100
AcDbSpline
 70
     3
 71
     3
 72
    20
 73
    16
 74
     0
 42
0.000000001
 43
0.0000001
 40
0.0
 40
0.0
 40
0.0
 40
0.0
 40
1.0
 40
1.0
 40
1.0
 40
2.0
 40
2.0
 40
2.0
 40
3.0
 40
3.0
 40
3.0
 40
4.0
 40
4.0
 40
4.0
 40
5.0
 40
5.0
 40
5.0
 40
5.0
 10
331.9066404967
 20
35.4206642332
 30
0.0
 10
331.9066404967
 20
35.4206642332
 30
0.0
 10
334.2229971512
 20
32.5911028109
 30
0.0
 10
334.2229971512
 20
32.5911028109
 30
0.0
 10
333.5713500978
 20
31.9389323462
 30
0.0
 10
332.7944768938
 20
31.2030160755
 30
0.0
 10
331.8232872491
 20
31.2030160755
 30
0.0
 10
330.8247493647
 20
31.2030160755
 30
0.0
 10
329.8814313711
 20
32.1325945228
 30
0.0
 10
329.8814313711
 20
33.1317866713
 30
0.0
 10
329.8814313711
 20
34.1309788198
 30
0.0
 10
331.0602844442
 20
34.8375840585
 30
0.0
 10
331.7818069046
 20
35.3374418384
 30
0.0
 10
331.7818069046
 20
35.3374418384
 30
0.0
 10
331.9066404967
 20
35.4206642332
 30
0.0
 10
331.9066404967
 20
35.4206642332
 30
0.0
  0
SPLINE
  5
264
330
22A
100
AcDbEntity
  8
0
  6
Continuous
 62
     7
100
AcDbSpline
 70
     3
 71
     3
 72
    23
 73
    19
 74
     0
 42
0.000000001
 43
0.0000001
 40
0.0
 40
0.0
 40
0.0
 40
0.0
 40
1.0
 40
1.0
 40
1.0
 40
2.0
 40
2.0
 40
2.0
 40
3.0
 40
3.0
 40
3.0
 40
4.0
 40
4.0
 40
4.0
 40
5.0
 40
5.0
 40
5.0
 40
6.0
 40
6.0
 40
6.0
 40
6.0
 10
332.1840484793
 20
37.0584181529
 30
0.0
 10
332.1840484793
 20
37.0584181529
 30
0.0
 10
331.8375502067
 20
37.5017475137
 30
0.0
 10
331.8375502067
 20
37.5017475137
 30
0.0
 10
331.5317471618
 20
37.8898569837
 30
0.0
 10
331.2128588347
 20
38.2783590121
 30
0.0
 10
331.2128588347
 20
38.8053033262
 30
0.0
 10
331.2128588347
 20
39.4714750428
 30
0.0
 10
331.7541969591
 20
39.9151969621
 30
0.0
 10
332.3781032143
 20
39.9151969621
 30
0.0
 10
333.0718848763
 20
39.9151969621
 30
0.0
 10
333.5990908961
 20
39.5129553874
 30
0.0
 10
333.5990908961
 20
38.7779550864
 30
0.0
 10
333.5990908961
 20
38.0146905758
 30
0.0
 10
332.8778301414
 20
37.58457735
 30
0.0
 10
332.3507549745
 20
37.1688579346
 30
0.0
 10
332.3507549745
 20
37.1688579346
 30
0.0
 10
332.1840484793
 20
37.0584181529
 30
0.0
 10
332.1840484793
 20
37.0584181529
 30
0.0
  0
SPLINE
  5
265
330
22A
100
AcDbEntity
  8
0
  6
Continuous
 62
     7
100
AcDbSpline
 70
     3
 71
     3
 72
    50
 73
    46
 74
     0
 42
0.000000001
 43
0.0000001
 40
0.0
 40
0.0
 40
0.0
 40
0.0
 40
1.0
 40
1.0
 40
1.0
 40
2.0
 40
2.0
 40
2.0
 40
3.0
 40
3.0
 40
3.0
 40
4.0
 40
4.0
 40
4.0
 40
5.0
 40
5.0
 40
5.0
 40
6.0
 40
6.0
 40
6.0
 40
7.0
 40
7.0
 40
7.0
 40
8.0
 40
8.0
 40
8.0
 40
9.0
 40
9.0
 40
9.0
 40
10.0
 40
10.0
 40
10.0
 40
11.0
 40
11.0
 40
11.0
 40
12.0
 40
12.0
 40
12.0
 40
13.0
 40
13.0
 40
13.0
 40
14.0
 40
14.0
 40
14.0
 40
15.0
 40
15.0
 40
15.0
 40
15.0
 10
336.1376356422
 20
30.2598289348
 30
0.0
 10
336.1376356422
 20
30.2598289348
 30
0.0
 10
337.7468636468
 20
30.2598289348
 30
0.0
 10
337.7468636468
 20
30.2598289348
 30
0.0
 10
337.7468636468
 20
30.2598289348
 30
0.0
 10
335.8738363531
 20
32.5769707062
 30
0.0
 10
335.8738363531
 20
32.5769707062
 30
0.0
 10
335.8738363531
 20
32.5769707062
 30
0.0
 10
337.1501747786
 20
34.0744504008
 30
0.0
 10
337.1501747786
 20
34.0744504008
 30
0.0
 10
337.1501747786
 20
34.0744504008
 30
0.0
 10
336.3179508309
 20
34.9354619693
 30
0.0
 10
336.3179508309
 20
34.9354619693
 30
0.0
 10
336.3179508309
 20
34.9354619693
 30
0.0
 10
335.0973557076
 20
33.5201578469
 30
0.0
 10
335.0973557076
 20
33.5201578469
 30
0.0
 10
335.0973557076
 20
33.5201578469
 30
0.0
 10
332.9194413388
 20
36.1555336813
 30
0.0
 10
332.9194413388
 20
36.1555336813
 30
0.0
 10
333.7930147782
 20
36.7935720412
 30
0.0
 10
334.8196860194
 20
37.58457735
 30
0.0
 10
334.8196860194
 20
38.7634304231
 30
0.0
 10
334.8196860194
 20
40.1371233482
 30
0.0
 10
333.6817898795
 20
40.9416064976
 30
0.0
 10
332.4064982766
 20
40.9416064976
 30
0.0
 10
331.0330670573
 20
40.9416064976
 30
0.0
 10
329.9921328585
 20
40.0953812979
 30
0.0
 10
329.9921328585
 20
38.6527289358
 30
0.0
 10
329.9921328585
 20
37.7651542444
 30
0.0
 10
330.547472235
 20
36.9882810403
 30
0.0
 10
331.1436376918
 20
36.3638513739
 30
0.0
 10
331.1436376918
 20
36.3638513739
 30
0.0
 10
330.4917289328
 20
35.8922578035
 30
0.0
 10
330.4917289328
 20
35.8922578035
 30
0.0
 10
329.4931910484
 20
35.1709970488
 30
0.0
 10
328.6603128365
 20
34.4497362942
 30
0.0
 10
328.6603128365
 20
33.1181779778
 30
0.0
 10
328.6603128365
 20
31.3145026798
 30
0.0
 10
330.1173590091
 20
30.0379025487
 30
0.0
 10
331.8648984465
 20
30.0379025487
 30
0.0
 10
333.0997565274
 20
30.0379025487
 30
0.0
 10
334.2091267521
 20
30.7460780212
 30
0.0
 10
335.000001208
 20
31.6746096459
 30
0.0
 10
335.000001208
 20
31.6746096459
 30
0.0
 10
336.1376356422
 20
30.2598289348
 30
0.0
 10
336.1376356422
 20
30.2598289348
 30
0.0
  0
LINE
  5
266
330
22A
100
AcDbEntity
  8
0
  6
Continuous
 62
     7
100
AcDbLine
 10
321.9404970172
 20
28.2337038394
 30
0.0
 11
344.3544077449
 21
28.2337038394
 31
0.0
  0
LINE
  5
267
330
22A
100
AcDbEntity
  8
0
  6
Continuous
 62
     7
100
AcDbLine
 10
344.3544077449
 20
28.2337038394
 30
0.0
 11
344.3544077449
 21
50.6476145671
 31
0.0
  0
LINE
  5
268
330
22A
100
AcDbEntity
  8
0
  6
Continuous
 62
     7
100
AcDbLine
 10
344.3544077449
 20
50.6476145671
 30
0.0
 11
321.9404970172
 21
50.6476145671
 31
0.0
  0
LINE
  5
269
330
22A
100
AcDbEntity
  8
0
  6
Continuous
 62
     7
100
AcDbLine
 10
321.9404970172
 20
50.6476145671
 30
0.0
 11
321.9404970172
 21
28.2337038394
 31
0.0
  0
ENDBLK
  5
26A
330
22A
100
AcDbEntity
  8
0
  6
ByBlock
 62
     0
100
AcDbBlockEnd
  0
BLOCK
  5
289
330
22B
100
AcDbEntity
  8
0
100
AcDbBlockBegin
  2
*T5
 70
     1
 10
0.0
 20
0.0
 30
0.0
  3
*T5
  1

  0
LINE
  5
28A
330
22B
100
AcDbEntity
  8
0
  6
Continuous
 62
     2
100
AcDbLine
 10
0.0
 20
0.0
 30
0.0
 11
90.0
 21
0.0
 31
0.0
  0
LINE
  5
28B
330
22B
100
AcDbEntity
  8
0
  6
Continuous
 62
     2
100
AcDbLine
 10
0.0
 20
0.0
 30
0.0
 11
0.0
 21
-40.0
 31
0.0
  0
LINE
  5
28C
330
22B
100
AcDbEntity
  8
0
  6
Continuous
 62
     2
100
AcDbLine
 10
30.0
 20
-6.0
 30
0.0
 11
90.0
 21
-6.0
 31
0.0
  0
LINE
  5
28D
330
22B
100
AcDbEntity
  8
0
  6
Continuous
 62
     2
100
AcDbLine
 10
30.0
 20
-12.0
 30
0.0
 11
90.0
 21
-12.0
 31
0.0
  0
LINE
  5
28E
330
22B
100
AcDbEntity
  8
0
  6
Continuous
 62
     2
100
AcDbLine
 10
30.0
 20
-22.0
 30
0.0
 11
90.0
 21
-22.0
 31
0.0
  0
LINE
  5
28F
330
22B
100
AcDbEntity
  8
0
  6
Continuous
 62
     2
100
AcDbLine
 10
0.0
 20
-27.0
 30
0.0
 11
90.0
 21
-27.0
 31
0.0
  0
LINE
  5
290
330
22B
100
AcDbEntity
  8
0
  6
Continuous
 62
     2
100
AcDbLine
 10
0.0
 20
-40.0
 30
0.0
 11
90.0
 21
-40.0
 31
0.0
  0
LINE
  5
291
330
22B
100
AcDbEntity
  8
0
  6
Continuous
 62
     2
100
AcDbLine
 10
30.0
 20
0.0
 30
0.0
 11
30.0
 21
-27.0
 31
0.0
  0
LINE
  5
292
330
22B
100
AcDbEntity
  8
0
  6
Continuous
 62
     2
100
AcDbLine
 10
70.0
 20
0.0
 30
0.0
 11
70.0
 21
-12.0
 31
0.0
  0
LINE
  5
293
330
22B
100
AcDbEntity
  8
0
  6
Continuous
 62
     2
100
AcDbLine
 10
90.0
 20
0.0
 30
0.0
 11
90.0
 21
-40.0
 31
0.0
  0
ENDBLK
  5
294
330
22B
100
AcDbEntity
  8
0
100
AcDbBlockEnd
  0
ENDSEC
  0
SECTION
  2
ENTITIES
  0
INSERT
  5
298
330
224
100
AcDbEntity
  8
0
  6
Continuous
 62
     2
100
AcDbBlockReference
  2
LOGO2_BL0
 10
333.1473869546
 20
37.5239270671
 30
0.0
  0
LWPOLYLINE
  5
299
330
224
100
AcDbEntity
  8
0
  6
Continuous
 62
     2
100
AcDbPolyline
 90
        7
 70
     0
 43
0.0
 10
352.8802624512
 20
46.5239282227
 10
351.3802697754
 20
46.5239282227
 10
352.8802624512
 20
48.6667831421
 10
352.8802624512
 20
49.0953579712
 10
352.4517004395
 20
49.5239263916
 10
351.8088317871
 20
49.5239263916
 10
351.3802697754
 20
48.8810705566
  0
LWPOLYLINE
  5
29A
330
224
100
AcDbEntity
  8
0
  6
Continuous
 62
     2
100
AcDbPolyline
 90
        6
 70
     0
 43
0.0
 10
355.0231237793
 20
46.5239282227
 10
354.1659741211
 20
46.5239282227
 10
353.7374121094
 20
46.9524966431
 10
353.7374121094
 20
49.0953579712
 10
354.1659741211
 20
49.5239263916
 10
355.0231237793
 20
49.5239263916
  0
LWPOLYLINE
  5
29B
330
224
100
AcDbEntity
  8
0
  6
Continuous
 62
     2
100
AcDbPolyline
 90
        3
 70
     0
 43
0.0
 10
356.2374169922
 20
48.6667831421
 10
357.0945666504
 20
49.5239263916
 10
357.0945666504
 20
46.5239282227
  0
LINE
  5
29C
330
224
100
AcDbEntity
  8
0
  6
Continuous
 62
     2
100
AcDbLine
 10
357.9516906738
 20
46.5239282227
 30
0.0
 11
359.6659899902
 21
46.5239282227
 31
0.0
  0
LWPOLYLINE
  5
29D
330
224
100
AcDbEntity
  8
0
  6
Continuous
 62
     2
100
AcDbPolyline
 90
        6
 70
     0
 43
0.0
 10
361.5945446777
 20
46.5239282227
 10
360.7374206543
 20
46.5239282227
 10
360.3088330078
 20
46.9524966431
 10
360.3088330078
 20
49.0953579712
 10
360.7374206543
 20
49.5239263916
 10
361.5945446777
 20
49.5239263916
  0
LINE
  5
29E
330
224
100
AcDbEntity
  8
0
  6
Continuous
 62
     2
100
AcDbLine
 10
362.8088378906
 20
46.5239282227
 30
0.0
 11
364.523137207
 21
46.5239282227
 31
0.0
  0
LWPOLYLINE
  5
29F
330
224
100
AcDbEntity
  8
0
  6
Continuous
 62
     2
100
AcDbPolyline
 90
       13
 70
     0
 43
0.0
 10
365.1659802246
 20
47.3810714722
 10
365.1659802246
 20
48.6667831421
 10
365.3802612305
 20
49.0953579712
 10
365.808848877
 20
49.5239263916
 10
366.0231298828
 20
49.5239263916
 10
366.4516918945
 20
49.0953579712
 10
366.6659729004
 20
48.6667831421
 10
366.6659729004
 20
47.3810714722
 10
366.4516918945
 20
46.9524966431
 10
366.0231298828
 20
46.5239282227
 10
365.808848877
 20
46.5239282227
 10
365.3802612305
 20
46.9524966431
 10
365.1659802246
 20
47.3810714722
  0
LWPOLYLINE
  5
2A0
330
224
100
AcDbEntity
  8
0
  6
Continuous
 62
     2
100
AcDbPolyline
 90
       13
 70
     0
 43
0.0
 10
367.5231225586
 20
47.3810714722
 10
367.5231225586
 20
48.6667831421
 10
367.7374035645
 20
49.0953579712
 10
368.1659912109
 20
49.5239263916
 10
368.3802722168
 20
49.5239263916
 10
368.8088342285
 20
49.0953579712
 10
369.0231152344
 20
48.6667831421
 10
369.0231152344
 20
47.3810714722
 10
368.8088342285
 20
46.9524966431
 10
368.3802722168
 20
46.5239282227
 10
368.1659912109
 20
46.5239282227
 10
367.7374035645
 20
46.9524966431
 10
367.5231225586
 20
47.3810714722
  0
LWPOLYLINE
  5
2A1
330
224
100
AcDbEntity
  8
0
  6
Continuous
 62
     2
100
AcDbPolyline
 90
        3
 70
     0
 43
0.0
 10
369.8802648926
 20
48.6667831421
 10
370.7374145508
 20
49.5239263916
 10
370.7374145508
 20
46.5239282227
  0
LWPOLYLINE
  5
2A2
330
224
100
AcDbEntity
  8
0
  6
Continuous
 62
     2
100
AcDbPolyline
 90
        9
 70
     0
 43
0.0
 10
391.5525878906
 20
45.7739254761
 10
391.5525878906
 20
49.2739297485
 10
392.4822839355
 20
49.2739297485
 10
392.8541418457
 20
48.9822573853
 10
393.0400964355
 20
48.6905914307
 10
393.0400964355
 20
48.1072595215
 10
392.8541418457
 20
47.8155935669
 10
392.4822839355
 20
47.5239276123
 10
391.5525878906
 20
47.5239276123
  0
LINE
  5
2A3
330
224
100
AcDbEntity
  8
0
  6
Continuous
 62
     2
100
AcDbLine
 10
392.4822839355
 20
47.5239276123
 30
0.0
 11
393.0400964355
 21
45.7739254761
 31
0.0
  0
LWPOLYLINE
  5
2A4
330
224
100
AcDbEntity
  8
0
  6
Continuous
 62
     2
100
AcDbPolyline
 90
       11
 70
     0
 43
0.0
 10
395.8291589355
 20
46.3572573853
 10
395.6432043457
 20
46.0655914307
 10
395.2713464355
 20
45.7739254761
 10
394.8994628906
 20
46.0655914307
 10
394.5275793457
 20
46.6489297485
 10
394.5275793457
 20
47.2322616577
 10
394.8994628906
 20
47.8155935669
 10
395.2713464355
 20
48.1072595215
 10
395.6432043457
 20
47.8155935669
 10
395.8291589355
 20
47.2322616577
 10
394.5275793457
 20
47.2322616577
  0
LWPOLYLINE
  5
2A5
330
224
100
AcDbEntity
  8
0
  6
Continuous
 62
     2
100
AcDbPolyline
 90
        3
 70
     0
 43
0.0
 10
397.6885253906
 20
48.1072595215
 10
398.2463378906
 20
45.7739254761
 10
398.8041503906
 20
48.1072595215
  0
LWPOLYLINE
  5
2A6
330
224
100
AcDbEntity
  8
0
  6
Continuous
 62
     2
100
AcDbPolyline
 90
        4
 70
     0
 43
0.0
 10
401.2213293457
 20
45.7739254761
 10
401.0354003906
 20
45.7739254761
 10
401.0354003906
 20
46.0655914307
 10
401.2213293457
 20
45.7739254761
  0
LWPOLYLINE
  5
2A7
330
224
100
AcDbEntity
  8
0
  6
Continuous
 62
     2
100
AcDbPolyline
 90
        4
 70
     0
 43
0.0
 10
401.2213293457
 20
48.1072595215
 10
401.2213293457
 20
47.8155935669
 10
401.0354003906
 20
48.1072595215
 10
401.2213293457
 20
48.1072595215
  0
LWPOLYLINE
  5
2A8
330
224
100
AcDbEntity
  8
0
  6
Continuous
 62
     2
100
AcDbPolyline
 90
       15
 70
     0
 43
0.0
 10
404.1963464355
 20
45.7739254761
 10
403.8244628906
 20
46.0655914307
 10
403.6385339355
 20
46.3572573853
 10
403.4525793457
 20
46.9405957031
 10
403.4525793457
 20
48.1072595215
 10
403.6385339355
 20
48.6905914307
 10
403.8244628906
 20
48.9822573853
 10
404.1963464355
 20
49.2739297485
 10
404.5682043457
 20
48.9822573853
 10
404.7541589355
 20
48.6905914307
 10
404.9400878906
 20
48.1072595215
 10
404.9400878906
 20
46.9405957031
 10
404.7541589355
 20
46.3572573853
 10
404.5682043457
 20
46.0655914307
 10
404.1963464355
 20
45.7739254761
  0
LWPOLYLINE
  5
2A9
330
224
100
AcDbEntity
  8
0
  6
Continuous
 62
     2
100
AcDbPolyline
 90
       15
 70
     0
 43
0.0
 10
407.1713378906
 20
45.7739254761
 10
406.7994543457
 20
46.0655914307
 10
406.6135253906
 20
46.3572573853
 10
406.4275964355
 20
46.9405957031
 10
406.4275964355
 20
48.1072595215
 10
406.6135253906
 20
48.6905914307
 10
406.7994543457
 20
48.9822573853
 10
407.1713378906
 20
49.2739297485
 10
407.5432214355
 20
48.9822573853
 10
407.7291503906
 20
48.6905914307
 10
407.9150793457
 20
48.1072595215
 10
407.9150793457
 20
46.9405957031
 10
407.7291503906
 20
46.3572573853
 10
407.5432214355
 20
46.0655914307
 10
407.1713378906
 20
45.7739254761
  0
LWPOLYLINE
  5
2AA
330
224
100
AcDbEntity
  8
0
  6
Continuous
 62
     2
100
AcDbPolyline
 90
       10
 70
     0
 43
0.0
 10
350.8088452148
 20
40.0239257812
 10
351.0588354492
 20
39.7739291382
 10
352.0588476563
 20
39.7739291382
 10
352.558828125
 20
40.273928833
 10
352.558828125
 20
40.7739285278
 10
350.8088452148
 20
42.2739276123
 10
350.8088452148
 20
42.7739273071
 10
351.3088513184
 20
43.273927002
 10
352.3088378906
 20
43.273927002
 10
352.558828125
 20
43.0239239502
  0
LWPOLYLINE
  5
2AB
330
224
100
AcDbEntity
  8
0
  6
Continuous
 62
     2
100
AcDbPolyline
 90
        6
 70
     0
 43
0.0
 10
354.8088427734
 20
39.7739291382
 10
353.8088305664
 20
39.7739291382
 10
353.558840332
 20
40.0239257812
 10
353.558840332
 20
42.0239245605
 10
353.8088305664
 20
42.2739276123
 10
354.8088427734
 20
42.2739276123
  0
LWPOLYLINE
  5
2AC
330
224
100
AcDbEntity
  8
0
  6
Continuous
 62
     2
100
AcDbPolyline
 90
        4
 70
     0
 43
0.0
 10
357.3088476563
 20
39.7739291382
 10
357.3088476563
 20
41.7739279175
 10
357.0588317871
 20
42.2739276123
 10
355.8088293457
 20
42.2739276123
  0
LWPOLYLINE
  5
2AD
330
224
100
AcDbEntity
  8
0
  6
Continuous
 62
     2
100
AcDbPolyline
 90
        6
 70
     0
 43
0.0
 10
357.3088476563
 20
39.7739291382
 10
356.3088354492
 20
39.7739291382
 10
355.8088293457
 20
40.0239257812
 10
355.8088293457
 20
40.7739285278
 10
356.3088354492
 20
41.0239251709
 10
357.3088476563
 20
41.0239251709
  0
LWPOLYLINE
  5
2AE
330
224
100
AcDbEntity
  8
0
  6
Continuous
 62
     2
100
AcDbPolyline
 90
        4
 70
     0
 43
0.0
 10
359.0588305664
 20
39.7739291382
 10
358.5588500977
 20
39.7739291382
 10
358.3088342285
 20
40.0239257812
 10
358.3088342285
 20
43.273927002
  0
LWPOLYLINE
  5
2AF
330
224
100
AcDbEntity
  8
0
  6
Continuous
 62
     2
100
AcDbPolyline
 90
        9
 70
     0
 43
0.0
 10
361.5588354492
 20
39.7739291382
 10
360.558848877
 20
39.7739291382
 10
360.0588427734
 20
40.273928833
 10
360.0588427734
 20
41.7739279175
 10
360.558848877
 20
42.2739276123
 10
361.0588293457
 20
42.2739276123
 10
361.5588354492
 20
41.7739279175
 10
361.5588354492
 20
41.0239251709
 10
360.0588427734
 20
41.0239251709
  0
LWPOLYLINE
  5
2B0
330
224
100
AcDbEntity
  8
0
  6
Continuous
 62
     2
100
AcDbPolyline
 90
        4
 70
     0
 43
0.0
 10
362.5588476563
 20
39.7739291382
 10
362.5588476563
 20
40.0239257812
 10
362.7254992676
 20
40.0239257812
 10
362.5588476563
 20
39.7739291382
  0
LWPOLYLINE
  5
2B1
330
224
100
AcDbEntity
  8
0
  6
Continuous
 62
     2
100
AcDbPolyline
 90
        4
 70
     0
 43
0.0
 10
362.5588476563
 20
41.2739282227
 10
362.5588476563
 20
41.5239248657
 10
362.7254992676
 20
41.5239248657
 10
362.5588476563
 20
41.2739282227
  0
LWPOLYLINE
  5
2B2
330
224
100
AcDbEntity
  8
0
  6
Continuous
 62
     2
100
AcDbPolyline
 90
        3
 70
     0
 43
0.0
 10
363.8088500977
 20
42.2739276123
 10
364.8088366699
 20
43.273927002
 10
364.8088366699
 20
39.7739291382
  0
LWPOLYLINE
  5
2B3
330
224
100
AcDbEntity
  8
0
  6
Continuous
 62
     2
100
AcDbPolyline
 90
        4
 70
     0
 43
0.0
 10
365.808848877
 20
39.7739291382
 10
365.808848877
 20
40.0239257812
 10
365.9755004883
 20
40.0239257812
 10
365.808848877
 20
39.7739291382
  0
LWPOLYLINE
  5
2B4
330
224
100
AcDbEntity
  8
0
  6
Continuous
 62
     2
100
AcDbPolyline
 90
        4
 70
     0
 43
0.0
 10
365.808848877
 20
41.2739282227
 10
365.808848877
 20
41.5239248657
 10
365.9755004883
 20
41.5239248657
 10
365.808848877
 20
41.2739282227
  0
LWPOLYLINE
  5
2B5
330
224
100
AcDbEntity
  8
0
  6
Continuous
 62
     2
100
AcDbPolyline
 90
        3
 70
     0
 43
0.0
 10
367.0588513184
 20
42.2739276123
 10
368.0588378906
 20
43.273927002
 10
368.0588378906
 20
39.7739291382
  0
LWPOLYLINE
  5
2B6
330
224
100
AcDbEntity
  8
0
  6
Continuous
 62
     2
100
AcDbPolyline
 90
        3
 70
     0
 43
0.0
 10
390.8088464355
 20
40.273928833
 10
391.8088330078
 20
43.7739266968
 10
392.8088452148
 20
40.273928833
  0
LINE
  5
2B7
330
224
100
AcDbEntity
  8
0
  6
Continuous
 62
     2
100
AcDbLine
 10
391.142175293
 20
41.2739282227
 30
0.0
 11
392.4755163574
 21
41.2739282227
 31
0.0
  0
LWPOLYLINE
  5
2B8
330
224
100
AcDbEntity
  8
0
  6
Continuous
 62
     2
100
AcDbPolyline
 90
        6
 70
     0
 43
0.0
 10
393.8088317871
 20
40.273928833
 10
395.0588342285
 20
40.273928833
 10
395.3088500977
 20
40.5239254761
 10
395.3088500977
 20
41.7739279175
 10
394.8088439941
 20
42.2739276123
 10
394.3088378906
 20
42.2739276123
  0
LWPOLYLINE
  5
2B9
330
224
100
AcDbEntity
  8
0
  6
Continuous
 62
     2
100
AcDbPolyline
 90
        5
 70
     0
 43
0.0
 10
394.8088439941
 20
42.2739276123
 10
395.2255114746
 20
42.5239242554
 10
395.2255114746
 20
43.273927002
 10
394.8088439941
 20
43.7739266968
 10
393.8088317871
 20
43.7739266968
  0
LWPOLYLINE
  5
2BA
330
224
100
AcDbEntity
  8
0
  6
Continuous
 62
     2
100
AcDbPolyline
 90
        8
 70
     0
 43
0.0
 10
351.4755029297
 20
32.2739273071
 10
351.4755029297
 20
35.7739251709
 10
352.2254992676
 20
35.7739251709
 10
352.4755151367
 20
35.6905929565
 10
352.9754956055
 20
35.2739254761
 10
352.9754956055
 20
34.5239291382
 10
352.4755151367
 20
34.0239294434
 10
351.4755029297
 20
34.0239294434
  0
LWPOLYLINE
  5
2BB
330
224
100
AcDbEntity
  8
0
  6
Continuous
 62
     2
100
AcDbPolyline
 90
        6
 70
     0
 43
0.0
 10
352.4755151367
 20
34.0239294434
 10
352.7255053711
 20
34.0239294434
 10
353.2255114746
 20
33.5239297485
 10
353.2255114746
 20
32.773927002
 10
352.7255053711
 20
32.2739273071
 10
351.4755029297
 20
32.2739273071
  0
LWPOLYLINE
  5
2BC
330
224
100
AcDbEntity
  8
0
  6
Continuous
 62
     2
100
AcDbPolyline
 90
        7
 70
     0
 43
0.0
 10
354.2254980469
 20
32.2739273071
 10
354.2254980469
 20
35.7739251709
 10
355.4755004883
 20
35.7739251709
 10
355.9755065918
 20
35.2739254761
 10
355.9755065918
 20
34.2739260864
 10
355.4755004883
 20
33.7739263916
 10
354.2254980469
 20
33.7739263916
  0
LINE
  5
2BD
330
224
100
AcDbEntity
  8
0
  6
Continuous
 62
     2
100
AcDbLine
 10
354.9754943848
 20
33.7739263916
 30
0.0
 11
355.9755065918
 21
32.2739273071
 31
0.0
  0
LINE
  5
2BE
330
224
100
AcDbEntity
  8
0
  6
Continuous
 62
     2
100
AcDbLine
 10
357.6421765137
 20
32.2739273071
 30
0.0
 11
357.6421765137
 21
35.7739251709
 31
0.0
  0
LWPOLYLINE
  5
2BF
330
224
100
AcDbEntity
  8
0
  6
Continuous
 62
     2
100
AcDbPolyline
 90
        8
 70
     0
 43
0.0
 10
360.2254943848
 20
34.2739260864
 10
360.9755163574
 20
34.2739260864
 10
360.9755163574
 20
32.2739273071
 10
359.725513916
 20
32.2739273071
 10
359.2255078125
 20
32.773927002
 10
359.2255078125
 20
35.2739254761
 10
359.725513916
 20
35.7739251709
 10
360.9755163574
 20
35.7739251709
  0
LINE
  5
2C0
330
224
100
AcDbEntity
  8
0
  6
Continuous
 62
     2
100
AcDbLine
 10
361.9755029297
 20
32.2739273071
 30
0.0
 11
361.9755029297
 21
35.7739251709
 31
0.0
  0
LINE
  5
2C1
330
224
100
AcDbEntity
  8
0
  6
Continuous
 62
     2
100
AcDbLine
 10
363.7255114746
 20
35.7739251709
 30
0.0
 11
363.7255114746
 21
32.2739273071
 31
0.0
  0
LINE
  5
2C2
330
224
100
AcDbEntity
  8
0
  6
Continuous
 62
     2
100
AcDbLine
 10
361.9755029297
 20
34.2739260864
 30
0.0
 11
363.7255114746
 21
34.2739260864
 31
0.0
  0
LINE
  5
2C3
330
224
100
AcDbEntity
  8
0
  6
Continuous
 62
     2
100
AcDbLine
 10
365.7255102539
 20
32.2739273071
 30
0.0
 11
365.7255102539
 21
35.7739251709
 31
0.0
  0
LINE
  5
2C4
330
224
100
AcDbEntity
  8
0
  6
Continuous
 62
     2
100
AcDbLine
 10
364.7254980469
 20
35.7739251709
 30
0.0
 11
366.7254968262
 21
35.7739251709
 31
0.0
  0
LWPOLYLINE
  5
2C5
330
224
100
AcDbEntity
  8
0
  6
Continuous
 62
     2
100
AcDbPolyline
 90
        6
 70
     0
 43
0.0
 10
370.4755041504
 20
32.2739273071
 10
371.7255065918
 20
32.2739273071
 10
371.9754968262
 20
32.5239239502
 10
371.9754968262
 20
33.7739263916
 10
371.4755163574
 20
34.2739260864
 10
370.9755102539
 20
34.2739260864
  0
LWPOLYLINE
  5
2C6
330
224
100
AcDbEntity
  8
0
  6
Continuous
 62
     2
100
AcDbPolyline
 90
        5
 70
     0
 43
0.0
 10
371.4755163574
 20
34.2739260864
 10
371.8921838379
 20
34.5239291382
 10
371.8921838379
 20
35.2739254761
 10
371.4755163574
 20
35.7739251709
 10
370.4755041504
 20
35.7739251709
  0
LWPOLYLINE
  5
2C7
330
224
100
AcDbEntity
  8
0
  6
Continuous
 62
     2
100
AcDbPolyline
 90
        9
 70
     0
 43
0.0
 10
373.7255053711
 20
32.8572592163
 10
373.8088439941
 20
32.6905947876
 10
373.8088439941
 20
32.6072625732
 10
373.7255053711
 20
32.4405917358
 10
373.558828125
 20
32.4405917358
 10
373.4755151367
 20
32.6072625732
 10
373.4755151367
 20
32.6905947876
 10
373.558828125
 20
32.8572592163
 10
373.7255053711
 20
32.8572592163
  0
LWPOLYLINE
  5
2C8
330
224
100
AcDbEntity
  8
0
  6
Continuous
 62
     2
100
AcDbPolyline
 90
        6
 70
     0
 43
0.0
 10
374.9755078125
 20
32.2739273071
 10
376.2255102539
 20
32.2739273071
 10
376.4755004883
 20
32.5239239502
 10
376.4755004883
 20
33.7739263916
 10
375.9754943848
 20
34.2739260864
 10
375.475513916
 20
34.2739260864
  0
LWPOLYLINE
  5
2C9
330
224
100
AcDbEntity
  8
0
  6
Continuous
 62
     2
100
AcDbPolyline
 90
        5
 70
     0
 43
0.0
 10
375.9754943848
 20
34.2739260864
 10
376.3921618652
 20
34.5239291382
 10
376.3921618652
 20
35.2739254761
 10
375.9754943848
 20
35.7739251709
 10
374.9755078125
 20
35.7739251709
  0
LWPOLYLINE
  5
2CA
330
224
100
AcDbEntity
  8
0
  6
Continuous
 62
     2
100
AcDbPolyline
 90
        7
 70
     0
 43
0.0
 10
350.8088452148
 20
25.2739251709
 10
350.8088452148
 20
27.7739300537
 10
351.7017041016
 20
27.7739300537
 10
352.0588476563
 20
27.416786499
 10
352.0588476563
 20
25.6310687256
 10
351.7017041016
 20
25.2739251709
 10
350.8088452148
 20
25.2739251709
  0
LWPOLYLINE
  5
2CB
330
224
100
AcDbEntity
  8
0
  6
Continuous
 62
     2
100
AcDbPolyline
 90
        3
 70
     0
 43
0.0
 10
353.0707543945
 20
25.2739251709
 10
353.7850415039
 20
27.7739300537
 10
354.4993286133
 20
25.2739251709
  0
LINE
  5
2CC
330
224
100
AcDbEntity
  8
0
  6
Continuous
 62
     2
100
AcDbLine
 10
353.3088500977
 20
25.9882122803
 30
0.0
 11
354.2612329102
 21
25.9882122803
 31
0.0
  0
LINE
  5
2CD
330
224
100
AcDbEntity
  8
0
  6
Continuous
 62
     2
100
AcDbLine
 10
355.9278771973
 20
25.2739251709
 30
0.0
 11
355.9278771973
 21
27.7739300537
 31
0.0
  0
LINE
  5
2CE
330
224
100
AcDbEntity
  8
0
  6
Continuous
 62
     2
100
AcDbLine
 10
355.2135900879
 20
27.7739300537
 30
0.0
 11
356.6421643066
 21
27.7739300537
 31
0.0
  0
LWPOLYLINE
  5
2CF
330
224
100
AcDbEntity
  8
0
  6
Continuous
 62
     2
100
AcDbPolyline
 90
        3
 70
     0
 43
0.0
 10
357.356451416
 20
25.2739251709
 10
357.356451416
 20
27.7739300537
 10
358.4278820801
 20
27.7739300537
  0
LINE
  5
2D0
330
224
100
AcDbEntity
  8
0
  6
Continuous
 62
     2
100
AcDbLine
 10
358.0707385254
 20
26.7024993896
 30
0.0
 11
357.356451416
 21
26.7024993896
 31
0.0
  0
LINE
  5
2D1
330
224
100
AcDbEntity
  8
0
  6
Continuous
 62
     2
100
AcDbLine
 10
357.356451416
 20
25.2739251709
 30
0.0
 11
358.4278820801
 21
25.2739251709
 31
0.0
  0
LWPOLYLINE
  5
2D2
330
224
100
AcDbEntity
  8
0
  6
Continuous
 62
     2
100
AcDbPolyline
 90
        4
 70
     0
 43
0.0
 10
359.1421691895
 20
25.2739251709
 10
359.1421691895
 20
25.4524969482
 10
359.261217041
 20
25.4524969482
 10
359.1421691895
 20
25.2739251709
  0
LWPOLYLINE
  5
2D3
330
224
100
AcDbEntity
  8
0
  6
Continuous
 62
     2
100
AcDbPolyline
 90
        4
 70
     0
 43
0.0
 10
359.1421691895
 20
26.345355835
 10
359.1421691895
 20
26.5239276123
 10
359.261217041
 20
26.5239276123
 10
359.1421691895
 20
26.345355835
  0
LWPOLYLINE
  5
2D4
330
224
100
AcDbEntity
  8
0
  6
Continuous
 62
     2
100
AcDbPolyline
 90
       13
 70
     0
 43
0.0
 10
360.0350280762
 20
25.9882122803
 10
360.0350280762
 20
27.0596429443
 10
360.2135998535
 20
27.416786499
 10
360.5707434082
 20
27.7739300537
 10
360.7493151855
 20
27.7739300537
 10
361.1064587402
 20
27.416786499
 10
361.2850305176
 20
27.0596429443
 10
361.2850305176
 20
25.9882122803
 10
361.1064587402
 20
25.6310687256
 10
360.7493151855
 20
25.2739251709
 10
360.5707434082
 20
25.2739251709
 10
360.2135998535
 20
25.6310687256
 10
360.0350280762
 20
25.9882122803
  0
LWPOLYLINE
  5
2D5
330
224
100
AcDbEntity
  8
0
  6
Continuous
 62
     2
100
AcDbPolyline
 90
       10
 70
     0
 43
0.0
 10
362.8921765137
 20
27.7739300537
 10
362.3564611816
 20
27.2382147217
 10
361.999317627
 20
26.5239276123
 10
361.999317627
 20
25.6310687256
 10
362.3564611816
 20
25.2739251709
 10
362.8921765137
 20
25.2739251709
 10
363.2493200684
 20
25.6310687256
 10
363.2493200684
 20
26.345355835
 10
362.8921765137
 20
26.7024993896
 10
362.1183654785
 20
26.7024993896
  0
LINE
  5
2D6
330
224
100
AcDbEntity
  8
0
  6
Continuous
 62
     2
100
AcDbLine
 10
365.3921813965
 20
27.5358343506
 30
0.0
 11
363.9636071777
 21
25.3334490967
 31
0.0
  0
LWPOLYLINE
  5
2D7
330
224
100
AcDbEntity
  8
0
  6
Continuous
 62
     2
100
AcDbPolyline
 90
       13
 70
     0
 43
0.0
 10
365.8683728027
 20
25.9882122803
 10
365.8683728027
 20
27.0596429443
 10
366.0469445801
 20
27.416786499
 10
366.4040881348
 20
27.7739300537
 10
366.5826599121
 20
27.7739300537
 10
366.9398034668
 20
27.416786499
 10
367.1183752441
 20
27.0596429443
 10
367.1183752441
 20
25.9882122803
 10
366.9398034668
 20
25.6310687256
 10
366.5826599121
 20
25.2739251709
 10
366.4040881348
 20
25.2739251709
 10
366.0469445801
 20
25.6310687256
 10
365.8683728027
 20
25.9882122803
  0
LWPOLYLINE
  5
2D8
330
224
100
AcDbEntity
  8
0
  6
Continuous
 62
     2
100
AcDbPolyline
 90
        8
 70
     0
 43
0.0
 10
367.8326367187
 20
25.2739251709
 10
368.5469238281
 20
25.2739251709
 10
368.9040673828
 20
25.6310687256
 10
368.9040673828
 20
26.345355835
 10
368.5469238281
 20
26.7024993896
 10
367.8326367187
 20
26.7024993896
 10
367.8326367187
 20
27.7739300537
 10
368.9040673828
 20
27.7739300537
  0
LINE
  5
2D9
330
224
100
AcDbEntity
  8
0
  6
Continuous
 62
     2
100
AcDbLine
 10
371.0469287109
 20
27.5358343506
 30
0.0
 11
369.6183544922
 21
25.3334490967
 31
0.0
  0
LWPOLYLINE
  5
2DA
330
224
100
AcDbEntity
  8
0
  6
Continuous
 62
     2
100
AcDbPolyline
 90
        7
 70
     0
 43
0.0
 10
372.7731225586
 20
25.2739251709
 10
371.5231201172
 20
25.2739251709
 10
372.7731225586
 20
27.0596429443
 10
372.7731225586
 20
27.416786499
 10
372.4159790039
 20
27.7739300537
 10
371.8802636719
 20
27.7739300537
 10
371.5231201172
 20
27.2382147217
  0
LWPOLYLINE
  5
2DB
330
224
100
AcDbEntity
  8
0
  6
Continuous
 62
     2
100
AcDbPolyline
 90
       13
 70
     0
 43
0.0
 10
373.487409668
 20
25.9882122803
 10
373.487409668
 20
27.0596429443
 10
373.6659814453
 20
27.416786499
 10
374.023125
 20
27.7739300537
 10
374.2016967773
 20
27.7739300537
 10
374.558840332
 20
27.416786499
 10
374.7374121094
 20
27.0596429443
 10
374.7374121094
 20
25.9882122803
 10
374.558840332
 20
25.6310687256
 10
374.2016967773
 20
25.2739251709
 10
374.023125
 20
25.2739251709
 10
373.6659814453
 20
25.6310687256
 10
373.487409668
 20
25.9882122803
  0
LWPOLYLINE
  5
2DC
330
224
100
AcDbEntity
  8
0
  6
Continuous
 62
     2
100
AcDbPolyline
 90
        3
 70
     0
 43
0.0
 10
375.4516992187
 20
27.0596429443
 10
376.1659863281
 20
27.7739300537
 10
376.1659863281
 20
25.2739251709
  0
LINE
  5
2DD
330
224
100
AcDbEntity
  8
0
  6
Continuous
 62
     2
100
AcDbLine
 10
377.7136083984
 20
25.2739251709
 30
0.0
 11
377.7136083984
 21
26.5239276123
 31
0.0
  0
LWPOLYLINE
  5
2DE
330
224
100
AcDbEntity
  8
0
  6
Continuous
 62
     2
100
AcDbPolyline
 90
        3
 70
     0
 43
0.0
 10
378.1302758789
 20
25.8096405029
 10
376.8802734375
 20
25.8096405029
 10
377.4159887695
 20
27.7739300537
  0
LWPOLYLINE
  5
2DF
330
224
100
AcDbEntity
  8
0
  6
Continuous
 62
     2
100
AcDbPolyline
 90
        3
 70
     0
 43
0.0
 10
321.1036889648
 20
20.4239268494
 10
321.5950817871
 20
22.273927002
 10
322.0865002441
 20
20.4239268494
  0
LINE
  5
2E0
330
224
100
AcDbEntity
  8
0
  6
Continuous
 62
     2
100
AcDbLine
 10
321.3002563477
 20
21.0405935669
 30
0.0
 11
321.8899328613
 21
21.0405935669
 31
0.0
  0
LINE
  5
2E1
330
224
100
AcDbEntity
  8
0
  6
Continuous
 62
     2
100
AcDbLine
 10
322.8727441406
 20
20.4239268494
 30
0.0
 11
322.8727441406
 21
21.6572602844
 31
0.0
  0
LWPOLYLINE
  5
2E2
330
224
100
AcDbEntity
  8
0
  6
Continuous
 62
     2
100
AcDbPolyline
 90
        5
 70
     0
 43
0.0
 10
322.8727441406
 20
21.3489285278
 10
323.0693115234
 20
21.6572602844
 10
323.2658789063
 20
21.6572602844
 10
323.4624462891
 20
21.3489285278
 10
323.4624462891
 20
20.4239268494
  0
LWPOLYLINE
  5
2E3
330
224
100
AcDbEntity
  8
0
  6
Continuous
 62
     2
100
AcDbPolyline
 90
        5
 70
     0
 43
0.0
 10
324.346973877
 20
21.6572602844
 10
324.7400830078
 20
20.5780943298
 10
324.6417993164
 20
20.1155950928
 10
324.4452575684
 20
19.8072601318
 10
324.2486901855
 20
19.8072601318
  0
LINE
  5
2E4
330
224
100
AcDbEntity
  8
0
  6
Continuous
 62
     2
100
AcDbLine
 10
324.7400830078
 20
20.5780943298
 30
0.0
 11
325.1332177734
 21
21.6572602844
 31
0.0
  0
LINE
  5
2E5
330
224
100
AcDbEntity
  8
0
  6
Continuous
 62
     2
100
AcDbLine
 10
327.8850842285
 20
22.273927002
 30
0.0
 11
327.8850842285
 21
22.1197595215
 31
0.0
  0
LINE
  5
2E6
330
224
100
AcDbEntity
  8
0
  6
Continuous
 62
     2
100
AcDbLine
 10
327.8850842285
 20
21.6572602844
 30
0.0
 11
327.8850842285
 21
20.4239268494
 31
0.0
  0
LINE
  5
2E7
330
224
100
AcDbEntity
  8
0
  6
Continuous
 62
     2
100
AcDbLine
 10
329.162746582
 20
20.4239268494
 30
0.0
 11
329.162746582
 21
21.6572602844
 31
0.0
  0
LWPOLYLINE
  5
2E8
330
224
100
AcDbEntity
  8
0
  6
Continuous
 62
     2
100
AcDbPolyline
 90
        5
 70
     0
 43
0.0
 10
329.162746582
 20
21.3489285278
 10
329.3593139648
 20
21.6572602844
 10
329.5558813477
 20
21.6572602844
 10
329.7524230957
 20
21.3489285278
 10
329.7524230957
 20
20.4239268494
  0
LINE
  5
2E9
330
224
100
AcDbEntity
  8
0
  6
Continuous
 62
     2
100
AcDbLine
 10
331.0300854492
 20
20.4239268494
 30
0.0
 11
331.0300854492
 21
22.273927002
 31
0.0
  0
LINE
  5
2EA
330
224
100
AcDbEntity
  8
0
  6
Continuous
 62
     2
100
AcDbLine
 10
330.735234375
 20
21.503092804
 30
0.0
 11
331.3249365234
 21
21.503092804
 31
0.0
  0
LWPOLYLINE
  5
2EB
330
224
100
AcDbEntity
  8
0
  6
Continuous
 62
     2
100
AcDbPolyline
 90
       11
 70
     0
 43
0.0
 10
332.8974243164
 20
20.7322618103
 10
332.799140625
 20
20.5780943298
 10
332.602598877
 20
20.4239268494
 10
332.4060314941
 20
20.5780943298
 10
332.2094641113
 20
20.8864260864
 10
332.2094641113
 20
21.1947610474
 10
332.4060314941
 20
21.503092804
 10
332.602598877
 20
21.6572602844
 10
332.799140625
 20
21.503092804
 10
332.8974243164
 20
21.1947610474
 10
332.2094641113
 20
21.1947610474
  0
LWPOLYLINE
  5
2EC
330
224
100
AcDbEntity
  8
0
  6
Continuous
 62
     2
100
AcDbPolyline
 90
       10
 70
     0
 43
0.0
 10
334.5682214355
 20
20.8864260864
 10
334.3716540527
 20
20.5780943298
 10
334.1750866699
 20
20.4239268494
 10
333.9785192871
 20
20.5780943298
 10
333.7819775391
 20
20.8864260864
 10
333.7819775391
 20
21.1947610474
 10
333.9785192871
 20
21.503092804
 10
334.1750866699
 20
21.6572602844
 10
334.3716540527
 20
21.503092804
 10
334.5682214355
 20
21.1947610474
  0
LWPOLYLINE
  5
2ED
330
224
100
AcDbEntity
  8
0
  6
Continuous
 62
     2
100
AcDbPolyline
 90
        6
 70
     0
 43
0.0
 10
334.5682214355
 20
21.6572602844
 10
334.5682214355
 20
20.2697593689
 10
334.4699377441
 20
19.9614276123
 10
334.3716540527
 20
19.8072601318
 10
333.9785192871
 20
19.8072601318
 10
333.8802355957
 20
19.9614276123
  0
LINE
  5
2EE
330
224
100
AcDbEntity
  8
0
  6
Continuous
 62
     2
100
AcDbLine
 10
335.4527490234
 20
20.4239268494
 30
0.0
 11
335.4527490234
 21
21.6572602844
 31
0.0
  0
LWPOLYLINE
  5
2EF
330
224
100
AcDbEntity
  8
0
  6
Continuous
 62
     2
100
AcDbPolyline
 90
        4
 70
     0
 43
0.0
 10
335.4527490234
 20
21.3489285278
 10
335.6493164062
 20
21.6572602844
 10
335.8458837891
 20
21.6572602844
 10
335.9441418457
 20
21.503092804
  0
LWPOLYLINE
  5
2F0
330
224
100
AcDbEntity
  8
0
  6
Continuous
 62
     2
100
AcDbPolyline
 90
       10
 70
     0
 43
0.0
 10
337.7132226562
 20
20.8864260864
 10
337.5166552734
 20
20.5780943298
 10
337.3200878906
 20
20.4239268494
 10
337.1235205078
 20
20.5780943298
 10
336.926953125
 20
20.8864260864
 10
336.926953125
 20
21.1947610474
 10
337.1235205078
 20
21.503092804
 10
337.3200878906
 20
21.6572602844
 10
337.5166552734
 20
21.503092804
 10
337.7132226562
 20
21.1947610474
  0
LINE
  5
2F1
330
224
100
AcDbEntity
  8
0
  6
Continuous
 62
     2
100
AcDbLine
 10
337.7132226562
 20
21.6572602844
 30
0.0
 11
337.7132226562
 21
20.4239268494
 31
0.0
  0
LINE
  5
2F2
330
224
100
AcDbEntity
  8
0
  6
Continuous
 62
     2
100
AcDbLine
 10
338.8926013184
 20
20.4239268494
 30
0.0
 11
338.8926013184
 21
22.273927002
 31
0.0
  0
LWPOLYLINE
  5
2F3
330
224
100
AcDbEntity
  8
0
  6
Continuous
 62
     2
100
AcDbPolyline
 90
       11
 70
     0
 43
0.0
 10
342.4307116699
 20
20.8864260864
 10
342.2341442871
 20
20.5780943298
 10
342.0376025391
 20
20.4239268494
 10
341.8410351562
 20
20.5780943298
 10
341.6444677734
 20
20.8864260864
 10
341.6444677734
 20
21.1947610474
 10
341.8410351562
 20
21.503092804
 10
342.0376025391
 20
21.6572602844
 10
342.2341442871
 20
21.503092804
 10
342.4307116699
 20
21.1947610474
 10
342.4307116699
 20
20.8864260864
  0
LINE
  5
2F4
330
224
100
AcDbEntity
  8
0
  6
Continuous
 62
     2
100
AcDbLine
 10
343.3152392578
 20
20.4239268494
 30
0.0
 11
343.3152392578
 21
21.6572602844
 31
0.0
  0
LWPOLYLINE
  5
2F5
330
224
100
AcDbEntity
  8
0
  6
Continuous
 62
     2
100
AcDbPolyline
 90
        4
 70
     0
 43
0.0
 10
343.3152392578
 20
21.3489285278
 10
343.5118066406
 20
21.6572602844
 10
343.7083740234
 20
21.6572602844
 10
343.8066577148
 20
21.503092804
  0
LWPOLYLINE
  5
2F6
330
224
100
AcDbEntity
  8
0
  6
Continuous
 62
     2
100
AcDbPolyline
 90
       10
 70
     0
 43
0.0
 10
346.3619567871
 20
21.1947610474
 10
346.5585241699
 20
21.503092804
 10
346.7550915527
 20
21.6572602844
 10
346.9516589355
 20
21.503092804
 10
347.1482263184
 20
21.1947610474
 10
347.1482263184
 20
20.8864260864
 10
346.9516589355
 20
20.5780943298
 10
346.7550915527
 20
20.4239268494
 10
346.5585241699
 20
20.4239268494
 10
346.3619567871
 20
20.8864260864
  0
LINE
  5
2F7
330
224
100
AcDbEntity
  8
0
  6
Continuous
 62
     2
100
AcDbLine
 10
346.3619567871
 20
21.6572602844
 30
0.0
 11
346.3619567871
 21
19.8072601318
 31
0.0
  0
LWPOLYLINE
  5
2F8
330
224
100
AcDbEntity
  8
0
  6
Continuous
 62
     2
100
AcDbPolyline
 90
       10
 70
     0
 43
0.0
 10
348.7207141113
 20
20.8864260864
 10
348.5241467285
 20
20.5780943298
 10
348.3275793457
 20
20.4239268494
 10
348.1310375977
 20
20.5780943298
 10
347.9344702148
 20
20.8864260864
 10
347.9344702148
 20
21.1947610474
 10
348.1310375977
 20
21.503092804
 10
348.3275793457
 20
21.6572602844
 10
348.5241467285
 20
21.503092804
 10
348.7207141113
 20
21.1947610474
  0
LINE
  5
2F9
330
224
100
AcDbEntity
  8
0
  6
Continuous
 62
     2
100
AcDbLine
 10
348.7207141113
 20
21.6572602844
 30
0.0
 11
348.7207141113
 21
20.4239268494
 31
0.0
  0
LINE
  5
2FA
330
224
100
AcDbEntity
  8
0
  6
Continuous
 62
     2
100
AcDbLine
 10
349.6052416992
 20
20.4239268494
 30
0.0
 11
349.6052416992
 21
21.6572602844
 31
0.0
  0
LWPOLYLINE
  5
2FB
330
224
100
AcDbEntity
  8
0
  6
Continuous
 62
     2
100
AcDbPolyline
 90
        4
 70
     0
 43
0.0
 10
349.6052416992
 20
21.3489285278
 10
349.801809082
 20
21.6572602844
 10
349.9983764648
 20
21.6572602844
 10
350.0966601562
 20
21.503092804
  0
LINE
  5
2FC
330
224
100
AcDbEntity
  8
0
  6
Continuous
 62
     2
100
AcDbLine
 10
351.4725805664
 20
20.4239268494
 30
0.0
 11
351.4725805664
 21
22.273927002
 31
0.0
  0
LINE
  5
2FD
330
224
100
AcDbEntity
  8
0
  6
Continuous
 62
     2
100
AcDbLine
 10
351.177755127
 20
21.503092804
 30
0.0
 11
351.7674316406
 21
21.503092804
 31
0.0
  0
LINE
  5
2FE
330
224
100
AcDbEntity
  8
0
  6
Continuous
 62
     2
100
AcDbLine
 10
353.0450939941
 20
22.273927002
 30
0.0
 11
353.0450939941
 21
22.1197595215
 31
0.0
  0
LINE
  5
2FF
330
224
100
AcDbEntity
  8
0
  6
Continuous
 62
     2
100
AcDbLine
 10
353.0450939941
 20
21.6572602844
 30
0.0
 11
353.0450939941
 21
20.4239268494
 31
0.0
  0
LWPOLYLINE
  5
300
330
224
100
AcDbEntity
  8
0
  6
Continuous
 62
     2
100
AcDbPolyline
 90
       10
 70
     0
 43
0.0
 10
355.0107165527
 20
20.8864260864
 10
354.8141491699
 20
20.5780943298
 10
354.6175817871
 20
20.4239268494
 10
354.4210400391
 20
20.5780943298
 10
354.2244726562
 20
20.8864260864
 10
354.2244726562
 20
21.1947610474
 10
354.4210400391
 20
21.503092804
 10
354.6175817871
 20
21.6572602844
 10
354.8141491699
 20
21.503092804
 10
355.0107165527
 20
21.1947610474
  0
LINE
  5
301
330
224
100
AcDbEntity
  8
0
  6
Continuous
 62
     2
100
AcDbLine
 10
355.0107165527
 20
21.6572602844
 30
0.0
 11
355.0107165527
 21
20.4239268494
 31
0.0
  0
LINE
  5
302
330
224
100
AcDbEntity
  8
0
  6
Continuous
 62
     2
100
AcDbLine
 10
356.1900952148
 20
20.4239268494
 30
0.0
 11
356.1900952148
 21
22.273927002
 31
0.0
  0
LINE
  5
303
330
224
100
AcDbEntity
  8
0
  6
Continuous
 62
     2
100
AcDbLine
 10
359.0402453613
 20
20.4239268494
 30
0.0
 11
359.0402453613
 21
21.6572602844
 31
0.0
  0
LWPOLYLINE
  5
304
330
224
100
AcDbEntity
  8
0
  6
Continuous
 62
     2
100
AcDbPolyline
 90
        4
 70
     0
 43
0.0
 10
359.0402453613
 20
21.3489285278
 10
359.2368127441
 20
21.6572602844
 10
359.433380127
 20
21.6572602844
 10
359.5316638184
 20
21.503092804
  0
LWPOLYLINE
  5
305
330
224
100
AcDbEntity
  8
0
  6
Continuous
 62
     2
100
AcDbPolyline
 90
       11
 70
     0
 43
0.0
 10
361.2024353027
 20
20.7322618103
 10
361.1041516113
 20
20.5780943298
 10
360.9075842285
 20
20.4239268494
 10
360.7110168457
 20
20.5780943298
 10
360.5144750977
 20
20.8864260864
 10
360.5144750977
 20
21.1947610474
 10
360.7110168457
 20
21.503092804
 10
360.9075842285
 20
21.6572602844
 10
361.1041516113
 20
21.503092804
 10
361.2024353027
 20
21.1947610474
 10
360.5144750977
 20
21.1947610474
  0
LWPOLYLINE
  5
306
330
224
100
AcDbEntity
  8
0
  6
Continuous
 62
     2
100
AcDbPolyline
 90
       10
 70
     0
 43
0.0
 10
362.0869628906
 20
21.1947610474
 10
362.2835302734
 20
21.503092804
 10
362.4800976562
 20
21.6572602844
 10
362.6766650391
 20
21.503092804
 10
362.8732067871
 20
21.1947610474
 10
362.8732067871
 20
20.8864260864
 10
362.6766650391
 20
20.5780943298
 10
362.4800976562
 20
20.4239268494
 10
362.2835302734
 20
20.4239268494
 10
362.0869628906
 20
20.8864260864
  0
LINE
  5
307
330
224
100
AcDbEntity
  8
0
  6
Continuous
 62
     2
100
AcDbLine
 10
362.0869628906
 20
21.6572602844
 30
0.0
 11
362.0869628906
 21
19.8072601318
 31
0.0
  0
LINE
  5
308
330
224
100
AcDbEntity
  8
0
  6
Continuous
 62
     2
100
AcDbLine
 10
363.757734375
 20
20.4239268494
 30
0.0
 11
363.757734375
 21
21.6572602844
 31
0.0
  0
LWPOLYLINE
  5
309
330
224
100
AcDbEntity
  8
0
  6
Continuous
 62
     2
100
AcDbPolyline
 90
        4
 70
     0
 43
0.0
 10
363.757734375
 20
21.3489285278
 10
363.9543017578
 20
21.6572602844
 10
364.1508691406
 20
21.6572602844
 10
364.249152832
 20
21.503092804
  0
LWPOLYLINE
  5
30A
330
224
100
AcDbEntity
  8
0
  6
Continuous
 62
     2
100
AcDbPolyline
 90
       11
 70
     0
 43
0.0
 10
366.0182080078
 20
20.8864260864
 10
365.821640625
 20
20.5780943298
 10
365.625098877
 20
20.4239268494
 10
365.4285314941
 20
20.5780943298
 10
365.2319641113
 20
20.8864260864
 10
365.2319641113
 20
21.1947610474
 10
365.4285314941
 20
21.503092804
 10
365.625098877
 20
21.6572602844
 10
365.821640625
 20
21.503092804
 10
366.0182080078
 20
21.1947610474
 10
366.0182080078
 20
20.8864260864
  0
LWPOLYLINE
  5
30B
330
224
100
AcDbEntity
  8
0
  6
Continuous
 62
     2
100
AcDbPolyline
 90
       10
 70
     0
 43
0.0
 10
367.5907214355
 20
20.8864260864
 10
367.3941540527
 20
20.5780943298
 10
367.1975866699
 20
20.4239268494
 10
367.0010192871
 20
20.5780943298
 10
366.8044775391
 20
20.8864260864
 10
366.8044775391
 20
21.1947610474
 10
367.0010192871
 20
21.503092804
 10
367.1975866699
 20
21.6572602844
 10
367.3941540527
 20
21.503092804
 10
367.5907214355
 20
21.1947610474
  0
LINE
  5
30C
330
224
100
AcDbEntity
  8
0
  6
Continuous
 62
     2
100
AcDbLine
 10
367.5907214355
 20
22.273927002
 30
0.0
 11
367.5907214355
 21
20.4239268494
 31
0.0
  0
LWPOLYLINE
  5
30D
330
224
100
AcDbEntity
  8
0
  6
Continuous
 62
     2
100
AcDbPolyline
 90
        5
 70
     0
 43
0.0
 10
368.4752490234
 20
21.6572602844
 10
368.4752490234
 20
20.7322618103
 10
368.6718164063
 20
20.4239268494
 10
368.8683837891
 20
20.4239268494
 10
369.0649255371
 20
20.7322618103
  0
LINE
  5
30E
330
224
100
AcDbEntity
  8
0
  6
Continuous
 62
     2
100
AcDbLine
 10
369.0649255371
 20
21.6572602844
 30
0.0
 11
369.0649255371
 21
20.4239268494
 31
0.0
  0
LWPOLYLINE
  5
30F
330
224
100
AcDbEntity
  8
0
  6
Continuous
 62
     2
100
AcDbPolyline
 90
        8
 70
     0
 43
0.0
 10
370.5391552734
 20
20.5780943298
 10
370.3425878906
 20
20.4239268494
 10
370.1460205078
 20
20.5780943298
 10
369.949453125
 20
20.8864260864
 10
369.949453125
 20
21.1947610474
 10
370.1460205078
 20
21.503092804
 10
370.3425878906
 20
21.6572602844
 10
370.5391552734
 20
21.503092804
  0
LINE
  5
310
330
224
100
AcDbEntity
  8
0
  6
Continuous
 62
     2
100
AcDbLine
 10
371.9151013184
 20
20.4239268494
 30
0.0
 11
371.9151013184
 21
22.273927002
 31
0.0
  0
LINE
  5
311
330
224
100
AcDbEntity
  8
0
  6
Continuous
 62
     2
100
AcDbLine
 10
371.6202502441
 20
21.503092804
 30
0.0
 11
372.2099267578
 21
21.503092804
 31
0.0
  0
LINE
  5
312
330
224
100
AcDbEntity
  8
0
  6
Continuous
 62
     2
100
AcDbLine
 10
373.4875891113
 20
22.273927002
 30
0.0
 11
373.4875891113
 21
22.1197595215
 31
0.0
  0
LINE
  5
313
330
224
100
AcDbEntity
  8
0
  6
Continuous
 62
     2
100
AcDbLine
 10
373.4875891113
 20
21.6572602844
 30
0.0
 11
373.4875891113
 21
20.4239268494
 31
0.0
  0
LWPOLYLINE
  5
314
330
224
100
AcDbEntity
  8
0
  6
Continuous
 62
     2
100
AcDbPolyline
 90
       11
 70
     0
 43
0.0
 10
375.4532116699
 20
20.8864260864
 10
375.2566442871
 20
20.5780943298
 10
375.0601025391
 20
20.4239268494
 10
374.8635351563
 20
20.5780943298
 10
374.6669677734
 20
20.8864260864
 10
374.6669677734
 20
21.1947610474
 10
374.8635351563
 20
21.503092804
 10
375.0601025391
 20
21.6572602844
 10
375.2566442871
 20
21.503092804
 10
375.4532116699
 20
21.1947610474
 10
375.4532116699
 20
20.8864260864
  0
LINE
  5
315
330
224
100
AcDbEntity
  8
0
  6
Continuous
 62
     2
100
AcDbLine
 10
376.3377392578
 20
20.4239268494
 30
0.0
 11
376.3377392578
 21
21.6572602844
 31
0.0
  0
LWPOLYLINE
  5
316
330
224
100
AcDbEntity
  8
0
  6
Continuous
 62
     2
100
AcDbPolyline
 90
        5
 70
     0
 43
0.0
 10
376.3377392578
 20
21.3489285278
 10
376.5343066406
 20
21.6572602844
 10
376.7308740234
 20
21.6572602844
 10
376.9274414063
 20
21.3489285278
 10
376.9274414063
 20
20.4239268494
  0
LWPOLYLINE
  5
317
330
224
100
AcDbEntity
  8
0
  6
Continuous
 62
     2
100
AcDbPolyline
 90
       14
 70
     0
 43
0.0
 10
378.4016455078
 20
21.503092804
 10
378.3033618164
 20
21.6572602844
 10
378.1068200684
 20
21.6572602844
 10
378.008536377
 20
21.503092804
 10
378.008536377
 20
21.3489285278
 10
378.205078125
 20
21.1947610474
 10
378.4016455078
 20
21.0405935669
 10
378.4999291992
 20
20.8864260864
 10
378.4999291992
 20
20.7322618103
 10
378.4016455078
 20
20.5780943298
 10
378.3033618164
 20
20.4239268494
 10
378.1068200684
 20
20.4239268494
 10
378.008536377
 20
20.5780943298
 10
377.9102526855
 20
20.7322618103
  0
LWPOLYLINE
  5
318
330
224
100
AcDbEntity
  8
0
  6
Continuous
 62
     2
100
AcDbPolyline
 90
       10
 70
     0
 43
0.0
 10
381.7432141113
 20
20.8864260864
 10
381.5466467285
 20
20.5780943298
 10
381.3500793457
 20
20.4239268494
 10
381.1535375977
 20
20.5780943298
 10
380.9569702148
 20
20.8864260864
 10
380.9569702148
 20
21.1947610474
 10
381.1535375977
 20
21.503092804
 10
381.3500793457
 20
21.6572602844
 10
381.5466467285
 20
21.503092804
 10
381.7432141113
 20
21.1947610474
  0
LINE
  5
319
330
224
100
AcDbEntity
  8
0
  6
Continuous
 62
     2
100
AcDbLine
 10
381.7432141113
 20
21.6572602844
 30
0.0
 11
381.7432141113
 21
20.4239268494
 31
0.0
  0
LINE
  5
31A
330
224
100
AcDbEntity
  8
0
  6
Continuous
 62
     2
100
AcDbLine
 10
382.6277416992
 20
20.4239268494
 30
0.0
 11
382.6277416992
 21
21.6572602844
 31
0.0
  0
LWPOLYLINE
  5
31B
330
224
100
AcDbEntity
  8
0
  6
Continuous
 62
     2
100
AcDbPolyline
 90
        4
 70
     0
 43
0.0
 10
382.6277416992
 20
21.3489285278
 10
382.824309082
 20
21.6572602844
 10
383.0208764648
 20
21.6572602844
 10
383.1191601562
 20
21.503092804
  0
LWPOLYLINE
  5
31C
330
224
100
AcDbEntity
  8
0
  6
Continuous
 62
     2
100
AcDbPolyline
 90
       11
 70
     0
 43
0.0
 10
384.7899316406
 20
20.7322618103
 10
384.6916479492
 20
20.5780943298
 10
384.4950805664
 20
20.4239268494
 10
384.2985388184
 20
20.5780943298
 10
384.1019714355
 20
20.8864260864
 10
384.1019714355
 20
21.1947610474
 10
384.2985388184
 20
21.503092804
 10
384.4950805664
 20
21.6572602844
 10
384.6916479492
 20
21.503092804
 10
384.7899316406
 20
21.1947610474
 10
384.1019714355
 20
21.1947610474
  0
LWPOLYLINE
  5
31D
330
224
100
AcDbEntity
  8
0
  6
Continuous
 62
     2
100
AcDbPolyline
 90
       10
 70
     0
 43
0.0
 10
387.2469726562
 20
21.1947610474
 10
387.4435400391
 20
21.503092804
 10
387.6400817871
 20
21.6572602844
 10
387.8366491699
 20
21.503092804
 10
388.0332165527
 20
21.1947610474
 10
388.0332165527
 20
20.8864260864
 10
387.8366491699
 20
20.5780943298
 10
387.6400817871
 20
20.4239268494
 10
387.4435400391
 20
20.4239268494
 10
387.2469726562
 20
20.8864260864
  0
LINE
  5
31E
330
224
100
AcDbEntity
  8
0
  6
Continuous
 62
     2
100
AcDbLine
 10
387.2469726562
 20
21.6572602844
 30
0.0
 11
387.2469726562
 21
19.8072601318
 31
0.0
  0
LINE
  5
31F
330
224
100
AcDbEntity
  8
0
  6
Continuous
 62
     2
100
AcDbLine
 10
388.9177441406
 20
20.4239268494
 30
0.0
 11
388.9177441406
 21
21.6572602844
 31
0.0
  0
LWPOLYLINE
  5
320
330
224
100
AcDbEntity
  8
0
  6
Continuous
 62
     2
100
AcDbPolyline
 90
        4
 70
     0
 43
0.0
 10
388.9177441406
 20
21.3489285278
 10
389.1143115234
 20
21.6572602844
 10
389.3108789062
 20
21.6572602844
 10
389.4091625977
 20
21.503092804
  0
LWPOLYLINE
  5
321
330
224
100
AcDbEntity
  8
0
  6
Continuous
 62
     2
100
AcDbPolyline
 90
       11
 70
     0
 43
0.0
 10
391.1782177734
 20
20.8864260864
 10
390.9816503906
 20
20.5780943298
 10
390.7850830078
 20
20.4239268494
 10
390.588515625
 20
20.5780943298
 10
390.391973877
 20
20.8864260864
 10
390.391973877
 20
21.1947610474
 10
390.588515625
 20
21.503092804
 10
390.7850830078
 20
21.6572602844
 10
390.9816503906
 20
21.503092804
 10
391.1782177734
 20
21.1947610474
 10
391.1782177734
 20
20.8864260864
  0
LINE
  5
322
330
224
100
AcDbEntity
  8
0
  6
Continuous
 62
     2
100
AcDbLine
 10
392.0627453613
 20
20.4239268494
 30
0.0
 11
392.0627453613
 21
22.273927002
 31
0.0
  0
LWPOLYLINE
  5
323
330
224
100
AcDbEntity
  8
0
  6
Continuous
 62
     2
100
AcDbPolyline
 90
        7
 70
     0
 43
0.0
 10
392.0627453613
 20
21.3489285278
 10
392.0627453613
 20
21.503092804
 10
392.2593127441
 20
21.6572602844
 10
392.3575964355
 20
21.6572602844
 10
392.455880127
 20
21.6572602844
 10
392.652421875
 20
21.3489285278
 10
392.652421875
 20
20.4239268494
  0
LINE
  5
324
330
224
100
AcDbEntity
  8
0
  6
Continuous
 62
     2
100
AcDbLine
 10
393.9300842285
 20
22.273927002
 30
0.0
 11
393.9300842285
 21
22.1197595215
 31
0.0
  0
LINE
  5
325
330
224
100
AcDbEntity
  8
0
  6
Continuous
 62
     2
100
AcDbLine
 10
393.9300842285
 20
21.6572602844
 30
0.0
 11
393.9300842285
 21
20.4239268494
 31
0.0
  0
LWPOLYLINE
  5
326
330
224
100
AcDbEntity
  8
0
  6
Continuous
 62
     2
100
AcDbPolyline
 90
       10
 70
     0
 43
0.0
 10
395.1094628906
 20
21.1947610474
 10
395.3060302734
 20
21.503092804
 10
395.5025976562
 20
21.6572602844
 10
395.6991650391
 20
21.503092804
 10
395.8957067871
 20
21.1947610474
 10
395.8957067871
 20
20.8864260864
 10
395.6991650391
 20
20.5780943298
 10
395.5025976562
 20
20.4239268494
 10
395.3060302734
 20
20.5780943298
 10
395.1094628906
 20
20.8864260864
  0
LINE
  5
327
330
224
100
AcDbEntity
  8
0
  6
Continuous
 62
     2
100
AcDbLine
 10
395.1094628906
 20
22.273927002
 30
0.0
 11
395.1094628906
 21
20.4239268494
 31
0.0
  0
LINE
  5
328
330
224
100
AcDbEntity
  8
0
  6
Continuous
 62
     2
100
AcDbLine
 10
397.0750854492
 20
22.273927002
 30
0.0
 11
397.0750854492
 21
22.1197595215
 31
0.0
  0
LINE
  5
329
330
224
100
AcDbEntity
  8
0
  6
Continuous
 62
     2
100
AcDbLine
 10
397.0750854492
 20
21.6572602844
 30
0.0
 11
397.0750854492
 21
20.4239268494
 31
0.0
  0
LINE
  5
32A
330
224
100
AcDbEntity
  8
0
  6
Continuous
 62
     2
100
AcDbLine
 10
398.647598877
 20
20.4239268494
 30
0.0
 11
398.647598877
 21
22.273927002
 31
0.0
  0
LINE
  5
32B
330
224
100
AcDbEntity
  8
0
  6
Continuous
 62
     2
100
AcDbLine
 10
398.3527478027
 20
21.503092804
 30
0.0
 11
398.9424243164
 21
21.503092804
 31
0.0
  0
LWPOLYLINE
  5
32C
330
224
100
AcDbEntity
  8
0
  6
Continuous
 62
     2
100
AcDbPolyline
 90
       11
 70
     0
 43
0.0
 10
400.5149377441
 20
20.7322618103
 10
400.4166540527
 20
20.5780943298
 10
400.2200866699
 20
20.4239268494
 10
400.0235192871
 20
20.5780943298
 10
399.8269775391
 20
20.8864260864
 10
399.8269775391
 20
21.1947610474
 10
400.0235192871
 20
21.503092804
 10
400.2200866699
 20
21.6572602844
 10
400.4166540527
 20
21.503092804
 10
400.5149377441
 20
21.1947610474
 10
399.8269775391
 20
21.1947610474
  0
LWPOLYLINE
  5
32D
330
224
100
AcDbEntity
  8
0
  6
Continuous
 62
     2
100
AcDbPolyline
 90
       10
 70
     0
 43
0.0
 10
402.1857092285
 20
20.8864260864
 10
401.9891418457
 20
20.5780943298
 10
401.7926000977
 20
20.4239268494
 10
401.5960327148
 20
20.5780943298
 10
401.399465332
 20
20.8864260864
 10
401.399465332
 20
21.1947610474
 10
401.5960327148
 20
21.503092804
 10
401.7926000977
 20
21.6572602844
 10
401.9891418457
 20
21.503092804
 10
402.1857092285
 20
21.1947610474
  0
LINE
  5
32E
330
224
100
AcDbEntity
  8
0
  6
Continuous
 62
     2
100
AcDbLine
 10
402.1857092285
 20
22.273927002
 30
0.0
 11
402.1857092285
 21
20.4239268494
 31
0.0
  0
LWPOLYLINE
  5
32F
330
224
100
AcDbEntity
  8
0
  6
Continuous
 62
     2
100
AcDbPolyline
 90
        5
 70
     0
 43
0.0
 10
321.1036889648
 20
18.8822616577
 10
321.3002563477
 20
17.6489282227
 10
321.5950817871
 20
18.8822616577
 10
321.7916491699
 20
17.6489282227
 10
322.0865002441
 20
18.8822616577
  0
LINE
  5
330
330
224
100
AcDbEntity
  8
0
  6
Continuous
 62
     2
100
AcDbLine
 10
323.1675952148
 20
19.4989283752
 30
0.0
 11
323.1675952148
 21
19.3447608948
 31
0.0
  0
LINE
  5
331
330
224
100
AcDbEntity
  8
0
  6
Continuous
 62
     2
100
AcDbLine
 10
323.1675952148
 20
18.8822616577
 30
0.0
 11
323.1675952148
 21
17.6489282227
 31
0.0
  0
LINE
  5
332
330
224
100
AcDbEntity
  8
0
  6
Continuous
 62
     2
100
AcDbLine
 10
324.7400830078
 20
17.6489282227
 30
0.0
 11
324.7400830078
 21
19.4989283752
 31
0.0
  0
LINE
  5
333
330
224
100
AcDbEntity
  8
0
  6
Continuous
 62
     2
100
AcDbLine
 10
324.4452575684
 20
18.7280941772
 30
0.0
 11
325.034934082
 21
18.7280941772
 31
0.0
  0
LINE
  5
334
330
224
100
AcDbEntity
  8
0
  6
Continuous
 62
     2
100
AcDbLine
 10
326.0177453613
 20
17.6489282227
 30
0.0
 11
326.0177453613
 21
19.4989283752
 31
0.0
  0
LWPOLYLINE
  5
335
330
224
100
AcDbEntity
  8
0
  6
Continuous
 62
     2
100
AcDbPolyline
 90
        7
 70
     0
 43
0.0
 10
326.0177453613
 20
18.5739266968
 10
326.0177453613
 20
18.7280941772
 10
326.2143127441
 20
18.8822616577
 10
326.3125964355
 20
18.8822616577
 10
326.410880127
 20
18.8822616577
 10
326.607421875
 20
18.5739266968
 10
326.607421875
 20
17.6489282227
  0
LWPOLYLINE
  5
336
330
224
100
AcDbEntity
  8
0
  6
Continuous
 62
     2
100
AcDbPolyline
 90
       11
 70
     0
 43
0.0
 10
328.2782189941
 20
18.1114274597
 10
328.0816516113
 20
17.8030924988
 10
327.8850842285
 20
17.6489282227
 10
327.6885168457
 20
17.8030924988
 10
327.4919750977
 20
18.1114274597
 10
327.4919750977
 20
18.4197592163
 10
327.6885168457
 20
18.7280941772
 10
327.8850842285
 20
18.8822616577
 10
328.0816516113
 20
18.7280941772
 10
328.2782189941
 20
18.4197592163
 10
328.2782189941
 20
18.1114274597
  0
LWPOLYLINE
  5
337
330
224
100
AcDbEntity
  8
0
  6
Continuous
 62
     2
100
AcDbPolyline
 90
        5
 70
     0
 43
0.0
 10
329.162746582
 20
18.8822616577
 10
329.162746582
 20
17.9572599792
 10
329.3593139648
 20
17.6489282227
 10
329.5558813477
 20
17.6489282227
 10
329.7524230957
 20
17.9572599792
  0
LINE
  5
338
330
224
100
AcDbEntity
  8
0
  6
Continuous
 62
     2
100
AcDbLine
 10
329.7524230957
 20
18.8822616577
 30
0.0
 11
329.7524230957
 21
17.6489282227
 31
0.0
  0
LINE
  5
339
330
224
100
AcDbEntity
  8
0
  6
Continuous
 62
     2
100
AcDbLine
 10
331.0300854492
 20
17.6489282227
 30
0.0
 11
331.0300854492
 21
19.4989283752
 31
0.0
  0
LINE
  5
33A
330
224
100
AcDbEntity
  8
0
  6
Continuous
 62
     2
100
AcDbLine
 10
330.735234375
 20
18.7280941772
 30
0.0
 11
331.3249365234
 21
18.7280941772
 31
0.0
  0
LWPOLYLINE
  5
33B
330
224
100
AcDbEntity
  8
0
  6
Continuous
 62
     2
100
AcDbPolyline
 90
       10
 70
     0
 43
0.0
 10
333.7819775391
 20
18.4197592163
 10
333.9785192871
 20
18.7280941772
 10
334.1750866699
 20
18.8822616577
 10
334.3716540527
 20
18.7280941772
 10
334.5682214355
 20
18.4197592163
 10
334.5682214355
 20
18.1114274597
 10
334.3716540527
 20
17.8030924988
 10
334.1750866699
 20
17.6489282227
 10
333.9785192871
 20
17.6489282227
 10
333.7819775391
 20
18.1114274597
  0
LINE
  5
33C
330
224
100
AcDbEntity
  8
0
  6
Continuous
 62
     2
100
AcDbLine
 10
333.7819775391
 20
18.8822616577
 30
0.0
 11
333.7819775391
 21
17.0322615051
 31
0.0
  0
LINE
  5
33D
330
224
100
AcDbEntity
  8
0
  6
Continuous
 62
     2
100
AcDbLine
 10
335.4527490234
 20
17.6489282227
 30
0.0
 11
335.4527490234
 21
18.8822616577
 31
0.0
  0
LWPOLYLINE
  5
33E
330
224
100
AcDbEntity
  8
0
  6
Continuous
 62
     2
100
AcDbPolyline
 90
        4
 70
     0
 43
0.0
 10
335.4527490234
 20
18.5739266968
 10
335.6493164062
 20
18.8822616577
 10
335.8458837891
 20
18.8822616577
 10
335.9441418457
 20
18.7280941772
  0
LINE
  5
33F
330
224
100
AcDbEntity
  8
0
  6
Continuous
 62
     2
100
AcDbLine
 10
337.3200878906
 20
19.4989283752
 30
0.0
 11
337.3200878906
 21
19.3447608948
 31
0.0
  0
LINE
  5
340
330
224
100
AcDbEntity
  8
0
  6
Continuous
 62
     2
100
AcDbLine
 10
337.3200878906
 20
18.8822616577
 30
0.0
 11
337.3200878906
 21
17.6489282227
 31
0.0
  0
LWPOLYLINE
  5
341
330
224
100
AcDbEntity
  8
0
  6
Continuous
 62
     2
100
AcDbPolyline
 90
       11
 70
     0
 43
0.0
 10
339.2857104492
 20
18.1114274597
 10
339.0891430664
 20
17.8030924988
 10
338.8926013184
 20
17.6489282227
 10
338.6960339355
 20
17.8030924988
 10
338.4994665527
 20
18.1114274597
 10
338.4994665527
 20
18.4197592163
 10
338.6960339355
 20
18.7280941772
 10
338.8926013184
 20
18.8822616577
 10
339.0891430664
 20
18.7280941772
 10
339.2857104492
 20
18.4197592163
 10
339.2857104492
 20
18.1114274597
  0
LINE
  5
342
330
224
100
AcDbEntity
  8
0
  6
Continuous
 62
     2
100
AcDbLine
 10
340.1702380371
 20
17.6489282227
 30
0.0
 11
340.1702380371
 21
18.8822616577
 31
0.0
  0
LWPOLYLINE
  5
343
330
224
100
AcDbEntity
  8
0
  6
Continuous
 62
     2
100
AcDbPolyline
 90
        4
 70
     0
 43
0.0
 10
340.1702380371
 20
18.5739266968
 10
340.3668054199
 20
18.8822616577
 10
340.5633728027
 20
18.8822616577
 10
340.6616564941
 20
18.7280941772
  0
LWPOLYLINE
  5
344
330
224
100
AcDbEntity
  8
0
  6
Continuous
 62
     2
100
AcDbPolyline
 90
       10
 70
     0
 43
0.0
 10
344.0032250977
 20
18.1114274597
 10
343.8066577148
 20
17.8030924988
 10
343.610090332
 20
17.6489282227
 10
343.4135229492
 20
17.8030924988
 10
343.2169555664
 20
18.1114274597
 10
343.2169555664
 20
18.4197592163
 10
343.4135229492
 20
18.7280941772
 10
343.610090332
 20
18.8822616577
 10
343.8066577148
 20
18.7280941772
 10
344.0032250977
 20
18.4197592163
  0
LINE
  5
345
330
224
100
AcDbEntity
  8
0
  6
Continuous
 62
     2
100
AcDbLine
 10
344.0032250977
 20
18.8822616577
 30
0.0
 11
344.0032250977
 21
17.6489282227
 31
0.0
  0
LWPOLYLINE
  5
346
330
224
100
AcDbEntity
  8
0
  6
Continuous
 62
     2
100
AcDbPolyline
 90
        5
 70
     0
 43
0.0
 10
344.8877526855
 20
18.8822616577
 10
344.8877526855
 20
17.9572599792
 10
345.0843200684
 20
17.6489282227
 10
345.2808618164
 20
17.6489282227
 10
345.4774291992
 20
17.9572599792
  0
LINE
  5
347
330
224
100
AcDbEntity
  8
0
  6
Continuous
 62
     2
100
AcDbLine
 10
345.4774291992
 20
18.8822616577
 30
0.0
 11
345.4774291992
 21
17.6489282227
 31
0.0
  0
LINE
  5
348
330
224
100
AcDbEntity
  8
0
  6
Continuous
 62
     2
100
AcDbLine
 10
346.7550915527
 20
17.6489282227
 30
0.0
 11
346.7550915527
 21
19.4989283752
 31
0.0
  0
LINE
  5
349
330
224
100
AcDbEntity
  8
0
  6
Continuous
 62
     2
100
AcDbLine
 10
346.4602404785
 20
18.7280941772
 30
0.0
 11
347.049942627
 21
18.7280941772
 31
0.0
  0
LINE
  5
34A
330
224
100
AcDbEntity
  8
0
  6
Continuous
 62
     2
100
AcDbLine
 10
348.0327539062
 20
17.6489282227
 30
0.0
 11
348.0327539062
 21
19.4989283752
 31
0.0
  0
LWPOLYLINE
  5
34B
330
224
100
AcDbEntity
  8
0
  6
Continuous
 62
     2
100
AcDbPolyline
 90
        7
 70
     0
 43
0.0
 10
348.0327539062
 20
18.5739266968
 10
348.0327539062
 20
18.7280941772
 10
348.2293212891
 20
18.8822616577
 10
348.3275793457
 20
18.8822616577
 10
348.4258630371
 20
18.8822616577
 10
348.6224304199
 20
18.5739266968
 10
348.6224304199
 20
17.6489282227
  0
LWPOLYLINE
  5
34C
330
224
100
AcDbEntity
  8
0
  6
Continuous
 62
     2
100
AcDbPolyline
 90
       11
 70
     0
 43
0.0
 10
350.2932275391
 20
18.1114274597
 10
350.0966601562
 20
17.8030924988
 10
349.9000927734
 20
17.6489282227
 10
349.7035253906
 20
17.8030924988
 10
349.5069580078
 20
18.1114274597
 10
349.5069580078
 20
18.4197592163
 10
349.7035253906
 20
18.7280941772
 10
349.9000927734
 20
18.8822616577
 10
350.0966601562
 20
18.7280941772
 10
350.2932275391
 20
18.4197592163
 10
350.2932275391
 20
18.1114274597
  0
LINE
  5
34D
330
224
100
AcDbEntity
  8
0
  6
Continuous
 62
     2
100
AcDbLine
 10
351.177755127
 20
17.6489282227
 30
0.0
 11
351.177755127
 21
18.8822616577
 31
0.0
  0
LWPOLYLINE
  5
34E
330
224
100
AcDbEntity
  8
0
  6
Continuous
 62
     2
100
AcDbPolyline
 90
        4
 70
     0
 43
0.0
 10
351.177755127
 20
18.5739266968
 10
351.374296875
 20
18.8822616577
 10
351.5708642578
 20
18.8822616577
 10
351.6691479492
 20
18.7280941772
  0
LINE
  5
34F
330
224
100
AcDbEntity
  8
0
  6
Continuous
 62
     2
100
AcDbLine
 10
353.0450939941
 20
19.4989283752
 30
0.0
 11
353.0450939941
 21
19.3447608948
 31
0.0
  0
LINE
  5
350
330
224
100
AcDbEntity
  8
0
  6
Continuous
 62
     2
100
AcDbLine
 10
353.0450939941
 20
18.8822616577
 30
0.0
 11
353.0450939941
 21
17.6489282227
 31
0.0
  0
LWPOLYLINE
  5
351
330
224
100
AcDbEntity
  8
0
  6
Continuous
 62
     2
100
AcDbPolyline
 90
       14
 70
     0
 43
0.0
 10
354.8141491699
 20
18.7280941772
 10
354.7158654785
 20
18.8822616577
 10
354.5192980957
 20
18.8822616577
 10
354.4210400391
 20
18.7280941772
 10
354.4210400391
 20
18.5739266968
 10
354.6175817871
 20
18.4197592163
 10
354.8141491699
 20
18.2655949402
 10
354.9124328613
 20
18.1114274597
 10
354.9124328613
 20
17.9572599792
 10
354.8141491699
 20
17.8030924988
 10
354.7158654785
 20
17.6489282227
 10
354.5192980957
 20
17.6489282227
 10
354.4210400391
 20
17.8030924988
 10
354.3227563477
 20
17.9572599792
  0
LWPOLYLINE
  5
352
330
224
100
AcDbEntity
  8
0
  6
Continuous
 62
     2
100
AcDbPolyline
 90
       10
 70
     0
 43
0.0
 10
356.5832043457
 20
18.1114274597
 10
356.3866625977
 20
17.8030924988
 10
356.1900952148
 20
17.6489282227
 10
355.993527832
 20
17.8030924988
 10
355.7969604492
 20
18.1114274597
 10
355.7969604492
 20
18.4197592163
 10
355.993527832
 20
18.7280941772
 10
356.1900952148
 20
18.8822616577
 10
356.3866625977
 20
18.7280941772
 10
356.5832043457
 20
18.4197592163
  0
LINE
  5
353
330
224
100
AcDbEntity
  8
0
  6
Continuous
 62
     2
100
AcDbLine
 10
356.5832043457
 20
18.8822616577
 30
0.0
 11
356.5832043457
 21
17.6489282227
 31
0.0
  0
LINE
  5
354
330
224
100
AcDbEntity
  8
0
  6
Continuous
 62
     2
100
AcDbLine
 10
357.7625830078
 20
17.6489282227
 30
0.0
 11
357.7625830078
 21
19.4989283752
 31
0.0
  0
LINE
  5
355
330
224
100
AcDbEntity
  8
0
  6
Continuous
 62
     2
100
AcDbLine
 10
357.4677575684
 20
18.7280941772
 30
0.0
 11
358.057434082
 21
18.7280941772
 31
0.0
  0
LINE
  5
356
330
224
100
AcDbEntity
  8
0
  6
Continuous
 62
     2
100
AcDbLine
 10
359.3350964355
 20
19.4989283752
 30
0.0
 11
359.3350964355
 21
19.3447608948
 31
0.0
  0
LINE
  5
357
330
224
100
AcDbEntity
  8
0
  6
Continuous
 62
     2
100
AcDbLine
 10
359.3350964355
 20
18.8822616577
 30
0.0
 11
359.3350964355
 21
17.6489282227
 31
0.0
  0
LWPOLYLINE
  5
358
330
224
100
AcDbEntity
  8
0
  6
Continuous
 62
     2
100
AcDbPolyline
 90
       11
 70
     0
 43
0.0
 10
361.3007189941
 20
18.1114274597
 10
361.1041516113
 20
17.8030924988
 10
360.9075842285
 20
17.6489282227
 10
360.7110168457
 20
17.8030924988
 10
360.5144750977
 20
18.1114274597
 10
360.5144750977
 20
18.4197592163
 10
360.7110168457
 20
18.7280941772
 10
360.9075842285
 20
18.8822616577
 10
361.1041516113
 20
18.7280941772
 10
361.3007189941
 20
18.4197592163
 10
361.3007189941
 20
18.1114274597
  0
LINE
  5
359
330
224
100
AcDbEntity
  8
0
  6
Continuous
 62
     2
100
AcDbLine
 10
362.185246582
 20
17.6489282227
 30
0.0
 11
362.185246582
 21
18.8822616577
 31
0.0
  0
LWPOLYLINE
  5
35A
330
224
100
AcDbEntity
  8
0
  6
Continuous
 62
     2
100
AcDbPolyline
 90
        5
 70
     0
 43
0.0
 10
362.185246582
 20
18.5739266968
 10
362.3818139648
 20
18.8822616577
 10
362.5783813477
 20
18.8822616577
 10
362.7749230957
 20
18.5739266968
 10
362.7749230957
 20
17.6489282227
  0
LWPOLYLINE
  5
35B
330
224
100
AcDbEntity
  8
0
  6
Continuous
 62
     2
100
AcDbPolyline
 90
       11
 70
     0
 43
0.0
 10
366.0182080078
 20
18.1114274597
 10
365.821640625
 20
17.8030924988
 10
365.625098877
 20
17.6489282227
 10
365.4285314941
 20
17.8030924988
 10
365.2319641113
 20
18.1114274597
 10
365.2319641113
 20
18.4197592163
 10
365.4285314941
 20
18.7280941772
 10
365.625098877
 20
18.8822616577
 10
365.821640625
 20
18.7280941772
 10
366.0182080078
 20
18.4197592163
 10
366.0182080078
 20
18.1114274597
  0
LWPOLYLINE
  5
35C
330
224
100
AcDbEntity
  8
0
  6
Continuous
 62
     2
100
AcDbPolyline
 90
        5
 70
     0
 43
0.0
 10
367.1975866699
 20
17.6489282227
 10
367.1975866699
 20
19.1905934143
 10
367.3941540527
 20
19.4989283752
 10
367.4924377441
 20
19.4989283752
 10
367.5907214355
 20
19.3447608948
  0
LINE
  5
35D
330
224
100
AcDbEntity
  8
0
  6
Continuous
 62
     2
100
AcDbLine
 10
367.0010192871
 20
18.7280941772
 30
0.0
 11
367.3941540527
 21
18.7280941772
 31
0.0
  0
LWPOLYLINE
  5
35E
330
224
100
AcDbEntity
  8
0
  6
Continuous
 62
     2
100
AcDbPolyline
 90
        3
 70
     0
 43
0.0
 10
369.949453125
 20
19.4989283752
 10
369.949453125
 20
17.6489282227
 10
370.7357226563
 20
17.6489282227
  0
LWPOLYLINE
  5
35F
330
224
100
AcDbEntity
  8
0
  6
Continuous
 62
     2
100
AcDbPolyline
 90
       19
 70
     0
 43
0.0
 10
373.9790075684
 20
18.1114274597
 10
373.880723877
 20
17.9572599792
 10
373.7824401855
 20
17.8030924988
 10
373.5858728027
 20
17.6489282227
 10
373.3893054199
 20
17.6489282227
 10
373.1927380371
 20
17.8030924988
 10
373.0944543457
 20
17.9572599792
 10
373.0944543457
 20
18.2655949402
 10
373.4875891113
 20
18.7280941772
 10
373.6841564941
 20
19.0364259338
 10
373.6841564941
 20
19.3447608948
 10
373.5858728027
 20
19.4989283752
 10
373.3893054199
 20
19.4989283752
 10
373.2910217285
 20
19.3447608948
 10
373.2910217285
 20
19.0364259338
 10
373.4875891113
 20
18.7280941772
 10
373.880723877
 20
17.9572599792
 10
373.9790075684
 20
17.8030924988
 10
374.077265625
 20
17.8030924988
  0
LWPOLYLINE
  5
360
330
224
100
AcDbEntity
  8
0
  6
Continuous
 62
     2
100
AcDbPolyline
 90
        3
 70
     0
 43
0.0
 10
376.2394555664
 20
19.4989283752
 10
376.2394555664
 20
17.6489282227
 10
377.0257250977
 20
17.6489282227
  0
LWPOLYLINE
  5
361
330
224
100
AcDbEntity
  8
0
  6
Continuous
 62
     2
100
AcDbPolyline
 90
        3
 70
     0
 43
0.0
 10
379.3844567871
 20
19.4989283752
 10
379.3844567871
 20
17.6489282227
 10
380.1707263184
 20
17.6489282227
  0
LWPOLYLINE
  5
362
330
224
100
AcDbEntity
  8
0
  6
Continuous
 62
     2
100
AcDbPolyline
 90
        5
 70
     0
 43
0.0
 10
381.0552539062
 20
18.8822616577
 10
381.0552539062
 20
17.9572599792
 10
381.2518212891
 20
17.6489282227
 10
381.4483630371
 20
17.6489282227
 10
381.6449304199
 20
17.9572599792
  0
LINE
  5
363
330
224
100
AcDbEntity
  8
0
  6
Continuous
 62
     2
100
AcDbLine
 10
381.6449304199
 20
18.8822616577
 30
0.0
 11
381.6449304199
 21
17.6489282227
 31
0.0
  0
LWPOLYLINE
  5
364
330
224
100
AcDbEntity
  8
0
  6
Continuous
 62
     2
100
AcDbPolyline
 90
        8
 70
     0
 43
0.0
 10
383.1191601562
 20
17.8030924988
 10
382.9225927734
 20
17.6489282227
 10
382.7260253906
 20
17.8030924988
 10
382.5294580078
 20
18.1114274597
 10
382.5294580078
 20
18.4197592163
 10
382.7260253906
 20
18.7280941772
 10
382.9225927734
 20
18.8822616577
 10
383.1191601562
 20
18.7280941772
  0
LWPOLYLINE
  5
365
330
224
100
AcDbEntity
  8
0
  6
Continuous
 62
     2
100
AcDbPolyline
 90
       11
 70
     0
 43
0.0
 10
384.7899316406
 20
17.9572599792
 10
384.6916479492
 20
17.8030924988
 10
384.4950805664
 20
17.6489282227
 10
384.2985388184
 20
17.8030924988
 10
384.1019714355
 20
18.1114274597
 10
384.1019714355
 20
18.4197592163
 10
384.2985388184
 20
18.7280941772
 10
384.4950805664
 20
18.8822616577
 10
384.6916479492
 20
18.7280941772
 10
384.7899316406
 20
18.4197592163
 10
384.1019714355
 20
18.4197592163
  0
LWPOLYLINE
  5
366
330
224
100
AcDbEntity
  8
0
  6
Continuous
 62
     2
100
AcDbPolyline
 90
       19
 70
     0
 43
0.0
 10
388.1315002441
 20
18.1114274597
 10
388.0332165527
 20
17.9572599792
 10
387.9349328613
 20
17.8030924988
 10
387.7383654785
 20
17.6489282227
 10
387.5417980957
 20
17.6489282227
 10
387.3452563477
 20
17.8030924988
 10
387.2469726562
 20
17.9572599792
 10
387.2469726562
 20
18.2655949402
 10
387.6400817871
 20
18.7280941772
 10
387.8366491699
 20
19.0364259338
 10
387.8366491699
 20
19.3447608948
 10
387.7383654785
 20
19.4989283752
 10
387.5417980957
 20
19.4989283752
 10
387.4435400391
 20
19.3447608948
 10
387.4435400391
 20
19.0364259338
 10
387.6400817871
 20
18.7280941772
 10
388.0332165527
 20
17.9572599792
 10
388.1315002441
 20
17.8030924988
 10
388.2297839355
 20
17.8030924988
  0
LWPOLYLINE
  5
367
330
224
100
AcDbEntity
  8
0
  6
Continuous
 62
     2
100
AcDbPolyline
 90
        3
 70
     0
 43
0.0
 10
390.391973877
 20
19.4989283752
 10
390.391973877
 20
17.6489282227
 10
391.1782177734
 20
17.6489282227
  0
LINE
  5
368
330
224
100
AcDbEntity
  8
0
  6
Continuous
 62
     2
100
AcDbLine
 10
392.3575964355
 20
19.4989283752
 30
0.0
 11
392.3575964355
 21
19.3447608948
 31
0.0
  0
LINE
  5
369
330
224
100
AcDbEntity
  8
0
  6
Continuous
 62
     2
100
AcDbLine
 10
392.3575964355
 20
18.8822616577
 30
0.0
 11
392.3575964355
 21
17.6489282227
 31
0.0
  0
LWPOLYLINE
  5
36A
330
224
100
AcDbEntity
  8
0
  6
Continuous
 62
     2
100
AcDbPolyline
 90
       10
 70
     0
 43
0.0
 10
394.3232189941
 20
18.1114274597
 10
394.1266516113
 20
17.8030924988
 10
393.9300842285
 20
17.6489282227
 10
393.7335168457
 20
17.8030924988
 10
393.5369750977
 20
18.1114274597
 10
393.5369750977
 20
18.4197592163
 10
393.7335168457
 20
18.7280941772
 10
393.9300842285
 20
18.8822616577
 10
394.1266516113
 20
18.7280941772
 10
394.3232189941
 20
18.4197592163
  0
LWPOLYLINE
  5
36B
330
224
100
AcDbEntity
  8
0
  6
Continuous
 62
     2
100
AcDbPolyline
 90
        6
 70
     0
 43
0.0
 10
394.3232189941
 20
18.8822616577
 10
394.3232189941
 20
17.4947607422
 10
394.2249353027
 20
17.1864257812
 10
394.1266516113
 20
17.0322615051
 10
393.7335168457
 20
17.0322615051
 10
393.6352587891
 20
17.1864257812
  0
LINE
  5
36C
330
224
100
AcDbEntity
  8
0
  6
Continuous
 62
     2
100
AcDbLine
 10
395.207746582
 20
17.6489282227
 30
0.0
 11
395.207746582
 21
19.4989283752
 31
0.0
  0
LWPOLYLINE
  5
36D
330
224
100
AcDbEntity
  8
0
  6
Continuous
 62
     2
100
AcDbPolyline
 90
        7
 70
     0
 43
0.0
 10
395.207746582
 20
18.5739266968
 10
395.207746582
 20
18.7280941772
 10
395.4043139648
 20
18.8822616577
 10
395.5025976562
 20
18.8822616577
 10
395.6008813477
 20
18.8822616577
 10
395.7974230957
 20
18.5739266968
 10
395.7974230957
 20
17.6489282227
  0
LINE
  5
36E
330
224
100
AcDbEntity
  8
0
  6
Continuous
 62
     2
100
AcDbLine
 10
397.0750854492
 20
17.6489282227
 30
0.0
 11
397.0750854492
 21
19.4989283752
 31
0.0
  0
LINE
  5
36F
330
224
100
AcDbEntity
  8
0
  6
Continuous
 62
     2
100
AcDbLine
 10
396.780234375
 20
18.7280941772
 30
0.0
 11
397.3699365234
 21
18.7280941772
 31
0.0
  0
LWPOLYLINE
  5
370
330
224
100
AcDbEntity
  8
0
  6
Continuous
 62
     2
100
AcDbPolyline
 90
       14
 70
     0
 43
0.0
 10
400.4166540527
 20
18.7280941772
 10
400.3183703613
 20
18.8822616577
 10
400.1218029785
 20
18.8822616577
 10
400.0235192871
 20
18.7280941772
 10
400.0235192871
 20
18.5739266968
 10
400.2200866699
 20
18.4197592163
 10
400.4166540527
 20
18.2655949402
 10
400.5149377441
 20
18.1114274597
 10
400.5149377441
 20
17.9572599792
 10
400.4166540527
 20
17.8030924988
 10
400.3183703613
 20
17.6489282227
 10
400.1218029785
 20
17.6489282227
 10
400.0235192871
 20
17.8030924988
 10
399.9252355957
 20
17.9572599792
  0
LWPOLYLINE
  5
371
330
224
100
AcDbEntity
  8
0
  6
Continuous
 62
     2
100
AcDbPolyline
 90
        4
 70
     0
 43
0.0
 10
401.7926000977
 20
17.6489282227
 10
401.6943164062
 20
17.6489282227
 10
401.6943164062
 20
17.8030924988
 10
401.7926000977
 20
17.6489282227
  0
LINE
  5
372
330
224
100
AcDbEntity
  8
0
  6
Continuous
 62
     2
100
AcDbLine
 10
403.0702368164
 20
17.6489282227
 30
0.0
 11
403.0702368164
 21
18.8822616577
 31
0.0
  0
LWPOLYLINE
  5
373
330
224
100
AcDbEntity
  8
0
  6
Continuous
 62
     2
100
AcDbPolyline
 90
        4
 70
     0
 43
0.0
 10
403.0702368164
 20
18.5739266968
 10
403.2668041992
 20
18.8822616577
 10
403.463371582
 20
18.8822616577
 10
403.5616552734
 20
18.7280941772
  0
LWPOLYLINE
  5
374
330
224
100
AcDbEntity
  8
0
  6
Continuous
 62
     2
100
AcDbPolyline
 90
        4
 70
     0
 43
0.0
 10
404.9376013184
 20
17.6489282227
 10
404.839317627
 20
17.6489282227
 10
404.839317627
 20
17.8030924988
 10
404.9376013184
 20
17.6489282227
  0
LINE
  5
375
330
224
100
AcDbEntity
  8
0
  6
Continuous
 62
     2
100
AcDbLine
 10
406.5100891113
 20
17.6489282227
 30
0.0
 11
406.5100891113
 21
19.4989283752
 31
0.0
  0
LWPOLYLINE
  5
376
330
224
100
AcDbEntity
  8
0
  6
Continuous
 62
     2
100
AcDbPolyline
 90
        4
 70
     0
 43
0.0
 10
408.0826025391
 20
17.6489282227
 10
407.9843188477
 20
17.6489282227
 10
407.9843188477
 20
17.8030924988
 10
408.0826025391
 20
17.6489282227
  0
LWPOLYLINE
  5
377
330
224
100
AcDbEntity
  8
0
  6
Continuous
 62
     2
100
AcDbPolyline
 90
        5
 70
     0
 43
0.0
 10
409.655090332
 20
17.6489282227
 10
409.5568066406
 20
17.8030924988
 10
409.655090332
 20
17.8030924988
 10
409.655090332
 20
17.6489282227
 10
409.4585229492
 20
17.3405932617
  0
LINE
  5
378
330
224
100
AcDbEntity
  8
0
  6
Continuous
 62
     2
100
AcDbLine
 10
321.5950817871
 20
16.7239265442
 30
0.0
 11
321.5950817871
 21
16.5697590637
 31
0.0
  0
LINE
  5
379
330
224
100
AcDbEntity
  8
0
  6
Continuous
 62
     2
100
AcDbLine
 10
321.5950817871
 20
16.1072598267
 30
0.0
 11
321.5950817871
 21
14.8739263916
 31
0.0
  0
LINE
  5
37A
330
224
100
AcDbEntity
  8
0
  6
Continuous
 62
     2
100
AcDbLine
 10
322.8727441406
 20
14.8739263916
 30
0.0
 11
322.8727441406
 21
16.1072598267
 31
0.0
  0
LWPOLYLINE
  5
37B
330
224
100
AcDbEntity
  8
0
  6
Continuous
 62
     2
100
AcDbPolyline
 90
        5
 70
     0
 43
0.0
 10
322.8727441406
 20
15.7989280701
 10
323.0693115234
 20
16.1072598267
 10
323.2658789063
 20
16.1072598267
 10
323.4624462891
 20
15.7989280701
 10
323.4624462891
 20
14.8739263916
  0
LWPOLYLINE
  5
37C
330
224
100
AcDbEntity
  8
0
  6
Continuous
 62
     2
100
AcDbPolyline
 90
       10
 70
     0
 43
0.0
 10
326.7057055664
 20
15.3364256287
 10
326.5091638184
 20
15.0280938721
 10
326.3125964355
 20
14.8739263916
 10
326.1160290527
 20
15.0280938721
 10
325.9194616699
 20
15.3364256287
 10
325.9194616699
 20
15.6447605896
 10
326.1160290527
 20
15.9530923462
 10
326.3125964355
 20
16.1072598267
 10
326.5091638184
 20
15.9530923462
 10
326.7057055664
 20
15.6447605896
  0
LINE
  5
37D
330
224
100
AcDbEntity
  8
0
  6
Continuous
 62
     2
100
AcDbLine
 10
326.7057055664
 20
16.1072598267
 30
0.0
 11
326.7057055664
 21
14.8739263916
 31
0.0
  0
LWPOLYLINE
  5
37E
330
224
100
AcDbEntity
  8
0
  6
Continuous
 62
     2
100
AcDbPolyline
 90
        8
 70
     0
 43
0.0
 10
328.0816516113
 20
15.0280938721
 10
327.8850842285
 20
14.8739263916
 10
327.6885168457
 20
15.0280938721
 10
327.4919750977
 20
15.3364256287
 10
327.4919750977
 20
15.6447605896
 10
327.6885168457
 20
15.9530923462
 10
327.8850842285
 20
16.1072598267
 10
328.0816516113
 20
15.9530923462
  0
LWPOLYLINE
  5
37F
330
224
100
AcDbEntity
  8
0
  6
Continuous
 62
     2
100
AcDbPolyline
 90
        8
 70
     0
 43
0.0
 10
329.6541650391
 20
15.0280938721
 10
329.4575976563
 20
14.8739263916
 10
329.2610302734
 20
15.0280938721
 10
329.0644628906
 20
15.3364256287
 10
329.0644628906
 20
15.6447605896
 10
329.2610302734
 20
15.9530923462
 10
329.4575976563
 20
16.1072598267
 10
329.6541650391
 20
15.9530923462
  0
LWPOLYLINE
  5
380
330
224
100
AcDbEntity
  8
0
  6
Continuous
 62
     2
100
AcDbPolyline
 90
       11
 70
     0
 43
0.0
 10
331.4232202148
 20
15.3364256287
 10
331.226652832
 20
15.0280938721
 10
331.0300854492
 20
14.8739263916
 10
330.8335180664
 20
15.0280938721
 10
330.6369763184
 20
15.3364256287
 10
330.6369763184
 20
15.6447605896
 10
330.8335180664
 20
15.9530923462
 10
331.0300854492
 20
16.1072598267
 10
331.226652832
 20
15.9530923462
 10
331.4232202148
 20
15.6447605896
 10
331.4232202148
 20
15.3364256287
  0
LINE
  5
381
330
224
100
AcDbEntity
  8
0
  6
Continuous
 62
     2
100
AcDbLine
 10
332.3077478027
 20
14.8739263916
 30
0.0
 11
332.3077478027
 21
16.1072598267
 31
0.0
  0
LWPOLYLINE
  5
382
330
224
100
AcDbEntity
  8
0
  6
Continuous
 62
     2
100
AcDbPolyline
 90
        4
 70
     0
 43
0.0
 10
332.3077478027
 20
15.7989280701
 10
332.5043151855
 20
16.1072598267
 10
332.7008825684
 20
16.1072598267
 10
332.799140625
 20
15.9530923462
  0
LWPOLYLINE
  5
383
330
224
100
AcDbEntity
  8
0
  6
Continuous
 62
     2
100
AcDbPolyline
 90
       10
 70
     0
 43
0.0
 10
334.5682214355
 20
15.3364256287
 10
334.3716540527
 20
15.0280938721
 10
334.1750866699
 20
14.8739263916
 10
333.9785192871
 20
15.0280938721
 10
333.7819775391
 20
15.3364256287
 10
333.7819775391
 20
15.6447605896
 10
333.9785192871
 20
15.9530923462
 10
334.1750866699
 20
16.1072598267
 10
334.3716540527
 20
15.9530923462
 10
334.5682214355
 20
15.6447605896
  0
LINE
  5
384
330
224
100
AcDbEntity
  8
0
  6
Continuous
 62
     2
100
AcDbLine
 10
334.5682214355
 20
16.7239265442
 30
0.0
 11
334.5682214355
 21
14.8739263916
 31
0.0
  0
LWPOLYLINE
  5
385
330
224
100
AcDbEntity
  8
0
  6
Continuous
 62
     2
100
AcDbPolyline
 90
       10
 70
     0
 43
0.0
 10
336.1407092285
 20
15.3364256287
 10
335.9441418457
 20
15.0280938721
 10
335.7476000977
 20
14.8739263916
 10
335.5510327148
 20
15.0280938721
 10
335.354465332
 20
15.3364256287
 10
335.354465332
 20
15.6447605896
 10
335.5510327148
 20
15.9530923462
 10
335.7476000977
 20
16.1072598267
 10
335.9441418457
 20
15.9530923462
 10
336.1407092285
 20
15.6447605896
  0
LINE
  5
386
330
224
100
AcDbEntity
  8
0
  6
Continuous
 62
     2
100
AcDbLine
 10
336.1407092285
 20
16.1072598267
 30
0.0
 11
336.1407092285
 21
14.8739263916
 31
0.0
  0
LINE
  5
387
330
224
100
AcDbEntity
  8
0
  6
Continuous
 62
     2
100
AcDbLine
 10
337.0252368164
 20
14.8739263916
 30
0.0
 11
337.0252368164
 21
16.1072598267
 31
0.0
  0
LWPOLYLINE
  5
388
330
224
100
AcDbEntity
  8
0
  6
Continuous
 62
     2
100
AcDbPolyline
 90
        5
 70
     0
 43
0.0
 10
337.0252368164
 20
15.7989280701
 10
337.2218041992
 20
16.1072598267
 10
337.418371582
 20
16.1072598267
 10
337.6149389648
 20
15.7989280701
 10
337.6149389648
 20
14.8739263916
  0
LWPOLYLINE
  5
389
330
224
100
AcDbEntity
  8
0
  6
Continuous
 62
     2
100
AcDbPolyline
 90
        8
 70
     0
 43
0.0
 10
339.0891430664
 20
15.0280938721
 10
338.8926013184
 20
14.8739263916
 10
338.6960339355
 20
15.0280938721
 10
338.4994665527
 20
15.3364256287
 10
338.4994665527
 20
15.6447605896
 10
338.6960339355
 20
15.9530923462
 10
338.8926013184
 20
16.1072598267
 10
339.0891430664
 20
15.9530923462
  0
LWPOLYLINE
  5
38A
330
224
100
AcDbEntity
  8
0
  6
Continuous
 62
     2
100
AcDbPolyline
 90
       11
 70
     0
 43
0.0
 10
340.7599401855
 20
15.1822613525
 10
340.6616564941
 20
15.0280938721
 10
340.4650891113
 20
14.8739263916
 10
340.2685217285
 20
15.0280938721
 10
340.0719543457
 20
15.3364256287
 10
340.0719543457
 20
15.6447605896
 10
340.2685217285
 20
15.9530923462
 10
340.4650891113
 20
16.1072598267
 10
340.6616564941
 20
15.9530923462
 10
340.7599401855
 20
15.6447605896
 10
340.0719543457
 20
15.6447605896
  0
LWPOLYLINE
  5
38B
330
224
100
AcDbEntity
  8
0
  6
Continuous
 62
     2
100
AcDbPolyline
 90
        5
 70
     0
 43
0.0
 10
343.118671875
 20
16.1072598267
 10
343.3152392578
 20
14.8739263916
 10
343.610090332
 20
16.1072598267
 10
343.8066577148
 20
14.8739263916
 10
344.1015087891
 20
16.1072598267
  0
LINE
  5
38C
330
224
100
AcDbEntity
  8
0
  6
Continuous
 62
     2
100
AcDbLine
 10
345.182578125
 20
16.7239265442
 30
0.0
 11
345.182578125
 21
16.5697590637
 31
0.0
  0
LINE
  5
38D
330
224
100
AcDbEntity
  8
0
  6
Continuous
 62
     2
100
AcDbLine
 10
345.182578125
 20
16.1072598267
 30
0.0
 11
345.182578125
 21
14.8739263916
 31
0.0
  0
LINE
  5
38E
330
224
100
AcDbEntity
  8
0
  6
Continuous
 62
     2
100
AcDbLine
 10
346.7550915527
 20
14.8739263916
 30
0.0
 11
346.7550915527
 21
16.7239265442
 31
0.0
  0
LINE
  5
38F
330
224
100
AcDbEntity
  8
0
  6
Continuous
 62
     2
100
AcDbLine
 10
346.4602404785
 20
15.9530923462
 30
0.0
 11
347.049942627
 21
15.9530923462
 31
0.0
  0
LINE
  5
390
330
224
100
AcDbEntity
  8
0
  6
Continuous
 62
     2
100
AcDbLine
 10
348.0327539062
 20
14.8739263916
 30
0.0
 11
348.0327539062
 21
16.7239265442
 31
0.0
  0
LWPOLYLINE
  5
391
330
224
100
AcDbEntity
  8
0
  6
Continuous
 62
     2
100
AcDbPolyline
 90
        7
 70
     0
 43
0.0
 10
348.0327539062
 20
15.7989280701
 10
348.0327539062
 20
15.9530923462
 10
348.2293212891
 20
16.1072598267
 10
348.3275793457
 20
16.1072598267
 10
348.4258630371
 20
16.1072598267
 10
348.6224304199
 20
15.7989280701
 10
348.6224304199
 20
14.8739263916
  0
LINE
  5
392
330
224
100
AcDbEntity
  8
0
  6
Continuous
 62
     2
100
AcDbLine
 10
351.4725805664
 20
14.8739263916
 30
0.0
 11
351.4725805664
 21
16.7239265442
 31
0.0
  0
LINE
  5
393
330
224
100
AcDbEntity
  8
0
  6
Continuous
 62
     2
100
AcDbLine
 10
351.177755127
 20
15.9530923462
 30
0.0
 11
351.7674316406
 21
15.9530923462
 31
0.0
  0
LINE
  5
394
330
224
100
AcDbEntity
  8
0
  6
Continuous
 62
     2
100
AcDbLine
 10
352.7502429199
 20
14.8739263916
 30
0.0
 11
352.7502429199
 21
16.7239265442
 31
0.0
  0
LWPOLYLINE
  5
395
330
224
100
AcDbEntity
  8
0
  6
Continuous
 62
     2
100
AcDbPolyline
 90
        7
 70
     0
 43
0.0
 10
352.7502429199
 20
15.7989280701
 10
352.7502429199
 20
15.9530923462
 10
352.9468103027
 20
16.1072598267
 10
353.0450939941
 20
16.1072598267
 10
353.1433776855
 20
16.1072598267
 10
353.3399450684
 20
15.7989280701
 10
353.3399450684
 20
14.8739263916
  0
LWPOLYLINE
  5
396
330
224
100
AcDbEntity
  8
0
  6
Continuous
 62
     2
100
AcDbPolyline
 90
       11
 70
     0
 43
0.0
 10
354.9124328613
 20
15.1822613525
 10
354.8141491699
 20
15.0280938721
 10
354.6175817871
 20
14.8739263916
 10
354.4210400391
 20
15.0280938721
 10
354.2244726562
 20
15.3364256287
 10
354.2244726562
 20
15.6447605896
 10
354.4210400391
 20
15.9530923462
 10
354.6175817871
 20
16.1072598267
 10
354.8141491699
 20
15.9530923462
 10
354.9124328613
 20
15.6447605896
 10
354.2244726562
 20
15.6447605896
  0
LINE
  5
397
330
224
100
AcDbEntity
  8
0
  6
Continuous
 62
     2
100
AcDbLine
 10
357.7625830078
 20
14.8739263916
 30
0.0
 11
357.7625830078
 21
16.7239265442
 31
0.0
  0
LWPOLYLINE
  5
398
330
224
100
AcDbEntity
  8
0
  6
Continuous
 62
     2
100
AcDbPolyline
 90
       10
 70
     0
 43
0.0
 10
359.7282055664
 20
15.3364256287
 10
359.5316638184
 20
15.0280938721
 10
359.3350964355
 20
14.8739263916
 10
359.1385290527
 20
15.0280938721
 10
358.9419616699
 20
15.3364256287
 10
358.9419616699
 20
15.6447605896
 10
359.1385290527
 20
15.9530923462
 10
359.3350964355
 20
16.1072598267
 10
359.5316638184
 20
15.9530923462
 10
359.7282055664
 20
15.6447605896
  0
LINE
  5
399
330
224
100
AcDbEntity
  8
0
  6
Continuous
 62
     2
100
AcDbLine
 10
359.7282055664
 20
16.1072598267
 30
0.0
 11
359.7282055664
 21
14.8739263916
 31
0.0
  0
LWPOLYLINE
  5
39A
330
224
100
AcDbEntity
  8
0
  6
Continuous
 62
     2
100
AcDbPolyline
 90
        5
 70
     0
 43
0.0
 10
360.4161914062
 20
16.1072598267
 10
360.6127587891
 20
14.8739263916
 10
360.9075842285
 20
16.1072598267
 10
361.1041516113
 20
14.8739263916
 10
361.3990026855
 20
16.1072598267
  0
LINE
  5
39B
330
224
100
AcDbEntity
  8
0
  6
Continuous
 62
     2
100
AcDbLine
 10
364.0525854492
 20
16.7239265442
 30
0.0
 11
364.0525854492
 21
16.5697590637
 31
0.0
  0
LINE
  5
39C
330
224
100
AcDbEntity
  8
0
  6
Continuous
 62
     2
100
AcDbLine
 10
364.0525854492
 20
16.1072598267
 30
0.0
 11
364.0525854492
 21
14.8739263916
 31
0.0
  0
LINE
  5
39D
330
224
100
AcDbEntity
  8
0
  6
Continuous
 62
     2
100
AcDbLine
 10
365.3302478027
 20
14.8739263916
 30
0.0
 11
365.3302478027
 21
16.1072598267
 31
0.0
  0
LWPOLYLINE
  5
39E
330
224
100
AcDbEntity
  8
0
  6
Continuous
 62
     2
100
AcDbPolyline
 90
        5
 70
     0
 43
0.0
 10
365.3302478027
 20
15.7989280701
 10
365.5268151855
 20
16.1072598267
 10
365.7233825684
 20
16.1072598267
 10
365.9199243164
 20
15.7989280701
 10
365.9199243164
 20
14.8739263916
  0
LWPOLYLINE
  5
39F
330
224
100
AcDbEntity
  8
0
  6
Continuous
 62
     2
100
AcDbPolyline
 90
        5
 70
     0
 43
0.0
 10
368.7701000977
 20
14.8739263916
 10
368.7701000977
 20
16.4155947876
 10
368.9666418457
 20
16.7239265442
 10
369.0649255371
 20
16.7239265442
 10
369.1632092285
 20
16.5697590637
  0
LINE
  5
3A0
330
224
100
AcDbEntity
  8
0
  6
Continuous
 62
     2
100
AcDbLine
 10
368.5735327148
 20
15.9530923462
 30
0.0
 11
368.9666418457
 21
15.9530923462
 31
0.0
  0
LWPOLYLINE
  5
3A1
330
224
100
AcDbEntity
  8
0
  6
Continuous
 62
     2
100
AcDbPolyline
 90
       11
 70
     0
 43
0.0
 10
370.7357226563
 20
15.3364256287
 10
370.5391552734
 20
15.0280938721
 10
370.3425878906
 20
14.8739263916
 10
370.1460205078
 20
15.0280938721
 10
369.949453125
 20
15.3364256287
 10
369.949453125
 20
15.6447605896
 10
370.1460205078
 20
15.9530923462
 10
370.3425878906
 20
16.1072598267
 10
370.5391552734
 20
15.9530923462
 10
370.7357226563
 20
15.6447605896
 10
370.7357226563
 20
15.3364256287
  0
LINE
  5
3A2
330
224
100
AcDbEntity
  8
0
  6
Continuous
 62
     2
100
AcDbLine
 10
371.6202502441
 20
14.8739263916
 30
0.0
 11
371.6202502441
 21
16.1072598267
 31
0.0
  0
LWPOLYLINE
  5
3A3
330
224
100
AcDbEntity
  8
0
  6
Continuous
 62
     2
100
AcDbPolyline
 90
        4
 70
     0
 43
0.0
 10
371.6202502441
 20
15.7989280701
 10
371.816817627
 20
16.1072598267
 10
372.013359375
 20
16.1072598267
 10
372.1116430664
 20
15.9530923462
  0
LWPOLYLINE
  5
3A4
330
224
100
AcDbEntity
  8
0
  6
Continuous
 62
     2
100
AcDbPolyline
 90
        8
 70
     0
 43
0.0
 10
373.6841564941
 20
15.0280938721
 10
373.4875891113
 20
14.8739263916
 10
373.2910217285
 20
15.0280938721
 10
373.0944543457
 20
15.3364256287
 10
373.0944543457
 20
15.6447605896
 10
373.2910217285
 20
15.9530923462
 10
373.4875891113
 20
16.1072598267
 10
373.6841564941
 20
15.9530923462
  0
LWPOLYLINE
  5
3A5
330
224
100
AcDbEntity
  8
0
  6
Continuous
 62
     2
100
AcDbPolyline
 90
       11
 70
     0
 43
0.0
 10
375.3549279785
 20
15.1822613525
 10
375.2566442871
 20
15.0280938721
 10
375.0601025391
 20
14.8739263916
 10
374.8635351563
 20
15.0280938721
 10
374.6669677734
 20
15.3364256287
 10
374.6669677734
 20
15.6447605896
 10
374.8635351563
 20
15.9530923462
 10
375.0601025391
 20
16.1072598267
 10
375.2566442871
 20
15.9530923462
 10
375.3549279785
 20
15.6447605896
 10
374.6669677734
 20
15.6447605896
  0
LWPOLYLINE
  5
3A6
330
224
100
AcDbEntity
  8
0
  6
Continuous
 62
     2
100
AcDbPolyline
 90
        4
 70
     0
 43
0.0
 10
376.632590332
 20
14.8739263916
 10
376.5343066406
 20
14.8739263916
 10
376.5343066406
 20
15.0280938721
 10
376.632590332
 20
14.8739263916
  0
LWPOLYLINE
  5
3A7
330
224
100
AcDbEntity
  8
0
  6
Continuous
 62
     2
100
AcDbPolyline
 90
        3
 70
     0
 43
0.0
 10
321.1036889648
 20
12.0989277649
 10
321.5950817871
 20
13.9489279175
 10
322.0865002441
 20
12.0989277649
  0
LINE
  5
3A8
330
224
100
AcDbEntity
  8
0
  6
Continuous
 62
     2
100
AcDbLine
 10
321.3002563477
 20
12.7155944824
 30
0.0
 11
321.8899328613
 21
12.7155944824
 31
0.0
  0
LINE
  5
3A9
330
224
100
AcDbEntity
  8
0
  6
Continuous
 62
     2
100
AcDbLine
 10
323.1675952148
 20
12.0989277649
 30
0.0
 11
323.1675952148
 21
13.9489279175
 31
0.0
  0
LINE
  5
3AA
330
224
100
AcDbEntity
  8
0
  6
Continuous
 62
     2
100
AcDbLine
 10
324.7400830078
 20
12.0989277649
 30
0.0
 11
324.7400830078
 21
13.9489279175
 31
0.0
  0
LINE
  5
3AB
330
224
100
AcDbEntity
  8
0
  6
Continuous
 62
     2
100
AcDbLine
 10
327.5902587891
 20
12.0989277649
 30
0.0
 11
327.5902587891
 21
13.3322612
 31
0.0
  0
LWPOLYLINE
  5
3AC
330
224
100
AcDbEntity
  8
0
  6
Continuous
 62
     2
100
AcDbPolyline
 90
        4
 70
     0
 43
0.0
 10
327.5902587891
 20
13.023926239
 10
327.7868005371
 20
13.3322612
 10
327.9833679199
 20
13.3322612
 10
328.0816516113
 20
13.1780937195
  0
LINE
  5
3AD
330
224
100
AcDbEntity
  8
0
  6
Continuous
 62
     2
100
AcDbLine
 10
329.4575976563
 20
13.9489279175
 30
0.0
 11
329.4575976563
 21
13.794760437
 31
0.0
  0
LINE
  5
3AE
330
224
100
AcDbEntity
  8
0
  6
Continuous
 62
     2
100
AcDbLine
 10
329.4575976563
 20
13.3322612
 30
0.0
 11
329.4575976563
 21
12.0989277649
 31
0.0
  0
LWPOLYLINE
  5
3AF
330
224
100
AcDbEntity
  8
0
  6
Continuous
 62
     2
100
AcDbPolyline
 90
       10
 70
     0
 43
0.0
 10
331.4232202148
 20
12.561427002
 10
331.226652832
 20
12.2530952454
 10
331.0300854492
 20
12.0989277649
 10
330.8335180664
 20
12.2530952454
 10
330.6369763184
 20
12.561427002
 10
330.6369763184
 20
12.8697619629
 10
330.8335180664
 20
13.1780937195
 10
331.0300854492
 20
13.3322612
 10
331.226652832
 20
13.1780937195
 10
331.4232202148
 20
12.8697619629
  0
LWPOLYLINE
  5
3B0
330
224
100
AcDbEntity
  8
0
  6
Continuous
 62
     2
100
AcDbPolyline
 90
        6
 70
     0
 43
0.0
 10
331.4232202148
 20
13.3322612
 10
331.4232202148
 20
11.9447602844
 10
331.3249365234
 20
11.6364285278
 10
331.226652832
 20
11.4822610474
 10
330.8335180664
 20
11.4822610474
 10
330.735234375
 20
11.6364285278
  0
LINE
  5
3B1
330
224
100
AcDbEntity
  8
0
  6
Continuous
 62
     2
100
AcDbLine
 10
332.3077478027
 20
12.0989277649
 30
0.0
 11
332.3077478027
 21
13.9489279175
 31
0.0
  0
LWPOLYLINE
  5
3B2
330
224
100
AcDbEntity
  8
0
  6
Continuous
 62
     2
100
AcDbPolyline
 90
        7
 70
     0
 43
0.0
 10
332.3077478027
 20
13.023926239
 10
332.3077478027
 20
13.1780937195
 10
332.5043151855
 20
13.3322612
 10
332.602598877
 20
13.3322612
 10
332.7008825684
 20
13.3322612
 10
332.8974243164
 20
13.023926239
 10
332.8974243164
 20
12.0989277649
  0
LINE
  5
3B3
330
224
100
AcDbEntity
  8
0
  6
Continuous
 62
     2
100
AcDbLine
 10
334.1750866699
 20
12.0989277649
 30
0.0
 11
334.1750866699
 21
13.9489279175
 31
0.0
  0
LINE
  5
3B4
330
224
100
AcDbEntity
  8
0
  6
Continuous
 62
     2
100
AcDbLine
 10
333.8802355957
 20
13.1780937195
 30
0.0
 11
334.4699377441
 21
13.1780937195
 31
0.0
  0
LWPOLYLINE
  5
3B5
330
224
100
AcDbEntity
  8
0
  6
Continuous
 62
     2
100
AcDbPolyline
 90
       14
 70
     0
 43
0.0
 10
335.9441418457
 20
13.1780937195
 10
335.8458837891
 20
13.3322612
 10
335.6493164062
 20
13.3322612
 10
335.5510327148
 20
13.1780937195
 10
335.5510327148
 20
13.023926239
 10
335.7476000977
 20
12.8697619629
 10
335.9441418457
 20
12.7155944824
 10
336.0424255371
 20
12.561427002
 10
336.0424255371
 20
12.4072595215
 10
335.9441418457
 20
12.2530952454
 10
335.8458837891
 20
12.0989277649
 10
335.6493164062
 20
12.0989277649
 10
335.5510327148
 20
12.2530952454
 10
335.4527490234
 20
12.4072595215
  0
LINE
  5
3B6
330
224
100
AcDbEntity
  8
0
  6
Continuous
 62
     2
100
AcDbLine
 10
338.5977502441
 20
12.0989277649
 30
0.0
 11
338.5977502441
 21
13.3322612
 31
0.0
  0
LWPOLYLINE
  5
3B7
330
224
100
AcDbEntity
  8
0
  6
Continuous
 62
     2
100
AcDbPolyline
 90
        4
 70
     0
 43
0.0
 10
338.5977502441
 20
13.023926239
 10
338.794317627
 20
13.3322612
 10
338.990859375
 20
13.3322612
 10
339.0891430664
 20
13.1780937195
  0
LWPOLYLINE
  5
3B8
330
224
100
AcDbEntity
  8
0
  6
Continuous
 62
     2
100
AcDbPolyline
 90
       11
 70
     0
 43
0.0
 10
340.7599401855
 20
12.4072595215
 10
340.6616564941
 20
12.2530952454
 10
340.4650891113
 20
12.0989277649
 10
340.2685217285
 20
12.2530952454
 10
340.0719543457
 20
12.561427002
 10
340.0719543457
 20
12.8697619629
 10
340.2685217285
 20
13.1780937195
 10
340.4650891113
 20
13.3322612
 10
340.6616564941
 20
13.1780937195
 10
340.7599401855
 20
12.8697619629
 10
340.0719543457
 20
12.8697619629
  0
LWPOLYLINE
  5
3B9
330
224
100
AcDbEntity
  8
0
  6
Continuous
 62
     2
100
AcDbPolyline
 90
       14
 70
     0
 43
0.0
 10
342.2341442871
 20
13.1780937195
 10
342.1358605957
 20
13.3322612
 10
341.9393188477
 20
13.3322612
 10
341.8410351562
 20
13.1780937195
 10
341.8410351562
 20
13.023926239
 10
342.0376025391
 20
12.8697619629
 10
342.2341442871
 20
12.7155944824
 10
342.3324279785
 20
12.561427002
 10
342.3324279785
 20
12.4072595215
 10
342.2341442871
 20
12.2530952454
 10
342.1358605957
 20
12.0989277649
 10
341.9393188477
 20
12.0989277649
 10
341.8410351562
 20
12.2530952454
 10
341.7427514648
 20
12.4072595215
  0
LWPOLYLINE
  5
3BA
330
224
100
AcDbEntity
  8
0
  6
Continuous
 62
     2
100
AcDbPolyline
 90
       11
 70
     0
 43
0.0
 10
343.9049414062
 20
12.4072595215
 10
343.8066577148
 20
12.2530952454
 10
343.610090332
 20
12.0989277649
 10
343.4135229492
 20
12.2530952454
 10
343.2169555664
 20
12.561427002
 10
343.2169555664
 20
12.8697619629
 10
343.4135229492
 20
13.1780937195
 10
343.610090332
 20
13.3322612
 10
343.8066577148
 20
13.1780937195
 10
343.9049414062
 20
12.8697619629
 10
343.2169555664
 20
12.8697619629
  0
LINE
  5
3BB
330
224
100
AcDbEntity
  8
0
  6
Continuous
 62
     2
100
AcDbLine
 10
344.8877526855
 20
12.0989277649
 30
0.0
 11
344.8877526855
 21
13.3322612
 31
0.0
  0
LWPOLYLINE
  5
3BC
330
224
100
AcDbEntity
  8
0
  6
Continuous
 62
     2
100
AcDbPolyline
 90
        4
 70
     0
 43
0.0
 10
344.8877526855
 20
13.023926239
 10
345.0843200684
 20
13.3322612
 10
345.2808618164
 20
13.3322612
 10
345.3791455078
 20
13.1780937195
  0
LWPOLYLINE
  5
3BD
330
224
100
AcDbEntity
  8
0
  6
Continuous
 62
     2
100
AcDbPolyline
 90
        3
 70
     0
 43
0.0
 10
346.4602404785
 20
13.3322612
 10
346.7550915527
 20
12.0989277649
 10
347.049942627
 20
13.3322612
  0
LWPOLYLINE
  5
3BE
330
224
100
AcDbEntity
  8
0
  6
Continuous
 62
     2
100
AcDbPolyline
 90
       11
 70
     0
 43
0.0
 10
348.6224304199
 20
12.4072595215
 10
348.5241467285
 20
12.2530952454
 10
348.3275793457
 20
12.0989277649
 10
348.1310375977
 20
12.2530952454
 10
347.9344702148
 20
12.561427002
 10
347.9344702148
 20
12.8697619629
 10
348.1310375977
 20
13.1780937195
 10
348.3275793457
 20
13.3322612
 10
348.5241467285
 20
13.1780937195
 10
348.6224304199
 20
12.8697619629
 10
347.9344702148
 20
12.8697619629
  0
LWPOLYLINE
  5
3BF
330
224
100
AcDbEntity
  8
0
  6
Continuous
 62
     2
100
AcDbPolyline
 90
       10
 70
     0
 43
0.0
 10
350.2932275391
 20
12.561427002
 10
350.0966601562
 20
12.2530952454
 10
349.9000927734
 20
12.0989277649
 10
349.7035253906
 20
12.2530952454
 10
349.5069580078
 20
12.561427002
 10
349.5069580078
 20
12.8697619629
 10
349.7035253906
 20
13.1780937195
 10
349.9000927734
 20
13.3322612
 10
350.0966601562
 20
13.1780937195
 10
350.2932275391
 20
12.8697619629
  0
LINE
  5
3C0
330
224
100
AcDbEntity
  8
0
  6
Continuous
 62
     2
100
AcDbLine
 10
350.2932275391
 20
13.9489279175
 30
0.0
 11
350.2932275391
 21
12.0989277649
 31
0.0
  0
LWPOLYLINE
  5
3C1
330
224
100
AcDbEntity
  8
0
  6
Continuous
 62
     2
100
AcDbPolyline
 90
        4
 70
     0
 43
0.0
 10
351.4725805664
 20
12.0989277649
 10
351.374296875
 20
12.0989277649
 10
351.374296875
 20
12.2530952454
 10
351.4725805664
 20
12.0989277649
  0
ACAD_TABLE
  5
3C2
330
224
100
AcDbEntity
  8
0
  6
Continuous
 62
     2
 92
     1136
310
700400000E000000880000001D000000000000000000F03F00000000000000000000000000000000D937513524F573400000000000000000000000000000F03F00000000000000008357C90A1083494000000000000000000000000000000000000000000000F03F0000000000000000000000000000000000000000000000
310
000000000000000000000000000000F03F54000000200000000200000000000000000000000000000000000000000000000000000000000000008056400000000000000000000000000000000000000000000000000000000000000000000000000000F03F5400000020000000020000000000000000000000000000000000
310
00000000000000000000000000000000000000000000000044C0000000000000000000000000000000000000000000000000000000000000F03F5400000020000000020000000000000000003E4000000000000018C00000000000000000000000000080564000000000000018C00000000000000000000000000000000000
310
00000000000000000000000000F03F5400000020000000020000000000000000003E4000000000000028C00000000000000000000000000080564000000000000028C0000000000000000000000000000000000000000000000000000000000000F03F5400000020000000020000000000000000003E4000000000000036C0
310
0000000000000000000000000080564000000000000036C0000000000000000000000000000000000000000000000000000000000000F03F54000000200000000200000000000000000000000000000000003BC0000000000000000000000000008056400000000000003BC000000000000000000000000000000000000000
310
0000000000000000000000F03F540000002000000002000000000000000000000000000000000044C00000000000000000000000000080564000000000000044C0000000000000000000000000000000000000000000000000000000000000F03F5400000020000000020000000000000000003E4000000000000000000000
310
0000000000000000000000003E400000000000003BC0000000000000000000000000000000000000000000000000000000000000F03F540000002000000002000000000000000080514000000000000000000000000000000000000000000080514000000000000028C0000000000000000000000000000000000000000000
310
000000000000000000F03F540000002000000002000000000000000080564000000000000000000000000000000000000000000080564000000000000044C0000000000000000000000000000000000000000000000000000000000000F03F080000001F000000880000001D000000000000000000F03F0000000000000000
310
000000000000000000000000000000000000000000000000000000000000F03F0000000000000000000000000000000000000000000000000000000000000000000000000000F03F0000000000000000000000000000000000000000000000000000000000000000000000000000F03F080000001F000000
100
AcDbBlockReference
  2
*T5
 10
319.3213399098
 20
51.0239270671
 30
0.0
100
AcDbTable
342
5B6
343
22B
 11
1.0
 21
0.0
 31
0.0
 90
       54
 91
        5
 92
        5
 93
        0
 94
        0
 95
        0
 96
        0
141
6.0
141
6.0
141
10.0
141
5.0
141
13.0
142
10.0
142
10.0
142
10.0
142
40.0
142
20.0
171
     1
172
     0
173
     0
174
     0
175
     3
176
     4
 91
        1
178
     0
145
0.0
170
     5
 92
        0
301
CELL_VALUE
 93
        3
 90
        0
 91
        0
 94
        0
300

302

304
ACVALUE_END
171
     1
172
     0
173
     1
174
     0
175
     1
176
     1
 91
        0
178
     0
145
0.0
 92
        0
301
CELL_VALUE
 93
        3
 90
        0
 91
        0
 94
        0
300

302

304
ACVALUE_END
171
     1
172
     0
173
     1
174
     0
175
     1
176
     1
 91
        0
178
     0
145
0.0
 92
        0
301
CELL_VALUE
 93
        3
 90
        0
 91
        0
 94
        0
300

302

304
ACVALUE_END
171
     1
172
     0
173
     0
174
     0
175
     1
176
     1
 91
       33
178
     0
145
0.0
170
     4
140
3.0
 92
        0
301
CELL_VALUE
 93
        4
 90
        4
  1
{\Ftxt.shx;\W6.928571;\H3.000000; }
 94
        0
300

302
{\Ftxt.shx;\W6.928571;\H3.000000; }
304
ACVALUE_END
171
     1
172
     0
173
     0
174
     0
175
     1
176
     1
 91
       32
178
     0
145
0.0
140
3.5
 92
        0
301
CELL_VALUE
 93
        4
 90
        4
  1
{\Ftxt.shx;\W3.400000;\H3.500000; }{\Ftxt.shx;\W1.700000;\H3.500000; }
 94
        0
300

302
{\Ftxt.shx;\W3.400000;\H3.500000; }{\Ftxt.shx;\W1.700000;\H3.500000; }
304
ACVALUE_END
171
     1
172
     0
173
     1
174
     0
175
     1
176
     1
 91
        0
178
     0
145
0.0
 92
        0
301
CELL_VALUE
 93
        3
 90
        0
 91
        0
 94
        0
300

302

304
ACVALUE_END
171
     1
172
     0
173
     1
174
     0
175
     1
176
     1
 91
        0
178
     0
145
0.0
 92
        0
301
CELL_VALUE
 93
        3
 90
        0
 91
        0
 94
        0
300

302

304
ACVALUE_END
171
     1
172
     0
173
     1
174
     0
175
     1
176
     1
 91
        0
178
     0
145
0.0
 92
        0
301
CELL_VALUE
 93
        3
 90
        0
 91
        0
 94
        0
300

302

304
ACVALUE_END
171
     1
172
     0
173
     0
174
     0
175
     1
176
     1
 91
       32
178
     0
145
0.0
140
3.5
 92
        0
301
CELL_VALUE
 93
        4
 90
        4
  1
{\Ftxt.shx;\W3.714286;\H3.500000; }{\Ftxt.shx;\W1.500000;\H3.500000; }
 94
        0
300

302
{\Ftxt.shx;\W3.714286;\H3.500000; }{\Ftxt.shx;\W1.500000;\H3.500000; }
304
ACVALUE_END
171
     1
172
     0
173
     0
174
     0
175
     1
176
     1
 91
       33
178
     0
145
0.0
170
     4
140
3.5
 92
        0
301
CELL_VALUE
 93
        4
 90
        4
  1
{\Ftxt.shx;\W1.571429;\H3.500000; }
 94
        0
300

302
{\Ftxt.shx;\W1.571429;\H3.500000; }
304
ACVALUE_END
171
     1
172
     0
173
     1
174
     0
175
     1
176
     1
 91
        0
178
     0
145
0.0
 92
        0
301
CELL_VALUE
 93
        3
 90
        0
 91
        0
 94
        0
300

302

304
ACVALUE_END
171
     1
172
     0
173
     1
174
     0
175
     1
176
     1
 91
        0
178
     0
145
0.0
 92
        0
301
CELL_VALUE
 93
        3
 90
        0
 91
        0
 94
        0
300

302

304
ACVALUE_END
171
     1
172
     0
173
     1
174
     0
175
     1
176
     1
 91
        0
178
     0
145
0.0
 92
        0
301
CELL_VALUE
 93
        3
 90
        0
 91
        0
 94
        0
300

302

304
ACVALUE_END
171
     1
172
     0
173
     0
174
     0
175
     2
176
     1
 91
       33
178
     0
145
0.0
170
     4
140
3.5
 92
        0
301
CELL_VALUE
 93
        4
 90
        4
  1
{\Ftxt.shx;\W7.619048;\H3.500000; }
 94
        0
300

302
{\Ftxt.shx;\W7.619048;\H3.500000; }
304
ACVALUE_END
171
     1
172
     0
173
     1
174
     0
175
     1
176
     1
 91
        0
178
     0
145
0.0
 92
        0
301
CELL_VALUE
 93
        3
 90
        0
 91
        0
 94
        0
300

302

304
ACVALUE_END
171
     1
172
     0
173
     1
174
     0
175
     1
176
     1
 91
        0
178
     0
145
0.0
 92
        0
301
CELL_VALUE
 93
        3
 90
        0
 91
        0
 94
        0
300

302

304
ACVALUE_END
171
     1
172
     0
173
     1
174
     0
175
     1
176
     1
 91
        0
178
     0
145
0.0
 92
        0
301
CELL_VALUE
 93
        3
 90
        0
 91
        0
 94
        0
300

302

304
ACVALUE_END
171
     1
172
     0
173
     1
174
     0
175
     1
176
     1
 91
        0
178
     0
145
0.0
 92
        0
301
CELL_VALUE
 93
        3
 90
        0
 91
        0
 94
        0
300

302

304
ACVALUE_END
171
     1
172
     0
173
     0
174
     0
175
     2
176
     1
 91
       33
178
     0
145
0.0
170
     4
140
2.5
 92
        0
301
CELL_VALUE
 93
        4
 90
        4
  1
{\Ftxt.shx;\W3.690476;\H2.500000; }{\Ftxt.shx;\W7.523810;\H2.500000; }
 94
        0
300

302
{\Ftxt.shx;\W3.690476;\H2.500000; }{\Ftxt.shx;\W7.523810;\H2.500000; }
304
ACVALUE_END
171
     1
172
     0
173
     1
174
     0
175
     1
176
     1
 91
        0
178
     0
145
0.0
 92
        0
301
CELL_VALUE
 93
        3
 90
        0
 91
        0
 94
        0
300

302

304
ACVALUE_END
171
     1
172
     0
173
     0
174
     0
175
     5
176
     1
 91
       32
178
     0
145
0.0
140
1.85
 92
        0
301
CELL_VALUE
 93
        4
 90
        4
  1
{\Ftxt.shx;\W45.050000;\H1.850000; }\P{\Ftxt.shx;\W28.050000;\H1.850000; }{\Ftxt.shx;\W7.650000;\H1.850000; }{\Ftxt.shx;\W13.600000;\H1.850000; }\P{\Ftxt.shx;\W31.450000;\H1.850000; }\P{\Ftxt.shx;\W17.000000;\H1.850000; }
 94
        0
300

302
{\Ftxt.shx;\W45.050000;\H1.850000; }\P{\Ftxt.shx;\W28.050000;\H1.850000; }{\Ftxt.shx;\W7.650000;\H1.850000; }{\Ftxt.shx;\W13.600000;\H1.850000; }\P{\Ftxt.shx;\W31.450000;\H1.850000; }\P{\Ftxt.shx;\W17.000000;\H1.850000; }
304
ACVALUE_END
171
     1
172
     0
173
     1
174
     0
175
     1
176
     1
 91
        0
178
     0
145
0.0
 92
        0
301
CELL_VALUE
 93
        3
 90
        0
 91
        0
 94
        0
300

302

304
ACVALUE_END
171
     1
172
     0
173
     1
174
     0
175
     1
176
     1
 91
        0
178
     0
145
0.0
 92
        0
301
CELL_VALUE
 93
        3
 90
        0
 91
        0
 94
        0
300

302

304
ACVALUE_END
171
     1
172
     0
173
     1
174
     0
175
     1
176
     1
 91
        0
178
     0
145
0.0
 92
        0
301
CELL_VALUE
 93
        3
 90
        0
 91
        0
 94
        0
300

302

304
ACVALUE_END
171
     1
172
     0
173
     1
174
     0
175
     1
176
     1
 91
        0
178
     0
145
0.0
 92
        0
301
CELL_VALUE
 93
        3
 90
        0
 91
        0
 94
        0
300

302

304
ACVALUE_END
  0
LINE
  5
3C3
330
224
100
AcDbEntity
  8
0
  6
Continuous
 62
     7
100
AcDbLine
 10
0.0
 20
0.0
 30
0.0
 11
0.0
 21
297.0
 31
0.0
  0
LWPOLYLINE
  5
3C4
330
224
100
AcDbEntity
  8
0
  6
Continuous
 62
     7
100
AcDbPolyline
 90
        2
 70
     0
 43
0.1000000003
 10
7.0536312849
 20
0.0
 10
7.0536312849
 20
297.0
  0
LWPOLYLINE
  5
3C5
330
224
100
AcDbEntity
  8
0
  6
Continuous
 62
     7
100
AcDbPolyline
 90
        2
 70
     0
 43
0.4999999952
 10
10.0536312849
 20
10.0318435754
 10
10.0536312849
 20
287.0
  0
LWPOLYLINE
  5
3C6
330
224
100
AcDbEntity
  8
0
  6
Continuous
 62
     2
100
AcDbPolyline
 90
        5
 70
     0
 43
0.0
 10
2.7895792007
 20
251.8807543945
 10
3.2657698059
 20
252.1664538574
 10
3.2657698059
 20
253.0236035156
 10
2.7895792007
 20
253.5950280762
 10
1.6467220688
 20
253.5950280762
  0
LINE
  5
3C7
330
224
100
AcDbEntity
  8
0
  6
Continuous
 62
     7
100
AcDbLine
 10
0.0
 20
0.0
 30
0.0
 11
420.0
 21
0.0
 31
0.0
  0
LINE
  5
3C8
330
224
100
AcDbEntity
  8
0
  6
Continuous
 62
     2
100
AcDbLine
 10
363.2799023437
 20
2.6920935059
 30
0.0
 11
364.6298803711
 21
2.6920935059
 31
0.0
  0
LINE
  5
3C9
330
224
100
AcDbEntity
  8
0
  6
Continuous
 62
     2
100
AcDbLine
 10
262.8298937988
 20
3.6920928955
 30
0.0
 11
264.4048937988
 21
3.6920928955
 31
0.0
  0
LWPOLYLINE
  5
3CA
330
224
100
AcDbEntity
  8
0
  6
Continuous
 62
     2
100
AcDbPolyline
 90
       12
 70
     0
 43
0.0
 10
56.6978659058
 20
5.535344696
 10
57.5978704834
 20
5.535344696
 10
58.0478695679
 20
5.2020094299
 10
58.2728659058
 20
4.8686773682
 10
58.4978686523
 20
4.5353453064
 10
58.7228713989
 20
3.5353427124
 10
58.4978686523
 20
2.5353433228
 10
58.2728659058
 20
2.202011261
 10
58.0478695679
 20
1.8686759949
 10
57.5978704834
 20
1.5353439331
 10
56.6978659058
 20
1.5353439331
 10
56.6978659058
 20
5.535344696
  0
LWPOLYLINE
  5
3CB
330
224
100
AcDbEntity
  8
0
  6
Continuous
 62
     7
100
AcDbPolyline
 90
        2
 70
     0
 43
0.1000000003
 10
0.0
 20
7.0318435754
 10
420.0
 20
7.0318435754
  0
LWPOLYLINE
  5
3CC
330
224
100
AcDbEntity
  8
0
  6
Continuous
 62
     7
100
AcDbPolyline
 90
        2
 70
     0
 43
0.4999999952
 10
10.0536312849
 20
10.0318435754
 10
410.0
 20
10.0318435754
  0
LWPOLYLINE
  5
3CD
330
224
100
AcDbEntity
  8
0
  6
Continuous
 62
     2
100
AcDbPolyline
 90
       15
 70
     0
 43
0.0
 10
164.8548962402
 20
292.0254382324
 10
164.629887085
 20
291.6920837402
 10
164.1798944092
 20
291.3587548828
 10
163.729888916
 20
291.3587548828
 10
163.2798962402
 20
291.6920837402
 10
163.054887085
 20
292.0254382324
 10
162.8298907471
 20
292.3587670898
 10
162.6048944092
 20
293.3587536621
 10
162.8298907471
 20
294.3587658691
 10
163.054887085
 20
294.6920947266
 10
163.2798962402
 20
295.025423584
 10
163.729888916
 20
295.3587524414
 10
164.1798944092
 20
295.3587524414
 10
164.629887085
 20
295.025423584
 10
164.8548962402
 20
294.6920947266
  0
LINE
  5
3CE
330
224
100
AcDbEntity
  8
0
  6
Continuous
 62
     7
100
AcDbLine
 10
113.0
 20
297.0
 30
0.0
 11
113.0
 21
290.0
 31
0.0
  0
LINE
  5
3CF
330
224
100
AcDbEntity
  8
0
  6
Continuous
 62
     7
100
AcDbLine
 10
113.0
 20
7.0
 30
0.0
 11
113.0
 21
0.0
 31
0.0
  0
LWPOLYLINE
  5
3D0
330
224
100
AcDbEntity
  8
0
  6
Continuous
 62
     7
100
AcDbPolyline
 90
        2
 70
     0
 43
0.1000000003
 10
123.0
 20
10.0
 10
123.0
 20
0.0
  0
LWPOLYLINE
  5
3D1
330
224
100
AcDbEntity
  8
0
  6
Continuous
 62
     7
100
AcDbPolyline
 90
        2
 70
     0
 43
0.1000000003
 10
123.0
 20
287.0
 10
123.0
 20
297.0
  0
LWPOLYLINE
  5
3D2
330
224
100
AcDbEntity
  8
0
  6
Continuous
 62
     2
100
AcDbPolyline
 90
        3
 70
     0
 43
0.0
 10
1.6467220688
 20
52.4521728516
 10
2.7895792007
 20
53.5950283813
 10
2.7895792007
 20
49.5950244141
  0
LINE
  5
3D3
330
224
100
AcDbEntity
  8
0
  6
Continuous
 62
     7
100
AcDbLine
 10
0.0
 20
99.9681564246
 30
0.0
 11
7.0
 21
99.9681564246
 31
0.0
  0
LWPOLYLINE
  5
3D4
330
224
100
AcDbEntity
  8
0
  6
Continuous
 62
     2
100
AcDbPolyline
 90
        9
 70
     0
 43
0.0
 10
56.2378820801
 20
295.2461645508
 10
56.6878811646
 20
294.5794812012
 10
56.9128839111
 20
293.5794946289
 10
56.6878811646
 20
292.5794824219
 10
56.4628848267
 20
292.2461535645
 10
56.2378820801
 20
291.912824707
 10
55.7878829956
 20
291.5794958496
 10
54.8878848267
 20
291.5794958496
 10
54.8878848267
 20
295.5794934082
  0
LINE
  5
3D5
330
224
100
AcDbEntity
  8
0
  6
Continuous
 62
     7
100
AcDbLine
 10
413.0
 20
107.0
 30
0.0
 11
420.0
 21
107.0
 31
0.0
  0
LWPOLYLINE
  5
3D6
330
224
100
AcDbEntity
  8
0
  6
Continuous
 62
     7
100
AcDbPolyline
 90
        2
 70
     0
 43
0.1000000003
 10
210.0
 20
10.0
 10
210.0
 20
0.0
  0
LWPOLYLINE
  5
3D7
330
224
100
AcDbEntity
  8
0
  6
Continuous
 62
     7
100
AcDbPolyline
 90
        2
 70
     0
 43
0.1000000003
 10
210.0
 20
287.0
 10
210.0
 20
297.0
  0
LWPOLYLINE
  5
3D8
330
224
100
AcDbEntity
  8
0
  6
Continuous
 62
     7
100
AcDbPolyline
 90
        2
 70
     0
 43
0.1000000003
 10
10.0
 20
148.5
 10
0.0
 20
148.5
  0
LWPOLYLINE
  5
3D9
330
224
100
AcDbEntity
  8
0
  6
Continuous
 62
     7
100
AcDbPolyline
 90
        2
 70
     0
 43
0.1000000003
 10
410.0
 20
148.5
 10
420.0
 20
148.5
  0
LWPOLYLINE
  5
3DA
330
224
100
AcDbEntity
  8
0
  6
Continuous
 62
     2
100
AcDbPolyline
 90
        7
 70
     0
 43
0.0
 10
3.6467220497
 20
149.5950274658
 10
1.6467220688
 20
149.5950274658
 10
3.6467220497
 20
152.4521759033
 10
3.6467220497
 20
153.0236004639
 10
3.0752934837
 20
153.5950250244
 10
2.2181506348
 20
153.5950250244
 10
1.6467220688
 20
152.7378881836
  0
LWPOLYLINE
  5
3DB
330
224
100
AcDbEntity
  8
0
  6
Continuous
 62
     2
100
AcDbPolyline
 90
        5
 70
     0
 43
0.0
 10
415.7895666504
 20
258.9125756836
 10
416.2657580566
 20
259.1983007812
 10
416.2657580566
 20
260.0554504395
 10
415.7895666504
 20
260.626875
 10
414.6467175293
 20
260.626875
  0
LWPOLYLINE
  5
3DC
330
224
100
AcDbEntity
  8
0
  6
Continuous
 62
     2
100
AcDbPolyline
 90
        7
 70
     0
 43
0.0
 10
416.6467163086
 20
156.6268743896
 10
414.6467175293
 20
156.6268743896
 10
416.6467163086
 20
159.4840100098
 10
416.6467163086
 20
160.0554473877
 10
416.075291748
 20
160.6268719482
 10
415.2181420898
 20
160.6268719482
 10
414.6467175293
 20
159.76972229
  0
LWPOLYLINE
  5
3DD
330
224
100
AcDbEntity
  8
0
  6
Continuous
 62
     2
100
AcDbPolyline
 90
       15
 70
     0
 43
0.0
 10
164.8548962402
 20
2.025426178
 10
164.629887085
 20
1.6920941162
 10
164.1798944092
 20
1.3587588501
 10
163.729888916
 20
1.3587588501
 10
163.2798962402
 20
1.6920941162
 10
163.054887085
 20
2.025426178
 10
162.8298907471
 20
2.3587614441
 10
162.6048944092
 20
3.3587608337
 10
162.8298907471
 20
4.3587602234
 10
163.054887085
 20
4.6920922852
 10
163.2798962402
 20
5.0254275513
 10
163.729888916
 20
5.358759613
 10
164.1798944092
 20
5.358759613
 10
164.629887085
 20
5.0254275513
 10
164.8548962402
 20
4.6920922852
  0
LWPOLYLINE
  5
3DE
330
224
100
AcDbEntity
  8
0
  6
Continuous
 62
     2
100
AcDbPolyline
 90
        6
 70
     0
 43
0.0
 10
262.8298937988
 20
295.3587524414
 10
262.8298937988
 20
291.3587548828
 10
264.4048937988
 20
291.3587548828
 10
264.6298901367
 20
291.6920837402
 10
264.8548864746
 20
292.0254382324
 10
264.8548864746
 20
293.0254248047
  0
LWPOLYLINE
  5
3DF
330
224
100
AcDbEntity
  8
0
  6
Continuous
 62
     2
100
AcDbPolyline
 90
       12
 70
     0
 43
0.0
 10
262.8298937988
 20
5.358759613
 10
262.8298937988
 20
1.3587588501
 10
264.4048937988
 20
1.3587588501
 10
264.6298901367
 20
1.6920941162
 10
264.8548864746
 20
2.025426178
 10
264.8548864746
 20
3.0254255676
 10
264.6298901367
 20
3.3587608337
 10
264.4048937988
 20
3.6920928955
 10
264.6298901367
 20
4.0254281616
 10
264.6298901367
 20
5.0254275513
 10
264.4048937988
 20
5.358759613
 10
262.8298937988
 20
5.358759613
  0
LINE
  5
3E0
330
224
100
AcDbEntity
  8
0
  6
Continuous
 62
     7
100
AcDbLine
 10
0.0
 20
199.9681564246
 30
0.0
 11
7.0
 21
199.9681564246
 31
0.0
  0
LWPOLYLINE
  5
3E1
330
224
100
AcDbEntity
  8
0
  6
Continuous
 62
     7
100
AcDbPolyline
 90
        2
 70
     0
 43
0.1000000003
 10
10.0
 20
202.9681564246
 10
0.0
 20
202.9681564246
  0
LWPOLYLINE
  5
3E2
330
224
100
AcDbEntity
  8
0
  6
Continuous
 62
     7
100
AcDbPolyline
 90
        2
 70
     0
 43
0.1000000003
 10
410.0
 20
210.0
 10
420.0
 20
210.0
  0
LINE
  5
3E3
330
224
100
AcDbEntity
  8
0
  6
Continuous
 62
     7
100
AcDbLine
 10
313.0
 20
297.0
 30
0.0
 11
313.0
 21
290.0
 31
0.0
  0
LINE
  5
3E4
330
224
100
AcDbEntity
  8
0
  6
Continuous
 62
     7
100
AcDbLine
 10
313.0
 20
7.0
 30
0.0
 11
313.0
 21
0.0
 31
0.0
  0
LWPOLYLINE
  5
3E5
330
224
100
AcDbEntity
  8
0
  6
Continuous
 62
     2
100
AcDbPolyline
 90
        6
 70
     0
 43
0.0
 10
1.6467220688
 20
249.5950305176
 10
3.0752934837
 20
249.5950305176
 10
3.3610077667
 20
249.8807299805
 10
3.3610077667
 20
251.3093041992
 10
2.7895792007
 20
251.8807543945
 10
2.2181506348
 20
251.8807543945
  0
LWPOLYLINE
  5
3E6
330
224
100
AcDbEntity
  8
0
  6
Continuous
 62
     2
100
AcDbPolyline
 90
        3
 70
     0
 43
0.0
 10
362.8298840332
 20
291.3587548828
 10
363.9548913574
 20
295.3587524414
 10
365.0798986816
 20
291.3587548828
  0
LWPOLYLINE
  5
3E7
330
224
100
AcDbEntity
  8
0
  6
Continuous
 62
     2
100
AcDbPolyline
 90
        6
 70
     0
 43
0.0
 10
414.6467175293
 20
256.6268774414
 10
416.075291748
 20
256.6268774414
 10
416.3610168457
 20
256.9125769043
 10
416.3610168457
 20
258.341151123
 10
415.7895666504
 20
258.9125756836
 10
415.2181420898
 20
258.9125756836
  0
LWPOLYLINE
  5
3E8
330
224
100
AcDbEntity
  8
0
  6
Continuous
 62
     2
100
AcDbPolyline
 90
        6
 70
     0
 43
0.0
 10
264.8548864746
 20
293.0254248047
 10
264.4048937988
 20
293.6920825195
 10
264.6298901367
 20
294.0254370117
 10
264.6298901367
 20
295.025423584
 10
264.4048937988
 20
295.3587524414
 10
262.8298937988
 20
295.3587524414
  0
LWPOLYLINE
  5
3E9
330
224
100
AcDbEntity
  8
0
  6
Continuous
 62
     7
100
AcDbPolyline
 90
        2
 70
     0
 43
0.4999999952
 10
10.0536312849
 20
287.0
 10
410.0
 20
287.0
  0
LWPOLYLINE
  5
3EA
330
224
100
AcDbEntity
  8
0
  6
Continuous
 62
     7
100
AcDbPolyline
 90
        2
 70
     0
 43
0.1000000003
 10
0.0
 20
290.0
 10
420.0
 20
290.0
  0
LINE
  5
3EB
330
224
100
AcDbEntity
  8
0
  6
Continuous
 62
     2
100
AcDbLine
 10
363.2799023437
 20
292.6920959473
 30
0.0
 11
364.6298803711
 21
292.6920959473
 31
0.0
  0
LINE
  5
3EC
330
224
100
AcDbEntity
  8
0
  6
Continuous
 62
     2
100
AcDbLine
 10
262.8298937988
 20
293.6920825195
 30
0.0
 11
264.4048937988
 21
293.6920825195
 31
0.0
  0
LWPOLYLINE
  5
3ED
330
224
100
AcDbEntity
  8
0
  6
Continuous
 62
     2
100
AcDbPolyline
 90
        3
 70
     0
 43
0.0
 10
54.8878848267
 20
295.5794934082
 10
55.7878829956
 20
295.5794934082
 10
56.2378820801
 20
295.2461645508
  0
LINE
  5
3EE
330
224
100
AcDbEntity
  8
0
  6
Continuous
 62
     7
100
AcDbLine
 10
0.0
 20
297.0
 30
0.0
 11
420.0
 21
297.0
 31
0.0
  0
LWPOLYLINE
  5
3EF
330
224
100
AcDbEntity
  8
0
  6
Continuous
 62
     2
100
AcDbPolyline
 90
        3
 70
     0
 43
0.0
 10
362.8298840332
 20
1.3587588501
 10
363.9548913574
 20
5.358759613
 10
365.0798986816
 20
1.3587588501
  0
LWPOLYLINE
  5
3F0
330
224
100
AcDbEntity
  8
0
  6
Continuous
 62
     7
100
AcDbPolyline
 90
        2
 70
     0
 43
0.4999999952
 10
410.0
 20
10.0318435754
 10
410.0
 20
287.0
  0
LWPOLYLINE
  5
3F1
330
224
100
AcDbEntity
  8
0
  6
Continuous
 62
     7
100
AcDbPolyline
 90
        2
 70
     0
 43
0.1000000003
 10
413.0
 20
0.0
 10
413.0
 20
297.0
  0
LINE
  5
3F2
330
224
100
AcDbEntity
  8
0
  6
Continuous
 62
     7
100
AcDbLine
 10
420.0
 20
0.0
 30
0.0
 11
420.0
 21
297.0
 31
0.0
  0
LWPOLYLINE
  5
3F3
330
224
100
AcDbEntity
  8
0
  6
Continuous
 62
     2
100
AcDbPolyline
 90
        3
 70
     0
 43
0.0
 10
414.6467175293
 20
59.4840133667
 10
415.7895666504
 20
60.6268688965
 10
415.7895666504
 20
56.6268713379
  0
LINE
  5
3F6
330
224
100
AcDbEntity
  8
7_ALL_FEATURES
  6
Continuous
 62
     7
100
AcDbLine
 10
25.0631533953333
 20
157.0052078828912
 30
0.0
 11
25.0631533953333
 21
37.00520788289117
 31
0.0
  0
LINE
  5
3F7
330
224
100
AcDbEntity
  8
7_ALL_FEATURES
  6
Continuous
 62
     7
100
AcDbLine
 10
27.06315339533329
 20
155.0052078828912
 30
0.0
 11
27.06315339533329
 21
39.00520788289117
 31
0.0
  0
LINE
  5
3F8
330
224
100
AcDbEntity
  8
7_ALL_FEATURES
  6
Continuous
 62
     7
100
AcDbLine
 10
25.0631533953333
 20
37.00520788289117
 30
0.0
 11
145.0631533953333
 21
37.00520788289117
 31
0.0
  0
LINE
  5
3F9
330
224
100
AcDbEntity
  8
7_ALL_FEATURES
  6
Continuous
 62
     7
100
AcDbLine
 10
27.06315339533329
 20
39.00520788289117
 30
0.0
 11
143.0631533953333
 21
39.00520788289117
 31
0.0
  0
LINE
  5
3FD
330
224
100
AcDbEntity
  8
7_ALL_FEATURES
  6
Continuous
 62
     7
100
AcDbLine
 10
145.0631533953333
 20
157.0052078828912
 30
0.0
 11
143.0631533953333
 21
155.0052078828912
 31
0.0
  0
LINE
  5
3FE
330
224
100
AcDbEntity
  8
7_ALL_FEATURES
  6
Continuous
 62
     7
100
AcDbLine
 10
25.0631533953333
 20
37.00520788289117
 30
0.0
 11
27.06315339533329
 21
39.00520788289117
 31
0.0
  0
LINE
  5
3FF
330
224
100
AcDbEntity
  8
7_ALL_FEATURES
  6
Continuous
 62
     7
100
AcDbLine
 10
25.0631533953333
 20
157.0052078828912
 30
0.0
 11
27.06315339533329
 21
155.0052078828912
 31
0.0
  0
LINE
  5
400
330
224
100
AcDbEntity
  8
7_ALL_FEATURES
  6
Continuous
 62
     7
100
AcDbLine
 10
145.0631533953333
 20
37.00520788289117
 30
0.0
 11
143.0631533953333
 21
39.00520788289117
 31
0.0
  0
LINE
  5
409
330
224
100
AcDbEntity
  8
7_ALL_FEATURES
  6
Continuous
 62
     7
100
AcDbLine
 10
143.0631533953333
 20
39.00520788289117
 30
0.0
 11
143.0631533953333
 21
155.0052078828912
 31
0.0
  0
LINE
  5
40A
330
224
100
AcDbEntity
  8
7_ALL_FEATURES
  6
Continuous
 62
     7
100
AcDbLine
 10
145.0631533953333
 20
37.00520788289117
 30
0.0
 11
145.0631533953333
 21
157.0052078828912
 31
0.0
  0
LINE
  5
40B
330
224
100
AcDbEntity
  8
7_ALL_FEATURES
  6
Continuous
 62
     7
100
AcDbLine
 10
143.0631533953333
 20
155.0052078828912
 30
0.0
 11
27.06315339533329
 21
155.0052078828912
 31
0.0
  0
LINE
  5
40C
330
224
100
AcDbEntity
  8
7_ALL_FEATURES
  6
Continuous
 62
     7
100
AcDbLine
 10
145.0631533953333
 20
157.0052078828912
 30
0.0
 11
25.0631533953333
 21
157.0052078828912
 31
0.0
  0
LINE
  5
413
330
224
100
AcDbEntity
  8
7_ALL_FEATURES
  6
Continuous
 62
     7
100
AcDbLine
 10
25.06315339533334
 20
240.2168666237
 30
0.0
 11
27.06315339533333
 21
242.2168666237
 31
0.0
  0
LINE
  5
414
330
224
100
AcDbEntity
  8
7_ALL_FEATURES
  6
Continuous
 62
     7
100
AcDbLine
 10
25.06315339533334
 20
239.2168666237
 30
0.0
 11
25.06315339533334
 21
240.2168666237
 31
0.0
  0
LINE
  5
415
330
224
100
AcDbEntity
  8
7_ALL_FEATURES
  6
Continuous
 62
     7
100
AcDbLine
 10
38.1631757924
 20
239.2168666237
 30
0.0
 11
37.66315339533334
 21
238.7168439878333
 31
0.0
  0
LINE
  5
416
330
224
100
AcDbEntity
  8
02___PRT_ALL_AXES
  6
Continuous
 62
     7
100
AcDbLine
 10
37.66315339533334
 20
238.7168439878333
 30
0.0
 11
37.66315339533334
 21
222.9668682319667
 31
0.0
  0
LINE
  5
417
330
224
100
AcDbEntity
  8
7_ALL_FEATURES
  6
Continuous
 62
     7
100
AcDbLine
 10
45.848304232
 20
238.7168666237
 30
0.0
 11
45.848304232
 21
236.2168666237
 31
0.0
  0
LINE
  5
418
330
224
100
AcDbEntity
  8
7_ALL_FEATURES
  6
Continuous
 62
     7
100
AcDbLine
 10
50.56315339533333
 20
221.4668662083666
 30
0.0
 11
50.56315339533333
 21
217.4668666237
 31
0.0
  0
LINE
  5
419
330
224
100
AcDbEntity
  8
7_ALL_FEATURES
  6
Continuous
 62
     7
100
AcDbLine
 10
50.56315339533333
 20
213.9668666237
 30
0.0
 11
50.56315339533333
 21
211.2168666237
 31
0.0
  0
LINE
  5
41A
330
224
100
AcDbEntity
  8
7_ALL_FEATURES
  6
Continuous
 62
     7
100
AcDbLine
 10
50.56315339533333
 20
207.7168666237
 30
0.0
 11
50.56315339533333
 21
205.2168666237
 31
0.0
  0
LINE
  5
41B
330
224
100
AcDbEntity
  8
7_ALL_FEATURES
  6
Continuous
 62
     7
100
AcDbLine
 10
50.56315339533333
 20
201.7168666237
 30
0.0
 11
50.56315339533333
 21
199.2168666237
 31
0.0
  0
LINE
  5
41C
330
224
100
AcDbEntity
  8
7_ALL_FEATURES
  6
Continuous
 62
     7
100
AcDbLine
 10
50.56315339533333
 20
195.7168666237
 30
0.0
 11
50.56315339533333
 21
192.7168700114333
 31
0.0
  0
LINE
  5
41D
330
224
100
AcDbEntity
  8
02___PRT_ALL_AXES
  6
Continuous
 62
     7
100
AcDbLine
 10
51.61466858546667
 20
237.7168666237
 30
0.0
 11
51.61466858546667
 21
239.2168666237
 31
0.0
  0
LINE
  5
41E
330
224
100
AcDbEntity
  8
02___PRT_ALL_AXES
  6
Continuous
 62
     7
100
AcDbLine
 10
52.36466858546667
 20
236.2168666237
 30
0.0
 11
52.36466858546667
 21
237.7168666237
 31
0.0
  0
LINE
  5
41F
330
224
100
AcDbEntity
  8
02___PRT_ALL_AXES
  6
Continuous
 62
     7
100
AcDbLine
 10
81.56614324093334
 20
175.7168666237
 30
0.0
 11
88.5601635496
 21
175.7168666237
 31
0.0
  0
LINE
  5
420
330
224
100
AcDbEntity
  8
7_ALL_FEATURES
  6
Continuous
 62
     7
100
AcDbLine
 10
81.56315339533334
 20
175.7168666237
 30
0.0
 11
88.56315339533334
 21
175.7168666237
 31
0.0
  0
LINE
  5
421
330
224
100
AcDbEntity
  8
7_ALL_FEATURES
  6
Continuous
 62
     7
100
AcDbLine
 10
51.56314882013334
 20
191.7168587972999
 30
0.0
 11
50.5631453156
 21
192.7168619317
 31
0.0
  0
LINE
  5
422
330
224
100
AcDbEntity
  8
7_ALL_FEATURES
  6
Continuous
 62
     7
100
AcDbLine
 10
54.06315339533333
 20
217.4668666237
 30
0.0
 11
54.06315339533333
 21
213.9668666237
 31
0.0
  0
LINE
  5
423
330
224
100
AcDbEntity
  8
7_ALL_FEATURES
  6
Continuous
 62
     7
100
AcDbLine
 10
54.06315339533333
 20
211.2168666237
 30
0.0
 11
54.06315339533333
 21
207.7168666237
 31
0.0
  0
LINE
  5
424
330
224
100
AcDbEntity
  8
7_ALL_FEATURES
  6
Continuous
 62
     7
100
AcDbLine
 10
57.06315339533333
 20
205.2168666237
 30
0.0
 11
57.06315339533333
 21
201.7168666237
 31
0.0
  0
LINE
  5
425
330
224
100
AcDbEntity
  8
7_ALL_FEATURES
  6
Continuous
 62
     7
100
AcDbLine
 10
57.06315339533333
 20
199.2168666237
 30
0.0
 11
57.06315339533333
 21
195.7168666237
 31
0.0
  0
LINE
  5
426
330
224
100
AcDbEntity
  8
02___PRT_ALL_AXES
  6
Continuous
 62
     9
100
AcDbLine
 10
92.06315339533334
 20
179.2168666237
 30
0.0
 11
90.669239662
 21
179.2168666237
 31
0.0
  0
LINE
  5
427
330
224
100
AcDbEntity
  8
02___PRT_ALL_AXES
  6
Continuous
 62
     9
100
AcDbLine
 10
89.25502609973334
 20
179.2168666237
 30
0.0
 11
84.2359282772
 21
179.2168666237
 31
0.0
  0
LINE
  5
428
330
224
100
AcDbEntity
  8
02___PRT_ALL_AXES
  6
Continuous
 62
     9
100
AcDbLine
 10
78.06315339533334
 20
179.2168666237
 30
0.0
 11
78.11220392026667
 21
179.2168666237
 31
0.0
  0
LINE
  5
429
330
224
100
AcDbEntity
  8
02___PRT_ALL_AXES
  6
Continuous
 62
     9
100
AcDbLine
 10
78.62984201053332
 20
179.2168666237
 30
0.0
 11
82.30407662466666
 21
179.2168666237
 31
0.0
  0
LINE
  5
42A
330
224
100
AcDbEntity
  8
02___PRT_ALL_AXES
  6
Continuous
 62
     7
100
AcDbLine
 10
92.06315339533334
 20
179.7168666237
 30
0.0
 11
90.669239662
 21
179.7168666237
 31
0.0
  0
LINE
  5
42B
330
224
100
AcDbEntity
  8
02___PRT_ALL_AXES
  6
Continuous
 62
     7
100
AcDbLine
 10
89.25502609973334
 20
179.7168666237
 30
0.0
 11
84.2359282772
 21
179.7168666237
 31
0.0
  0
LINE
  5
42C
330
224
100
AcDbEntity
  8
02___PRT_ALL_AXES
  6
Continuous
 62
     7
100
AcDbLine
 10
78.06315339533334
 20
179.7168666237
 30
0.0
 11
78.11220392026667
 21
179.7168666237
 31
0.0
  0
LINE
  5
42D
330
224
100
AcDbEntity
  8
02___PRT_ALL_AXES
  6
Continuous
 62
     7
100
AcDbLine
 10
78.62984201053332
 20
179.7168666237
 30
0.0
 11
82.30407662466666
 21
179.7168666237
 31
0.0
  0
LINE
  5
42E
330
224
100
AcDbEntity
  8
02___PRT_ALL_AXES
  6
Continuous
 62
     7
100
AcDbLine
 10
58.36466858546667
 20
236.2168666237
 30
0.0
 11
58.36466858546667
 21
237.7168666237
 31
0.0
  0
LINE
  5
42F
330
224
100
AcDbEntity
  8
7_ALL_FEATURES
  6
Continuous
 62
     7
100
AcDbLine
 10
58.43693313973334
 20
238.7168666237
 30
0.0
 11
58.43693313973334
 21
236.2168666237
 31
0.0
  0
LINE
  5
430
330
224
100
AcDbEntity
  8
02___PRT_ALL_AXES
  6
Continuous
 62
     7
100
AcDbLine
 10
92.7905600056
 20
185.2168666237
 30
0.0
 11
77.33574678493333
 21
185.2168666237
 31
0.0
  0
LINE
  5
431
330
224
100
AcDbEntity
  8
02___PRT_ALL_AXES
  6
Continuous
 62
     7
100
AcDbLine
 10
78.06315339533334
 20
179.7168666237
 30
0.0
 11
77.88431623066667
 21
179.8957037883666
 31
0.0
  0
LINE
  5
432
330
224
100
AcDbEntity
  8
7_ALL_FEATURES
  6
Continuous
 62
     7
100
AcDbLine
 10
38.16315658066667
 20
222.4668682326333
 30
0.0
 11
37.66315501386667
 21
222.9668698505
 31
0.0
  0
LINE
  5
433
330
224
100
AcDbEntity
  8
02___PRT_ALL_AXES
  6
Continuous
 62
     7
100
AcDbLine
 10
92.7905600056
 20
188.2168666237
 30
0.0
 11
77.33574678493333
 21
188.2168666237
 31
0.0
  0
LINE
  5
434
330
224
100
AcDbEntity
  8
7_ALL_FEATURES
  6
Continuous
 62
     7
100
AcDbLine
 10
118.5629495205333
 20
191.7168666237
 30
0.0
 11
51.56335727013334
 21
191.7168666237
 31
0.0
  0
LINE
  5
435
330
224
100
AcDbEntity
  8
7_ALL_FEATURES
  6
Continuous
 62
     7
100
AcDbLine
 10
119.5631533952
 20
192.7168710993
 30
0.0
 11
50.56315339533333
 21
192.7168710993
 31
0.0
  0
LINE
  5
436
330
224
100
AcDbEntity
  8
7_ALL_FEATURES
  6
Continuous
 62
     7
100
AcDbLine
 10
119.5629260673333
 20
195.7168666237
 30
0.0
 11
50.5633807232
 21
195.7168666237
 31
0.0
  0
LINE
  5
437
330
224
100
AcDbEntity
  8
7_ALL_FEATURES
  6
Continuous
 62
     7
100
AcDbLine
 10
50.56314861946667
 20
221.4668614326333
 30
0.0
 11
49.56314805626667
 21
222.4668617070333
 31
0.0
  0
LINE
  5
438
330
224
100
AcDbEntity
  8
7_ALL_FEATURES
  6
Continuous
 62
     7
100
AcDbLine
 10
119.5629260673333
 20
199.2168666237
 30
0.0
 11
50.5633807232
 21
199.2168666237
 31
0.0
  0
LINE
  5
439
330
224
100
AcDbEntity
  8
02___PRT_ALL_AXES
  6
Continuous
 62
     7
100
AcDbLine
 10
77.33574678493333
 20
191.7168666237
 30
0.0
 11
77.33574678493333
 21
188.2168666237
 31
0.0
  0
LINE
  5
43A
330
224
100
AcDbEntity
  8
02___PRT_ALL_AXES
  6
Continuous
 62
     7
100
AcDbLine
 10
77.33574678493333
 20
185.2168666237
 30
0.0
 11
77.33574678493333
 21
180.7168666237
 31
0.0
  0
LINE
  5
43B
330
224
100
AcDbEntity
  8
02___PRT_ALL_AXES
  6
Continuous
 62
     7
100
AcDbLine
 10
78.06315339533334
 20
179.2168666237
 30
0.0
 11
78.06315339533334
 21
179.7168666237
 31
0.0
  0
LINE
  5
43C
330
224
100
AcDbEntity
  8
02___PRT_ALL_AXES
  6
Continuous
 62
     7
100
AcDbLine
 10
78.11220392026667
 20
179.2168666237
 30
0.0
 11
78.11220392026667
 21
179.7168666237
 31
0.0
  0
LINE
  5
43D
330
224
100
AcDbEntity
  8
02___PRT_ALL_AXES
  6
Continuous
 62
     7
100
AcDbLine
 10
78.62984201053332
 20
179.2168666237
 30
0.0
 11
78.62984201053332
 21
179.7168666237
 31
0.0
  0
LINE
  5
43E
330
224
100
AcDbEntity
  8
02___PRT_ALL_AXES
  6
Continuous
 62
     7
100
AcDbLine
 10
79.06315339533334
 20
185.2168666237
 30
0.0
 11
79.06315339533334
 21
188.2168666237
 31
0.0
  0
LINE
  5
43F
330
224
100
AcDbEntity
  8
02___PRT_ALL_AXES
  6
Continuous
 62
     7
100
AcDbLine
 10
79.40629914586667
 20
191.7168666237
 30
0.0
 11
79.40629914586667
 21
188.2168666237
 31
0.0
  0
LINE
  5
440
330
224
100
AcDbEntity
  8
02___PRT_ALL_AXES
  6
Continuous
 62
     7
100
AcDbLine
 10
79.40629914586667
 20
185.2168666237
 30
0.0
 11
79.40629914586667
 21
180.7168666237
 31
0.0
  0
LINE
  5
441
330
224
100
AcDbEntity
  8
7_ALL_FEATURES
  6
Continuous
 62
     7
100
AcDbLine
 10
119.5629260673333
 20
201.7168666237
 30
0.0
 11
50.5633807232
 21
201.7168666237
 31
0.0
  0
LINE
  5
442
330
224
100
AcDbEntity
  8
02___PRT_ALL_AXES
  6
Continuous
 62
     7
100
AcDbLine
 10
82.30407662466666
 20
179.2168666237
 30
0.0
 11
82.30407662466666
 21
179.7168666237
 31
0.0
  0
LINE
  5
443
330
224
100
AcDbEntity
  8
02___PRT_ALL_AXES
  6
Continuous
 62
     7
100
AcDbLine
 10
84.2359282772
 20
179.2168666237
 30
0.0
 11
84.2359282772
 21
179.7168666237
 31
0.0
  0
LINE
  5
444
330
224
100
AcDbEntity
  8
7_ALL_FEATURES
  6
Continuous
 62
     7
100
AcDbLine
 10
119.5629260673333
 20
205.2168666237
 30
0.0
 11
50.5633807232
 21
205.2168666237
 31
0.0
  0
LINE
  5
446
330
224
100
AcDbEntity
  8
7_ALL_FEATURES
  6
Continuous
 62
     7
100
AcDbLine
 10
119.5629260673333
 20
207.7168666237
 30
0.0
 11
50.5633807232
 21
207.7168666237
 31
0.0
  0
LINE
  5
448
330
224
100
AcDbEntity
  8
02___PRT_ALL_AXES
  6
Continuous
 62
     7
100
AcDbLine
 10
87.13370575613334
 20
191.7168666237
 30
0.0
 11
87.13370575613334
 21
188.2168666237
 31
0.0
  0
LINE
  5
449
330
224
100
AcDbEntity
  8
02___PRT_ALL_AXES
  6
Continuous
 62
     7
100
AcDbLine
 10
87.13370575613334
 20
185.2168666237
 30
0.0
 11
87.13370575613334
 21
180.7168666237
 31
0.0
  0
LINE
  5
44A
330
224
100
AcDbEntity
  8
02___PRT_ALL_AXES
  6
Continuous
 62
     7
100
AcDbLine
 10
89.25502609973334
 20
179.2168666237
 30
0.0
 11
89.25502609973334
 21
179.7168666237
 31
0.0
  0
LINE
  5
44B
330
224
100
AcDbEntity
  8
7_ALL_FEATURES
  6
Continuous
 62
     7
100
AcDbLine
 10
119.5629260673333
 20
211.2168666237
 30
0.0
 11
50.5633807232
 21
211.2168666237
 31
0.0
  0
LINE
  5
44C
330
224
100
AcDbEntity
  8
7_ALL_FEATURES
  6
Continuous
 62
     7
100
AcDbLine
 10
119.5629260673333
 20
213.9668666237
 30
0.0
 11
50.5633807232
 21
213.9668666237
 31
0.0
  0
LINE
  5
44D
330
224
100
AcDbEntity
  8
02___PRT_ALL_AXES
  6
Continuous
 62
     7
100
AcDbLine
 10
90.669239662
 20
179.2168666237
 30
0.0
 11
90.669239662
 21
179.7168666237
 31
0.0
  0
LINE
  5
44E
330
224
100
AcDbEntity
  8
02___PRT_ALL_AXES
  6
Continuous
 62
     7
100
AcDbLine
 10
91.06315339533334
 20
185.2168666237
 30
0.0
 11
91.06315339533334
 21
188.2168666237
 31
0.0
  0
LINE
  5
44F
330
224
100
AcDbEntity
  8
02___PRT_ALL_AXES
  6
Continuous
 62
     7
100
AcDbLine
 10
92.06315339533334
 20
179.2168666237
 30
0.0
 11
92.06315339533334
 21
179.7168666237
 31
0.0
  0
LINE
  5
450
330
224
100
AcDbEntity
  8
02___PRT_ALL_AXES
  6
Continuous
 62
     7
100
AcDbLine
 10
92.7905600056
 20
191.7168666237
 30
0.0
 11
92.7905600056
 21
188.2168666237
 31
0.0
  0
LINE
  5
451
330
224
100
AcDbEntity
  8
02___PRT_ALL_AXES
  6
Continuous
 62
     7
100
AcDbLine
 10
92.7905600056
 20
185.2168666237
 30
0.0
 11
92.7905600056
 21
180.7168666237
 31
0.0
  0
LINE
  5
452
330
224
100
AcDbEntity
  8
7_ALL_FEATURES
  6
Continuous
 62
     7
100
AcDbLine
 10
119.5629260673333
 20
217.4668666237
 30
0.0
 11
50.5633807232
 21
217.4668666237
 31
0.0
  0
LINE
  5
453
330
224
100
AcDbEntity
  8
7_ALL_FEATURES
  6
Continuous
 62
     7
100
AcDbLine
 10
50.56315341360001
 20
221.4668664391666
 30
0.0
 11
119.5631533770667
 21
221.4668664391666
 31
0.0
  0
LINE
  5
454
330
224
100
AcDbEntity
  8
7_ALL_FEATURES
  6
Continuous
 62
     7
100
AcDbLine
 10
38.16324537986667
 20
222.4668666237
 30
0.0
 11
131.9630614106667
 21
222.4668666237
 31
0.0
  0
LINE
  5
455
330
224
100
AcDbEntity
  8
7_ALL_FEATURES
  6
Continuous
 62
     7
100
AcDbLine
 10
37.66315339613333
 20
222.9668685692999
 30
0.0
 11
132.4631533944
 21
222.9668685692999
 31
0.0
  0
LINE
  5
456
330
224
100
AcDbEntity
  8
7_ALL_FEATURES
  6
Continuous
 62
     7
100
AcDbLine
 10
119.5631581710667
 20
221.4668614326333
 30
0.0
 11
120.5631587344
 21
222.4668617070333
 31
0.0
  0
LINE
  5
457
330
224
100
AcDbEntity
  8
7_ALL_FEATURES
  6
Continuous
 62
     7
100
AcDbLine
 10
111.6893736508
 20
238.7168666237
 30
0.0
 11
111.6893736508
 21
236.2168666237
 31
0.0
  0
LINE
  5
458
330
224
100
AcDbEntity
  8
02___PRT_ALL_AXES
  6
Continuous
 62
     7
100
AcDbLine
 10
111.7616382050667
 20
236.2168666237
 30
0.0
 11
111.7616382050667
 21
237.7168666237
 31
0.0
  0
LINE
  5
459
330
224
100
AcDbEntity
  8
7_ALL_FEATURES
  6
Continuous
 62
     7
100
AcDbLine
 10
113.0631533953333
 20
205.2168666237
 30
0.0
 11
113.0631533953333
 21
201.7168666237
 31
0.0
  0
LINE
  5
45A
330
224
100
AcDbEntity
  8
7_ALL_FEATURES
  6
Continuous
 62
     7
100
AcDbLine
 10
113.0631533953333
 20
199.2168666237
 30
0.0
 11
113.0631533953333
 21
195.7168666237
 31
0.0
  0
LINE
  5
45B
330
224
100
AcDbEntity
  8
7_ALL_FEATURES
  6
Continuous
 62
     7
100
AcDbLine
 10
131.9631502098667
 20
222.4668682326333
 30
0.0
 11
132.4631517766667
 21
222.9668698505
 31
0.0
  0
LINE
  5
45C
330
224
100
AcDbEntity
  8
02___PRT_ALL_AXES
  6
Continuous
 62
     7
100
AcDbLine
 10
92.06315339533334
 20
179.7168666237
 30
0.0
 11
92.24199055986666
 21
179.8957037883666
 31
0.0
  0
LINE
  5
45D
330
224
100
AcDbEntity
  8
02___PRT_ALL_AXES
  6
Continuous
 62
     7
100
AcDbLine
 10
124.2780025586667
 20
236.2168666237
 30
0.0
 11
111.6893736508
 21
236.2168666237
 31
0.0
  0
LINE
  5
45E
330
224
100
AcDbEntity
  8
02___PRT_ALL_AXES
  6
Continuous
 62
     7
100
AcDbLine
 10
58.43693313973334
 20
236.2168666237
 30
0.0
 11
45.848304232
 21
236.2168666237
 31
0.0
  0
LINE
  5
45F
330
224
100
AcDbEntity
  8
02___PRT_ALL_AXES
  6
Continuous
 62
     7
100
AcDbLine
 10
58.36466858546667
 20
236.5668666237
 30
0.0
 11
58.43693313973334
 21
236.5668666237
 31
0.0
  0
LINE
  5
460
330
224
100
AcDbEntity
  8
02___PRT_ALL_AXES
  6
Continuous
 62
     7
100
AcDbLine
 10
111.6893736508
 20
236.5668666237
 30
0.0
 11
111.7616382050667
 21
236.5668666237
 31
0.0
  0
LINE
  5
461
330
224
100
AcDbEntity
  8
7_ALL_FEATURES
  6
Continuous
 62
     7
100
AcDbLine
 10
116.0631533953333
 20
217.4668666237
 30
0.0
 11
116.0631533953333
 21
213.9668666237
 31
0.0
  0
LINE
  5
462
330
224
100
AcDbEntity
  8
7_ALL_FEATURES
  6
Continuous
 62
     7
100
AcDbLine
 10
116.0631533953333
 20
211.2168666237
 30
0.0
 11
116.0631533953333
 21
207.7168666237
 31
0.0
  0
LINE
  5
463
330
224
100
AcDbEntity
  8
02___PRT_ALL_AXES
  6
Continuous
 62
     7
100
AcDbLine
 10
51.61468576386666
 20
237.7168666237
 30
0.0
 11
58.43693313973334
 21
237.7168666237
 31
0.0
  0
LINE
  5
464
330
224
100
AcDbEntity
  8
02___PRT_ALL_AXES
  6
Continuous
 62
     7
100
AcDbLine
 10
111.6893736508
 20
237.7168666237
 30
0.0
 11
118.5116210266666
 21
237.7168666237
 31
0.0
  0
LINE
  5
465
330
224
100
AcDbEntity
  8
7_ALL_FEATURES
  6
Continuous
 62
     7
100
AcDbLine
 10
111.6893736508
 20
238.7168666237
 30
0.0
 11
58.43693313973334
 21
238.7168666237
 31
0.0
  0
LINE
  5
466
330
224
100
AcDbEntity
  8
7_ALL_FEATURES
  6
Continuous
 62
     7
100
AcDbLine
 10
132.4631533953333
 20
238.7168438231666
 30
0.0
 11
124.2780025586667
 21
238.7168666237
 31
0.0
  0
LINE
  5
467
330
224
100
AcDbEntity
  8
7_ALL_FEATURES
  6
Continuous
 62
     7
100
AcDbLine
 10
45.848304232
 20
238.7168666237
 30
0.0
 11
37.66315339533334
 21
238.7168439878333
 31
0.0
  0
LINE
  5
468
330
224
100
AcDbEntity
  8
02___PRT_ALL_AXES
  6
Continuous
 62
     7
100
AcDbLine
 10
25.06315339533334
 20
239.2168666237
 30
0.0
 11
145.0631533953334
 21
239.2168666237
 31
0.0
  0
LINE
  5
469
330
224
100
AcDbEntity
  8
7_ALL_FEATURES
  6
Continuous
 62
     7
100
AcDbLine
 10
25.06315339533334
 20
240.2168666237
 30
0.0
 11
145.0631533953334
 21
240.2168666237
 31
0.0
  0
LINE
  5
46A
330
224
100
AcDbEntity
  8
02___PRT_ALL_AXES
  6
Continuous
 62
     7
100
AcDbLine
 10
117.7616382050667
 20
236.2168666237
 30
0.0
 11
117.7616382050667
 21
237.7168666237
 31
0.0
  0
LINE
  5
46B
330
224
100
AcDbEntity
  8
02___PRT_ALL_AXES
  6
Continuous
 62
     7
100
AcDbLine
 10
118.5116382050667
 20
237.7168666237
 30
0.0
 11
118.5116382050667
 21
239.2168666237
 31
0.0
  0
LINE
  5
46C
330
224
100
AcDbEntity
  8
7_ALL_FEATURES
  6
Continuous
 62
     7
100
AcDbLine
 10
119.5631533953333
 20
221.4668662083666
 30
0.0
 11
119.5631533953333
 21
217.4668666237
 31
0.0
  0
LINE
  5
46D
330
224
100
AcDbEntity
  8
7_ALL_FEATURES
  6
Continuous
 62
     7
100
AcDbLine
 10
119.5631533953333
 20
213.9668666237
 30
0.0
 11
119.5631533953333
 21
211.2168666237
 31
0.0
  0
LINE
  5
46E
330
224
100
AcDbEntity
  8
7_ALL_FEATURES
  6
Continuous
 62
     7
100
AcDbLine
 10
119.5631533953333
 20
207.7168666237
 30
0.0
 11
119.5631533953333
 21
205.2168666237
 31
0.0
  0
LINE
  5
46F
330
224
100
AcDbEntity
  8
7_ALL_FEATURES
  6
Continuous
 62
     7
100
AcDbLine
 10
119.5631533953333
 20
201.7168666237
 30
0.0
 11
119.5631533953333
 21
199.2168666237
 31
0.0
  0
LINE
  5
470
330
224
100
AcDbEntity
  8
7_ALL_FEATURES
  6
Continuous
 62
     7
100
AcDbLine
 10
119.5631533953333
 20
195.7168666237
 30
0.0
 11
119.5631533953333
 21
192.7168700114333
 31
0.0
  0
LINE
  5
471
330
224
100
AcDbEntity
  8
7_ALL_FEATURES
  6
Continuous
 62
     7
100
AcDbLine
 10
118.5631579705333
 20
191.7168587972999
 30
0.0
 11
119.5631614750667
 21
192.7168619317
 31
0.0
  0
LINE
  5
472
330
224
100
AcDbEntity
  8
7_ALL_FEATURES
  6
Continuous
 62
     7
100
AcDbLine
 10
27.06315339533333
 20
242.2168666237
 30
0.0
 11
143.0631533953334
 21
242.2168666237
 31
0.0
  0
LINE
  5
473
330
224
100
AcDbEntity
  8
7_ALL_FEATURES
  6
Continuous
 62
     7
100
AcDbLine
 10
124.2780025586667
 20
238.7168666237
 30
0.0
 11
124.2780025586667
 21
236.2168666237
 31
0.0
  0
LINE
  5
474
330
224
100
AcDbEntity
  8
02___PRT_ALL_AXES
  6
Continuous
 62
     7
100
AcDbLine
 10
132.4631533953333
 20
238.7168438231666
 30
0.0
 11
132.4631533953333
 21
222.9668682319667
 31
0.0
  0
LINE
  5
475
330
224
100
AcDbEntity
  8
7_ALL_FEATURES
  6
Continuous
 62
     7
100
AcDbLine
 10
131.9631308352
 20
239.2168666237
 30
0.0
 11
132.4631533953333
 21
238.7168438231666
 31
0.0
  0
LINE
  5
476
330
224
100
AcDbEntity
  8
7_ALL_FEATURES
  6
Continuous
 62
     7
100
AcDbLine
 10
145.0631533953334
 20
239.2168666237
 30
0.0
 11
145.0631533953334
 21
240.2168666237
 31
0.0
  0
LINE
  5
477
330
224
100
AcDbEntity
  8
7_ALL_FEATURES
  6
Continuous
 62
     7
100
AcDbLine
 10
145.0631533953334
 20
240.2168666237
 30
0.0
 11
143.0631533953334
 21
242.2168666237
 31
0.0
  0
LINE
  5
478
330
224
100
AcDbEntity
  8
7_ALL_FEATURES
  6
Continuous
 62
     7
100
AcDbLine
 10
160.3681078523185
 20
240.2168666237
 30
0.0
 11
162.3681078523185
 21
242.2168666237
 31
0.0
  0
LINE
  5
479
330
224
100
AcDbEntity
  8
7_ALL_FEATURES
  6
Continuous
 62
     7
100
AcDbLine
 10
160.3681078523185
 20
239.2168666237
 30
0.0
 11
160.3681078523185
 21
240.2168666237
 31
0.0
  0
LINE
  5
47A
330
224
100
AcDbEntity
  8
7_ALL_FEATURES
  6
Continuous
 62
     7
100
AcDbLine
 10
173.4681368977852
 20
239.2168666237
 30
0.0
 11
172.9681078523185
 21
238.7168372686333
 31
0.0
  0
LINE
  5
47B
330
224
100
AcDbEntity
  8
02___PRT_ALL_AXES
  6
Continuous
 62
     7
100
AcDbLine
 10
172.9681078523185
 20
238.7168372686333
 30
0.0
 11
172.9681078523185
 21
222.9668679467666
 31
0.0
  0
LINE
  5
47C
330
224
100
AcDbEntity
  8
7_ALL_FEATURES
  6
Continuous
 62
     7
100
AcDbLine
 10
181.1532586889852
 20
238.7168666237
 30
0.0
 11
181.1532586889852
 21
236.2168666237
 31
0.0
  0
LINE
  5
47D
330
224
100
AcDbEntity
  8
7_ALL_FEATURES
  6
Continuous
 62
     7
100
AcDbLine
 10
185.8681078523185
 20
221.4668661813
 30
0.0
 11
185.8681078523185
 21
217.4668666237
 31
0.0
  0
LINE
  5
47E
330
224
100
AcDbEntity
  8
7_ALL_FEATURES
  6
Continuous
 62
     7
100
AcDbLine
 10
185.8681078523185
 20
213.9668666237
 30
0.0
 11
185.8681078523185
 21
211.2168666237
 31
0.0
  0
LINE
  5
47F
330
224
100
AcDbEntity
  8
7_ALL_FEATURES
  6
Continuous
 62
     7
100
AcDbLine
 10
185.8681078523185
 20
207.7168666237
 30
0.0
 11
185.8681078523185
 21
205.2168666237
 31
0.0
  0
LINE
  5
480
330
224
100
AcDbEntity
  8
7_ALL_FEATURES
  6
Continuous
 62
     7
100
AcDbLine
 10
185.8681078523185
 20
201.7168666237
 30
0.0
 11
185.8681078523185
 21
199.2168666237
 31
0.0
  0
LINE
  5
481
330
224
100
AcDbEntity
  8
7_ALL_FEATURES
  6
Continuous
 62
     7
100
AcDbLine
 10
185.8681078523185
 20
195.7168666237
 30
0.0
 11
185.8681078523185
 21
192.7168681506333
 31
0.0
  0
LINE
  5
482
330
224
100
AcDbEntity
  8
02___PRT_ALL_AXES
  6
Continuous
 62
     7
100
AcDbLine
 10
186.9196230424519
 20
237.7168666237
 30
0.0
 11
186.9196230424519
 21
239.2168666237
 31
0.0
  0
LINE
  5
483
330
224
100
AcDbEntity
  8
02___PRT_ALL_AXES
  6
Continuous
 62
     7
100
AcDbLine
 10
187.6696230424519
 20
236.2168666237
 30
0.0
 11
187.6696230424519
 21
237.7168666237
 31
0.0
  0
LINE
  5
484
330
224
100
AcDbEntity
  8
02___PRT_ALL_AXES
  6
Continuous
 62
     7
100
AcDbLine
 10
216.8710976979185
 20
175.7168666237
 30
0.0
 11
223.8651180067185
 21
175.7168666237
 31
0.0
  0
LINE
  5
485
330
224
100
AcDbEntity
  8
7_ALL_FEATURES
  6
Continuous
 62
     7
100
AcDbLine
 10
216.8681078523185
 20
175.7168666237
 30
0.0
 11
223.8681078523185
 21
175.7168666237
 31
0.0
  0
LINE
  5
486
330
224
100
AcDbEntity
  8
7_ALL_FEATURES
  6
Continuous
 62
     7
100
AcDbLine
 10
186.8681023841852
 20
191.7168596902333
 30
0.0
 11
185.8681007029852
 21
192.7168610012999
 31
0.0
  0
LINE
  5
487
330
224
100
AcDbEntity
  8
7_ALL_FEATURES
  6
Continuous
 62
     7
100
AcDbLine
 10
189.3681078523185
 20
217.4668666237
 30
0.0
 11
189.3681078523185
 21
213.9668666237
 31
0.0
  0
LINE
  5
488
330
224
100
AcDbEntity
  8
7_ALL_FEATURES
  6
Continuous
 62
     7
100
AcDbLine
 10
189.3681078523185
 20
211.2168666237
 30
0.0
 11
189.3681078523185
 21
207.7168666237
 31
0.0
  0
LINE
  5
489
330
224
100
AcDbEntity
  8
7_ALL_FEATURES
  6
Continuous
 62
     7
100
AcDbLine
 10
192.3681078523185
 20
205.2168666237
 30
0.0
 11
192.3681078523185
 21
201.7168666237
 31
0.0
  0
LINE
  5
48A
330
224
100
AcDbEntity
  8
7_ALL_FEATURES
  6
Continuous
 62
     7
100
AcDbLine
 10
192.3681078523185
 20
199.2168666237
 30
0.0
 11
192.3681078523185
 21
195.7168666237
 31
0.0
  0
LINE
  5
48B
330
224
100
AcDbEntity
  8
02___PRT_ALL_AXES
  6
Continuous
 62
     9
100
AcDbLine
 10
227.3681078523185
 20
179.2168666237
 30
0.0
 11
227.3190573273852
 21
179.2168666237
 31
0.0
  0
LINE
  5
48C
330
224
100
AcDbEntity
  8
02___PRT_ALL_AXES
  6
Continuous
 62
     9
100
AcDbLine
 10
213.3681078523185
 20
179.2168666237
 30
0.0
 11
214.7620215855185
 21
179.2168666237
 31
0.0
  0
LINE
  5
48D
330
224
100
AcDbEntity
  8
02___PRT_ALL_AXES
  6
Continuous
 62
     9
100
AcDbLine
 10
216.1762351479185
 20
179.2168666237
 30
0.0
 11
221.1953329703185
 21
179.2168666237
 31
0.0
  0
LINE
  5
48E
330
224
100
AcDbEntity
  8
02___PRT_ALL_AXES
  6
Continuous
 62
     9
100
AcDbLine
 10
223.1271846229852
 20
179.2168666237
 30
0.0
 11
226.8014192371185
 21
179.2168666237
 31
0.0
  0
LINE
  5
48F
330
224
100
AcDbEntity
  8
02___PRT_ALL_AXES
  6
Continuous
 62
     7
100
AcDbLine
 10
227.3681078523185
 20
179.7168666237
 30
0.0
 11
227.3190573273852
 21
179.7168666237
 31
0.0
  0
LINE
  5
490
330
224
100
AcDbEntity
  8
02___PRT_ALL_AXES
  6
Continuous
 62
     7
100
AcDbLine
 10
213.3681078523185
 20
179.7168666237
 30
0.0
 11
214.7620215855185
 21
179.7168666237
 31
0.0
  0
LINE
  5
491
330
224
100
AcDbEntity
  8
02___PRT_ALL_AXES
  6
Continuous
 62
     7
100
AcDbLine
 10
216.1762351479185
 20
179.7168666237
 30
0.0
 11
221.1953329703185
 21
179.7168666237
 31
0.0
  0
LINE
  5
492
330
224
100
AcDbEntity
  8
02___PRT_ALL_AXES
  6
Continuous
 62
     7
100
AcDbLine
 10
223.1271846229852
 20
179.7168666237
 30
0.0
 11
226.8014192371185
 21
179.7168666237
 31
0.0
  0
LINE
  5
493
330
224
100
AcDbEntity
  8
02___PRT_ALL_AXES
  6
Continuous
 62
     7
100
AcDbLine
 10
193.6696230424519
 20
236.2168666237
 30
0.0
 11
193.6696230424519
 21
237.7168666237
 31
0.0
  0
LINE
  5
494
330
224
100
AcDbEntity
  8
7_ALL_FEATURES
  6
Continuous
 62
     7
100
AcDbLine
 10
193.7418875967185
 20
238.7168666237
 30
0.0
 11
193.7418875967185
 21
236.2168666237
 31
0.0
  0
LINE
  5
495
330
224
100
AcDbEntity
  8
02___PRT_ALL_AXES
  6
Continuous
 62
     7
100
AcDbLine
 10
228.0955144625852
 20
185.2168666237
 30
0.0
 11
212.6407012420519
 21
185.2168666237
 31
0.0
  0
LINE
  5
496
330
224
100
AcDbEntity
  8
02___PRT_ALL_AXES
  6
Continuous
 62
     7
100
AcDbLine
 10
213.3681078523185
 20
179.7168666237
 30
0.0
 11
213.1892734603185
 21
179.8957010157
 31
0.0
  0
LINE
  5
497
330
224
100
AcDbEntity
  8
7_ALL_FEATURES
  6
Continuous
 62
     7
100
AcDbLine
 10
173.4681108979185
 20
222.4668683723667
 30
0.0
 11
172.9681096135185
 21
222.9668697079666
 31
0.0
  0
LINE
  5
498
330
224
100
AcDbEntity
  8
02___PRT_ALL_AXES
  6
Continuous
 62
     7
100
AcDbLine
 10
228.0955144625852
 20
188.2168666237
 30
0.0
 11
212.6407012420519
 21
188.2168666237
 31
0.0
  0
LINE
  5
499
330
224
100
AcDbEntity
  8
7_ALL_FEATURES
  6
Continuous
 62
     7
100
AcDbLine
 10
253.8679068929852
 20
191.7168666237
 30
0.0
 11
186.8683088116518
 21
191.7168666237
 31
0.0
  0
LINE
  5
49A
330
224
100
AcDbEntity
  8
7_ALL_FEATURES
  6
Continuous
 62
     7
100
AcDbLine
 10
254.8681078523185
 20
192.7168687585
 30
0.0
 11
185.8681078523185
 21
192.7168687585
 31
0.0
  0
LINE
  5
49B
330
224
100
AcDbEntity
  8
7_ALL_FEATURES
  6
Continuous
 62
     7
100
AcDbLine
 10
254.8678805244519
 20
195.7168666237
 30
0.0
 11
185.8683351801852
 21
195.7168666237
 31
0.0
  0
LINE
  5
49C
330
224
100
AcDbEntity
  8
7_ALL_FEATURES
  6
Continuous
 62
     7
100
AcDbLine
 10
185.8681030900519
 20
221.4668614190333
 30
0.0
 11
184.8681024996519
 21
222.4668617206333
 31
0.0
  0
LINE
  5
49D
330
224
100
AcDbEntity
  8
7_ALL_FEATURES
  6
Continuous
 62
     7
100
AcDbLine
 10
254.8678805244519
 20
199.2168666237
 30
0.0
 11
185.8683351801852
 21
199.2168666237
 31
0.0
  0
LINE
  5
49E
330
224
100
AcDbEntity
  8
02___PRT_ALL_AXES
  6
Continuous
 62
     7
100
AcDbLine
 10
212.6407012420519
 20
191.7168666237
 30
0.0
 11
212.6407012420519
 21
188.2168666237
 31
0.0
  0
LINE
  5
49F
330
224
100
AcDbEntity
  8
02___PRT_ALL_AXES
  6
Continuous
 62
     7
100
AcDbLine
 10
212.6407012420519
 20
185.2168666237
 30
0.0
 11
212.6407012420519
 21
180.7168666237
 31
0.0
  0
LINE
  5
4A0
330
224
100
AcDbEntity
  8
02___PRT_ALL_AXES
  6
Continuous
 62
     7
100
AcDbLine
 10
213.3681078523185
 20
179.2168666237
 30
0.0
 11
213.3681078523185
 21
179.7168666237
 31
0.0
  0
LINE
  5
4A1
330
224
100
AcDbEntity
  8
02___PRT_ALL_AXES
  6
Continuous
 62
     7
100
AcDbLine
 10
214.3681078523185
 20
185.2168666237
 30
0.0
 11
214.3681078523185
 21
188.2168666237
 31
0.0
  0
LINE
  5
4A2
330
224
100
AcDbEntity
  8
02___PRT_ALL_AXES
  6
Continuous
 62
     7
100
AcDbLine
 10
214.7620215855185
 20
179.2168666237
 30
0.0
 11
214.7620215855185
 21
179.7168666237
 31
0.0
  0
LINE
  5
4A3
330
224
100
AcDbEntity
  8
02___PRT_ALL_AXES
  6
Continuous
 62
     7
100
AcDbLine
 10
216.1762351479185
 20
179.2168666237
 30
0.0
 11
216.1762351479185
 21
179.7168666237
 31
0.0
  0
LINE
  5
4A4
330
224
100
AcDbEntity
  8
7_ALL_FEATURES
  6
Continuous
 62
     7
100
AcDbLine
 10
254.8678805244519
 20
201.7168666237
 30
0.0
 11
185.8683351801852
 21
201.7168666237
 31
0.0
  0
LINE
  5
4A5
330
224
100
AcDbEntity
  8
02___PRT_ALL_AXES
  6
Continuous
 62
     7
100
AcDbLine
 10
218.2975554915185
 20
191.7168666237
 30
0.0
 11
218.2975554915185
 21
188.2168666237
 31
0.0
  0
LINE
  5
4A6
330
224
100
AcDbEntity
  8
02___PRT_ALL_AXES
  6
Continuous
 62
     7
100
AcDbLine
 10
218.2975554915185
 20
185.2168666237
 30
0.0
 11
218.2975554915185
 21
180.7168666237
 31
0.0
  0
LINE
  5
4A7
330
224
100
AcDbEntity
  8
7_ALL_FEATURES
  6
Continuous
 62
     7
100
AcDbLine
 10
254.8678805244519
 20
205.2168666237
 30
0.0
 11
185.8683351801852
 21
205.2168666237
 31
0.0
  0
LINE
  5
4A8
330
224
100
AcDbEntity
  8
7_ALL_FEATURES
  6
Continuous
 62
     7
100
AcDbLine
 10
254.8678805244519
 20
207.7168666237
 30
0.0
 11
185.8683351801852
 21
207.7168666237
 31
0.0
  0
LINE
  5
4A9
330
224
100
AcDbEntity
  8
02___PRT_ALL_AXES
  6
Continuous
 62
     7
100
AcDbLine
 10
221.1953329703185
 20
179.2168666237
 30
0.0
 11
221.1953329703185
 21
179.7168666237
 31
0.0
  0
LINE
  5
4AA
330
224
100
AcDbEntity
  8
02___PRT_ALL_AXES
  6
Continuous
 62
     7
100
AcDbLine
 10
223.1271846229852
 20
179.2168666237
 30
0.0
 11
223.1271846229852
 21
179.7168666237
 31
0.0
  0
LINE
  5
4AB
330
224
100
AcDbEntity
  8
7_ALL_FEATURES
  6
Continuous
 62
     7
100
AcDbLine
 10
254.8678805244519
 20
211.2168666237
 30
0.0
 11
185.8683351801852
 21
211.2168666237
 31
0.0
  0
LINE
  5
4AC
330
224
100
AcDbEntity
  8
7_ALL_FEATURES
  6
Continuous
 62
     7
100
AcDbLine
 10
254.8678805244519
 20
213.9668666237
 30
0.0
 11
185.8683351801852
 21
213.9668666237
 31
0.0
  0
LINE
  5
4AD
330
224
100
AcDbEntity
  8
02___PRT_ALL_AXES
  6
Continuous
 62
     7
100
AcDbLine
 10
226.0249621017852
 20
191.7168666237
 30
0.0
 11
226.0249621017852
 21
188.2168666237
 31
0.0
  0
LINE
  5
4AE
330
224
100
AcDbEntity
  8
02___PRT_ALL_AXES
  6
Continuous
 62
     7
100
AcDbLine
 10
226.0249621017852
 20
185.2168666237
 30
0.0
 11
226.0249621017852
 21
180.7168666237
 31
0.0
  0
LINE
  5
4AF
330
224
100
AcDbEntity
  8
02___PRT_ALL_AXES
  6
Continuous
 62
     7
100
AcDbLine
 10
226.3681078523185
 20
185.2168666237
 30
0.0
 11
226.3681078523185
 21
188.2168666237
 31
0.0
  0
LINE
  5
4B0
330
224
100
AcDbEntity
  8
02___PRT_ALL_AXES
  6
Continuous
 62
     7
100
AcDbLine
 10
226.8014192371185
 20
179.2168666237
 30
0.0
 11
226.8014192371185
 21
179.7168666237
 31
0.0
  0
LINE
  5
4B1
330
224
100
AcDbEntity
  8
02___PRT_ALL_AXES
  6
Continuous
 62
     7
100
AcDbLine
 10
227.3190573273852
 20
179.2168666237
 30
0.0
 11
227.3190573273852
 21
179.7168666237
 31
0.0
  0
LINE
  5
4B2
330
224
100
AcDbEntity
  8
02___PRT_ALL_AXES
  6
Continuous
 62
     7
100
AcDbLine
 10
227.3681078523185
 20
179.2168666237
 30
0.0
 11
227.3681078523185
 21
179.7168666237
 31
0.0
  0
LINE
  5
4B3
330
224
100
AcDbEntity
  8
02___PRT_ALL_AXES
  6
Continuous
 62
     7
100
AcDbLine
 10
228.0955144625852
 20
191.7168666237
 30
0.0
 11
228.0955144625852
 21
188.2168666237
 31
0.0
  0
LINE
  5
4B4
330
224
100
AcDbEntity
  8
02___PRT_ALL_AXES
  6
Continuous
 62
     7
100
AcDbLine
 10
228.0955144625852
 20
185.2168666237
 30
0.0
 11
228.0955144625852
 21
180.7168666237
 31
0.0
  0
LINE
  5
4B5
330
224
100
AcDbEntity
  8
7_ALL_FEATURES
  6
Continuous
 62
     7
100
AcDbLine
 10
254.8678805244519
 20
217.4668666237
 30
0.0
 11
185.8683351801852
 21
217.4668666237
 31
0.0
  0
LINE
  5
4B6
330
224
100
AcDbEntity
  8
7_ALL_FEATURES
  6
Continuous
 62
     7
100
AcDbLine
 10
185.8681078703185
 20
221.4668664213
 30
0.0
 11
254.8681078343186
 21
221.4668664213
 31
0.0
  0
LINE
  5
4B7
330
224
100
AcDbEntity
  8
7_ALL_FEATURES
  6
Continuous
 62
     7
100
AcDbLine
 10
173.4681995551185
 20
222.4668666237
 30
0.0
 11
267.2680161495185
 21
222.4668666237
 31
0.0
  0
LINE
  5
4B8
330
224
100
AcDbEntity
  8
7_ALL_FEATURES
  6
Continuous
 62
     7
100
AcDbLine
 10
172.9681078531185
 20
222.9668682378333
 30
0.0
 11
267.7681078515186
 21
222.9668682378333
 31
0.0
  0
LINE
  5
4B9
330
224
100
AcDbEntity
  8
7_ALL_FEATURES
  6
Continuous
 62
     7
100
AcDbLine
 10
254.8681126145852
 20
221.4668614190333
 30
0.0
 11
255.8681132049852
 21
222.4668617206333
 31
0.0
  0
LINE
  5
4BA
330
224
100
AcDbEntity
  8
7_ALL_FEATURES
  6
Continuous
 62
     7
100
AcDbLine
 10
246.9943281079185
 20
238.7168666237
 30
0.0
 11
246.9943281079185
 21
236.2168666237
 31
0.0
  0
LINE
  5
4BB
330
224
100
AcDbEntity
  8
02___PRT_ALL_AXES
  6
Continuous
 62
     7
100
AcDbLine
 10
247.0665926621852
 20
236.2168666237
 30
0.0
 11
247.0665926621852
 21
237.7168666237
 31
0.0
  0
LINE
  5
4BC
330
224
100
AcDbEntity
  8
7_ALL_FEATURES
  6
Continuous
 62
     7
100
AcDbLine
 10
248.3681078523185
 20
205.2168666237
 30
0.0
 11
248.3681078523185
 21
201.7168666237
 31
0.0
  0
LINE
  5
4BD
330
224
100
AcDbEntity
  8
7_ALL_FEATURES
  6
Continuous
 62
     7
100
AcDbLine
 10
248.3681078523185
 20
199.2168666237
 30
0.0
 11
248.3681078523185
 21
195.7168666237
 31
0.0
  0
LINE
  5
4BE
330
224
100
AcDbEntity
  8
7_ALL_FEATURES
  6
Continuous
 62
     7
100
AcDbLine
 10
267.2681048067186
 20
222.4668683723667
 30
0.0
 11
267.7681060911185
 21
222.9668697079666
 31
0.0
  0
LINE
  5
4BF
330
224
100
AcDbEntity
  8
02___PRT_ALL_AXES
  6
Continuous
 62
     7
100
AcDbLine
 10
227.3681078523185
 20
179.7168666237
 30
0.0
 11
227.5469422443185
 21
179.8957010157
 31
0.0
  0
LINE
  5
4C0
330
224
100
AcDbEntity
  8
02___PRT_ALL_AXES
  6
Continuous
 62
     7
100
AcDbLine
 10
259.5829570156519
 20
236.2168666237
 30
0.0
 11
246.9943281079185
 21
236.2168666237
 31
0.0
  0
LINE
  5
4C1
330
224
100
AcDbEntity
  8
02___PRT_ALL_AXES
  6
Continuous
 62
     7
100
AcDbLine
 10
193.7418875967185
 20
236.2168666237
 30
0.0
 11
181.1532586889852
 21
236.2168666237
 31
0.0
  0
LINE
  5
4C2
330
224
100
AcDbEntity
  8
02___PRT_ALL_AXES
  6
Continuous
 62
     7
100
AcDbLine
 10
193.6696230424519
 20
236.5668666237
 30
0.0
 11
193.7418875967185
 21
236.5668666237
 31
0.0
  0
LINE
  5
4C3
330
224
100
AcDbEntity
  8
02___PRT_ALL_AXES
  6
Continuous
 62
     7
100
AcDbLine
 10
246.9943281079185
 20
236.5668666237
 30
0.0
 11
247.0665926621852
 21
236.5668666237
 31
0.0
  0
LINE
  5
4C4
330
224
100
AcDbEntity
  8
7_ALL_FEATURES
  6
Continuous
 62
     7
100
AcDbLine
 10
251.3681078523185
 20
217.4668666237
 30
0.0
 11
251.3681078523185
 21
213.9668666237
 31
0.0
  0
LINE
  5
4C5
330
224
100
AcDbEntity
  8
7_ALL_FEATURES
  6
Continuous
 62
     7
100
AcDbLine
 10
251.3681078523185
 20
211.2168666237
 30
0.0
 11
251.3681078523185
 21
207.7168666237
 31
0.0
  0
LINE
  5
4C6
330
224
100
AcDbEntity
  8
02___PRT_ALL_AXES
  6
Continuous
 62
     7
100
AcDbLine
 10
186.9196402209852
 20
237.7168666237
 30
0.0
 11
193.7418875967185
 21
237.7168666237
 31
0.0
  0
LINE
  5
4C7
330
224
100
AcDbEntity
  8
02___PRT_ALL_AXES
  6
Continuous
 62
     7
100
AcDbLine
 10
246.9943281079185
 20
237.7168666237
 30
0.0
 11
253.8165754836519
 21
237.7168666237
 31
0.0
  0
LINE
  5
4C8
330
224
100
AcDbEntity
  8
7_ALL_FEATURES
  6
Continuous
 62
     7
100
AcDbLine
 10
246.9943281079185
 20
238.7168666237
 30
0.0
 11
193.7418875967185
 21
238.7168666237
 31
0.0
  0
LINE
  5
4C9
330
224
100
AcDbEntity
  8
7_ALL_FEATURES
  6
Continuous
 62
     7
100
AcDbLine
 10
267.7681078523185
 20
238.7168380267667
 30
0.0
 11
259.5829570156519
 21
238.7168666237
 31
0.0
  0
LINE
  5
4CA
330
224
100
AcDbEntity
  8
7_ALL_FEATURES
  6
Continuous
 62
     7
100
AcDbLine
 10
181.1532586889852
 20
238.7168666237
 30
0.0
 11
172.9681078523185
 21
238.7168372686333
 31
0.0
  0
LINE
  5
4CB
330
224
100
AcDbEntity
  8
02___PRT_ALL_AXES
  6
Continuous
 62
     7
100
AcDbLine
 10
160.3681078523185
 20
239.2168666237
 30
0.0
 11
280.3681078523185
 21
239.2168666237
 31
0.0
  0
LINE
  5
4CC
330
224
100
AcDbEntity
  8
7_ALL_FEATURES
  6
Continuous
 62
     7
100
AcDbLine
 10
160.3681078523185
 20
240.2168666237
 30
0.0
 11
280.3681078523185
 21
240.2168666237
 31
0.0
  0
LINE
  5
4CD
330
224
100
AcDbEntity
  8
02___PRT_ALL_AXES
  6
Continuous
 62
     7
100
AcDbLine
 10
253.0665926621852
 20
236.2168666237
 30
0.0
 11
253.0665926621852
 21
237.7168666237
 31
0.0
  0
LINE
  5
4CE
330
224
100
AcDbEntity
  8
02___PRT_ALL_AXES
  6
Continuous
 62
     7
100
AcDbLine
 10
253.8165926621852
 20
237.7168666237
 30
0.0
 11
253.8165926621852
 21
239.2168666237
 31
0.0
  0
LINE
  5
4CF
330
224
100
AcDbEntity
  8
7_ALL_FEATURES
  6
Continuous
 62
     7
100
AcDbLine
 10
254.8681078523185
 20
221.4668661813
 30
0.0
 11
254.8681078523185
 21
217.4668666237
 31
0.0
  0
LINE
  5
4D0
330
224
100
AcDbEntity
  8
7_ALL_FEATURES
  6
Continuous
 62
     7
100
AcDbLine
 10
254.8681078523185
 20
213.9668666237
 30
0.0
 11
254.8681078523185
 21
211.2168666237
 31
0.0
  0
LINE
  5
4D1
330
224
100
AcDbEntity
  8
7_ALL_FEATURES
  6
Continuous
 62
     7
100
AcDbLine
 10
254.8681078523185
 20
207.7168666237
 30
0.0
 11
254.8681078523185
 21
205.2168666237
 31
0.0
  0
LINE
  5
4D2
330
224
100
AcDbEntity
  8
7_ALL_FEATURES
  6
Continuous
 62
     7
100
AcDbLine
 10
254.8681078523185
 20
201.7168666237
 30
0.0
 11
254.8681078523185
 21
199.2168666237
 31
0.0
  0
LINE
  5
4D3
330
224
100
AcDbEntity
  8
7_ALL_FEATURES
  6
Continuous
 62
     7
100
AcDbLine
 10
254.8681078523185
 20
195.7168666237
 30
0.0
 11
254.8681078523185
 21
192.7168681506333
 31
0.0
  0
LINE
  5
4D4
330
224
100
AcDbEntity
  8
7_ALL_FEATURES
  6
Continuous
 62
     7
100
AcDbLine
 10
253.8681133204519
 20
191.7168596902333
 30
0.0
 11
254.8681150016519
 21
192.7168610012999
 31
0.0
  0
LINE
  5
4D5
330
224
100
AcDbEntity
  8
7_ALL_FEATURES
  6
Continuous
 62
     7
100
AcDbLine
 10
162.3681078523185
 20
242.2168666237
 30
0.0
 11
278.3681078523185
 21
242.2168666237
 31
0.0
  0
LINE
  5
4D6
330
224
100
AcDbEntity
  8
7_ALL_FEATURES
  6
Continuous
 62
     7
100
AcDbLine
 10
259.5829570156519
 20
238.7168666237
 30
0.0
 11
259.5829570156519
 21
236.2168666237
 31
0.0
  0
LINE
  5
4D7
330
224
100
AcDbEntity
  8
02___PRT_ALL_AXES
  6
Continuous
 62
     7
100
AcDbLine
 10
267.7681078523185
 20
238.7168380267667
 30
0.0
 11
267.7681078523185
 21
222.9668679467666
 31
0.0
  0
LINE
  5
4D8
330
224
100
AcDbEntity
  8
7_ALL_FEATURES
  6
Continuous
 62
     7
100
AcDbLine
 10
267.2680795571185
 20
239.2168666237
 30
0.0
 11
267.7681078523185
 21
238.7168380267667
 31
0.0
  0
LINE
  5
4D9
330
224
100
AcDbEntity
  8
7_ALL_FEATURES
  6
Continuous
 62
     7
100
AcDbLine
 10
280.3681078523185
 20
239.2168666237
 30
0.0
 11
280.3681078523185
 21
240.2168666237
 31
0.0
  0
LINE
  5
4DA
330
224
100
AcDbEntity
  8
7_ALL_FEATURES
  6
Continuous
 62
     7
100
AcDbLine
 10
280.3681078523185
 20
240.2168666237
 30
0.0
 11
278.3681078523185
 21
242.2168666237
 31
0.0
  0
LINE
  5
4DB
330
224
100
AcDbEntity
  8
7_ALL_FEATURES
  6
Continuous
 62
     7
100
AcDbLine
 10
284.7691235554
 20
116.3878048078
 30
0.0
 11
284.7821648274
 21
117.0577731076
 31
0.0
  0
LINE
  5
4DC
330
224
100
AcDbEntity
  8
7_ALL_FEATURES
  6
Continuous
 62
     7
100
AcDbLine
 10
292.7910188256
 20
157.2018057328
 30
0.0
 11
284.7821648274
 21
117.0577731076
 31
0.0
  0
LINE
  5
4DD
330
224
100
AcDbEntity
  8
7_ALL_FEATURES
  6
Continuous
 62
     7
100
AcDbLine
 10
294.1774419282
 20
157.7894947339
 30
0.0
 11
286.43554973
 21
118.9835965296
 31
0.0
  0
LINE
  5
4DE
330
224
100
AcDbEntity
  8
7_ALL_FEATURES
  6
Continuous
 62
     7
100
AcDbLine
 10
292.7910188256
 20
157.2018057328
 30
0.0
 11
294.1774419282
 21
157.7894947339
 31
0.0
  0
LINE
  5
4E4
330
224
100
AcDbEntity
  8
02___PRT_ALL_AXES
  6
Continuous
 62
     7
100
AcDbLine
 10
298.5225138515
 20
137.9290534971
 30
0.0
 11
298.508141936
 21
137.7926263187
 31
0.0
  0
LINE
  5
4E6
330
224
100
AcDbEntity
  8
7_ALL_FEATURES
  6
Continuous
 62
     7
100
AcDbLine
 10
284.7821648274
 20
117.0577731076
 30
0.0
 11
286.43554973
 21
118.9835965296
 31
0.0
  0
LINE
  5
4E7
330
224
100
AcDbEntity
  8
7_ALL_FEATURES
  6
Continuous
 62
     7
100
AcDbLine
 10
311.1428571826
 20
96.8918710512
 30
0.0
 11
310.5043796483
 21
97.405151544
 31
0.0
  0
LINE
  5
4E8
330
224
100
AcDbEntity
  8
02___PRT_ALL_AXES
  6
Continuous
 62
     7
100
AcDbLine
 10
305.9916211446
 20
137.5131515566
 30
0.0
 11
306.0059930601
 21
137.649578735
 31
0.0
  0
LINE
  5
4E9
330
224
100
AcDbEntity
  8
7_ALL_FEATURES
  6
Continuous
 62
     7
100
AcDbLine
 10
307.2921890755
 20
112.587949732
 30
0.0
 11
307.2746917682
 21
111.6890618583
 31
0.0
  0
LINE
  5
4EA
330
224
100
AcDbEntity
  8
7_ALL_FEATURES
  6
Continuous
 62
     7
100
AcDbLine
 10
307.2290473162
 20
109.344172809
 30
0.0
 11
307.1964441362
 21
107.6692520595
 31
0.0
  0
LINE
  5
4EB
330
224
100
AcDbEntity
  8
7_ALL_FEATURES
  6
Continuous
 62
     7
100
AcDbLine
 10
307.1507996842
 20
105.3243630101
 30
0.0
 11
307.1116759021
 21
103.3144598495
 31
0.0
  0
LINE
  5
4EC
330
224
100
AcDbEntity
  8
02___PRT_ALL_AXES
  6
Continuous
 62
     7
100
AcDbLine
 10
310.3562911442
 20
135.1203617109
 30
0.0
 11
310.3476539609
 21
134.6766443374
 31
0.0
  0
LINE
  5
4ED
330
224
100
AcDbEntity
  8
7_ALL_FEATURES
  6
Continuous
 62
     7
100
AcDbLine
 10
310.0940770429
 20
136.100957892
 30
0.0
 11
310.186473361
 21
136.9442225652
 31
0.0
  0
LINE
  5
4EE
330
224
100
AcDbEntity
  8
02___PRT_ALL_AXES
  6
Continuous
 62
     7
100
AcDbLine
 10
284.7691235554
 20
116.3878048078
 30
0.0
 11
374.3984110728
 21
111.3969815215
 31
0.0
  0
LINE
  5
4EF
330
224
100
AcDbEntity
  8
7_ALL_FEATURES
  6
Continuous
 62
     7
100
AcDbLine
 10
284.7821648274
 20
117.0577731076
 30
0.0
 11
374.4114523448
 21
112.0669498213
 31
0.0
  0
LINE
  5
4F0
330
224
100
AcDbEntity
  8
7_ALL_FEATURES
  6
Continuous
 62
     7
100
AcDbLine
 10
286.43554973
 20
118.9835965296
 30
0.0
 11
373.0771943301
 21
114.1591340195
 31
0.0
  0
LINE
  5
4F6
330
224
100
AcDbEntity
  8
02___PRT_ALL_AXES
  6
Continuous
 62
     7
100
AcDbLine
 10
356.7978676113
 20
134.6053401243
 30
0.0
 11
356.9827991766
 21
134.624564625
 31
0.0
  0
LINE
  5
4F8
330
224
100
AcDbEntity
  8
02___PRT_ALL_AXES
  6
Continuous
 62
     7
100
AcDbLine
 10
356.8474840841
 20
134.2153871134
 30
0.0
 11
356.8385635225
 21
133.7571117619
 31
0.0
  0
LINE
  5
4F9
330
224
100
AcDbEntity
  8
7_ALL_FEATURES
  6
Continuous
 62
     7
100
AcDbLine
 10
357.1475199993
 20
135.1778081773
 30
0.0
 11
357.0551216253
 21
134.3344378884
 31
0.0
  0
LINE
  5
4FA
330
224
100
AcDbEntity
  8
7_ALL_FEATURES
  6
Continuous
 62
     7
100
AcDbLine
 10
359.0325979776
 20
111.5916047009
 30
0.0
 11
359.0148903626
 21
110.6819127094
 31
0.0
  0
LINE
  5
4FB
330
224
100
AcDbEntity
  8
7_ALL_FEATURES
  6
Continuous
 62
     7
100
AcDbLine
 10
358.9692459106
 20
108.3370236601
 30
0.0
 11
358.9366427306
 21
106.6621029106
 31
0.0
  0
LINE
  5
4FC
330
224
100
AcDbEntity
  8
7_ALL_FEATURES
  6
Continuous
 62
     7
100
AcDbLine
 10
358.8909982786
 20
104.3172138613
 30
0.0
 11
358.8518744965
 21
102.3073107006
 31
0.0
  0
LINE
  5
4FD
330
224
100
AcDbEntity
  8
02___PRT_ALL_AXES
  6
Continuous
 62
     7
100
AcDbLine
 10
361.2630151137
 20
134.4354771967
 30
0.0
 11
361.2486431982
 21
134.2990500183
 31
0.0
  0
LINE
  5
4FE
330
224
100
AcDbEntity
  8
7_ALL_FEATURES
  6
Continuous
 62
     7
100
AcDbLine
 10
374.4114523448
 20
112.0669498213
 30
0.0
 11
373.0771943301
 21
114.1591340195
 31
0.0
  0
LINE
  5
4FF
330
224
100
AcDbEntity
  8
7_ALL_FEATURES
  6
Continuous
 62
     7
100
AcDbLine
 10
380.8190865284
 20
152.9650322237
 30
0.0
 11
294.1774419282
 21
157.7894947339
 31
0.0
  0
LINE
  5
500
330
224
100
AcDbEntity
  8
02___PRT_ALL_AXES
  6
Continuous
 62
     7
100
AcDbLine
 10
368.7321224068
 20
134.0195752562
 30
0.0
 11
368.7464943223
 21
134.1560024346
 31
0.0
  0
LINE
  5
501
330
224
100
AcDbEntity
  8
7_ALL_FEATURES
  6
Continuous
 62
     7
100
AcDbLine
 10
354.5738058756
 20
96.046467268
 30
0.0
 11
355.2317703988
 21
96.5345085802
 31
0.0
  0
LINE
  5
503
330
224
100
AcDbEntity
  8
7_ALL_FEATURES
  6
Continuous
 62
     7
100
AcDbLine
 10
374.3984110728
 20
111.3969815215
 30
0.0
 11
374.4114523448
 21
112.0669498213
 31
0.0
  0
LINE
  5
504
330
224
100
AcDbEntity
  8
7_ALL_FEATURES
  6
Continuous
 62
     7
100
AcDbLine
 10
373.0771943301
 20
114.1591340195
 30
0.0
 11
380.8190865284
 21
152.9650322237
 31
0.0
  0
LINE
  5
505
330
224
100
AcDbEntity
  8
7_ALL_FEATURES
  6
Continuous
 62
     7
100
AcDbLine
 10
374.4114523448
 20
112.0669498213
 30
0.0
 11
382.420306343
 21
152.2109824465
 31
0.0
  0
LINE
  5
506
330
224
100
AcDbEntity
  8
02___PRT_ALL_AXES
  6
Continuous
 62
     7
100
AcDbLine
 10
374.3984110728
 20
111.3969815215
 30
0.0
 11
382.407265071
 21
151.5410141466
 31
0.0
  0
LINE
  5
507
330
224
100
AcDbEntity
  8
7_ALL_FEATURES
  6
Continuous
 62
     7
100
AcDbLine
 10
382.420306343
 20
152.2109824465
 30
0.0
 11
380.8190865284
 21
152.9650322237
 31
0.0
  0
LINE
  5
508
330
224
100
AcDbEntity
  8
7_ALL_FEATURES
  6
Continuous
 62
     7
100
AcDbLine
 10
382.407265071
 20
151.5410141466
 30
0.0
 11
382.420306343
 21
152.2109824465
 31
0.0
  0
CIRCLE
  5
509
330
224
100
AcDbEntity
  8
7_ALL_FEATURES
  6
Continuous
 62
     7
100
AcDbCircle
 10
85.0631533953333
 20
97.00520788289117
 30
0.0
 40
31.87500331093333
  0
CIRCLE
  5
50A
330
224
100
AcDbEntity
  8
7_ALL_FEATURES
  6
Continuous
 62
     7
100
AcDbCircle
 10
85.0631533953333
 20
97.00520788289117
 30
0.0
 40
31.375
  0
CIRCLE
  5
50B
330
224
100
AcDbEntity
  8
7_ALL_FEATURES
  6
Continuous
 62
     7
100
AcDbCircle
 10
85.0631533953333
 20
97.00520788289117
 30
0.0
 40
31.0
  0
CIRCLE
  5
50C
330
224
100
AcDbEntity
  8
7_ALL_FEATURES
  6
Continuous
 62
     7
100
AcDbCircle
 10
85.0631533953333
 20
97.00520788289117
 30
0.0
 40
30.50000026533333
  0
CIRCLE
  5
50D
330
224
100
AcDbEntity
  8
02___PRT_ALL_AXES
  6
Continuous
 62
     7
100
AcDbCircle
 10
43.06315339533329
 20
97.00520788289117
 30
0.0
 40
5.0
  0
CIRCLE
  5
50E
330
224
100
AcDbEntity
  8
02___PRT_ALL_AXES
  6
Continuous
 62
     7
100
AcDbCircle
 10
127.0631533953333
 20
97.00520788289117
 30
0.0
 40
5.0
  0
CIRCLE
  5
50F
330
224
100
AcDbEntity
  8
02___PRT_ALL_AXES
  6
Continuous
 62
     7
100
AcDbCircle
 10
127.0631533953333
 20
97.00520788289117
 30
0.0
 40
3.5
  0
CIRCLE
  5
510
330
224
100
AcDbEntity
  8
02___PRT_ALL_AXES
  6
Continuous
 62
     7
100
AcDbCircle
 10
43.06315339533329
 20
97.00520788289117
 30
0.0
 40
3.5
  0
ARC
  5
511
330
224
100
AcDbEntity
  8
7_ALL_FEATURES
  6
Continuous
 62
     7
100
AcDbCircle
 10
42.52643064146667
 20
257.9165885211667
 30
0.0
 40
24.93538471106666
100
AcDbArc
 50
309.647999365
 51
311.4159325296999
  0
ARC
  5
512
330
224
100
AcDbEntity
  8
7_ALL_FEATURES
  6
Continuous
 62
     7
100
AcDbCircle
 10
127.5940401792
 20
257.9097631926333
 30
0.0
 40
24.92640559893333
100
AcDbArc
 50
228.5837490182
 51
230.3523190869999
  0
ARC
  5
513
330
224
100
AcDbEntity
  8
7_ALL_FEATURES
  6
Continuous
 62
     7
100
AcDbCircle
 10
56.64556474600001
 20
234.4962826321
 30
0.0
 40
11.59284968573333
100
AcDbArc
 50
155.9710679167998
 51
158.6497714450998
  0
ARC
  5
514
330
224
100
AcDbEntity
  8
7_ALL_FEATURES
  6
Continuous
 62
     7
100
AcDbCircle
 10
113.8187674196
 20
234.6376094857
 30
0.0
 40
11.22657287386667
100
AcDbArc
 50
21.30652267070002
 51
24.07263796729988
  0
ARC
  5
515
330
224
100
AcDbEntity
  8
02___PRT_ALL_AXES
  6
Continuous
 62
     7
100
AcDbCircle
 10
88.56315339533334
 20
179.2168666237
 30
0.0
 40
3.5
100
AcDbArc
 50
270.0
 51
0.0
  0
ARC
  5
516
330
224
100
AcDbEntity
  8
02___PRT_ALL_AXES
  6
Continuous
 62
     7
100
AcDbCircle
 10
81.56315339533334
 20
179.2168666237
 30
0.0
 40
3.5
100
AcDbArc
 50
180.0
 51
270.0
  0
ARC
  5
517
330
224
100
AcDbEntity
  8
02___PRT_ALL_AXES
  6
Continuous
 62
     7
100
AcDbCircle
 10
78.4727432456
 20
180.3694329691667
 30
0.0
 40
0.7455410386666667
100
AcDbArc
 50
238.2447371666997
 51
241.0795905091003
  0
ARC
  5
518
330
224
100
AcDbEntity
  8
7_ALL_FEATURES
  6
Continuous
 62
     7
100
AcDbCircle
 10
177.8149443792519
 20
257.9358163973
 30
0.0
 40
24.960680092
100
AcDbArc
 50
309.6488952558001
 51
311.415036639
  0
ARC
  5
519
330
224
100
AcDbEntity
  8
7_ALL_FEATURES
  6
Continuous
 62
     7
100
AcDbCircle
 10
262.8812328104519
 20
257.8889902457
 30
0.0
 40
24.89907759746666
100
AcDbArc
 50
228.5827783932999
 51
230.3532897118998
  0
ARC
  5
51A
330
224
100
AcDbEntity
  8
7_ALL_FEATURES
  6
Continuous
 62
     7
100
AcDbCircle
 10
191.9450264821852
 20
234.4985791134333
 30
0.0
 40
11.58689784293333
100
AcDbArc
 50
155.9703798064002
 51
158.6504595555002
  0
ARC
  5
51B
330
224
100
AcDbEntity
  8
7_ALL_FEATURES
  6
Continuous
 62
     7
100
AcDbCircle
 10
249.1190300900519
 20
234.6356478714333
 30
0.0
 40
11.23165674373333
100
AcDbArc
 50
21.3071488161001
 51
24.07201182189999
  0
ARC
  5
51C
330
224
100
AcDbEntity
  8
02___PRT_ALL_AXES
  6
Continuous
 62
     7
100
AcDbCircle
 10
223.8681078523185
 20
179.2168666237
 30
0.0
 40
3.5
100
AcDbArc
 50
270.0
 51
0.0
  0
ARC
  5
51D
330
224
100
AcDbEntity
  8
02___PRT_ALL_AXES
  6
Continuous
 62
     7
100
AcDbCircle
 10
216.8681078523185
 20
179.2168666237
 30
0.0
 40
3.5
100
AcDbArc
 50
180.0
 51
270.0
  0
ARC
  5
51E
330
224
100
AcDbEntity
  8
02___PRT_ALL_AXES
  6
Continuous
 62
     7
100
AcDbCircle
 10
226.9585187347186
 20
180.3694316649
 30
0.0
 40
0.7455395426666667
100
AcDbArc
 50
298.9204086754952
 51
301.7552064422975
  0
ARC
  5
51F
330
224
100
AcDbEntity
  8
7_ALL_FEATURES
  6
Continuous
 62
     7
100
AcDbCircle
 10
335.4862040072
 20
149.1856099072
 30
0.0
 40
45.5179177087
100
AcDbArc
 50
279.8955940801
 51
281.5168767794
  0
ARC
  5
520
330
224
100
AcDbEntity
  8
7_ALL_FEATURES
  6
Continuous
 62
     7
100
AcDbCircle
 10
335.7227834551
 20
148.0096404805
 30
0.0
 40
44.3183907834
100
AcDbArc
 50
281.5207214724999
 51
281.6559185291
  0
ARC
  5
521
330
224
100
AcDbEntity
  8
7_ALL_FEATURES
  6
Continuous
 62
     7
100
AcDbCircle
 10
335.8503415109
 20
147.3957152391
 30
0.0
 40
43.6913545412
100
AcDbArc
 50
281.6547462383
 51
282.2778511711
  0
ARC
  5
522
330
224
100
AcDbEntity
  8
7_ALL_FEATURES
  6
Continuous
 62
     7
100
AcDbCircle
 10
338.8175804341
 20
123.5166497861
 30
0.0
 40
31.7586404002
100
AcDbArc
 50
288.7683334759
 51
289.7985005818
  0
ARC
  5
523
330
224
100
AcDbEntity
  8
7_ALL_FEATURES
  6
Continuous
 62
     7
100
AcDbCircle
 10
321.3526986333
 20
140.8336438862
 30
0.0
 40
31.5095629109
100
AcDbArc
 50
241.0596102907
 51
241.6756186771
  0
ARC
  5
524
330
224
100
AcDbEntity
  8
7_ALL_FEATURES
  6
Continuous
 62
     7
100
AcDbCircle
 10
321.0213370345
 20
139.4948588003
 30
0.0
 40
30.2440821739
100
AcDbArc
 50
240.3445342715
 51
241.059923571
  0
ARC
  5
525
330
224
100
AcDbEntity
  8
7_ALL_FEATURES
  6
Continuous
 62
     7
100
AcDbCircle
 10
339.1662546701
 20
120.7808966274
 30
0.0
 40
29.2793032531
100
AcDbArc
 50
289.7925023954
 51
291.0334094152
  0
ARC
  5
526
330
224
100
AcDbEntity
  8
7_ALL_FEATURES
  6
Continuous
 62
     7
100
AcDbCircle
 10
345.3997954469
 20
109.8648896978
 30
0.0
 40
16.5646918678
100
AcDbArc
 50
303.5951501802
 51
303.8875229097
  0
ARC
  5
527
330
224
100
AcDbEntity
  8
7_ALL_FEATURES
  6
Continuous
 62
     7
100
AcDbCircle
 10
320.4337473269
 20
109.7767317388
 30
0.0
 40
15.86340304
100
AcDbArc
 50
231.2497043515
 51
234.1348647864
  0
ARC
  5
528
330
224
100
AcDbEntity
  8
7_ALL_FEATURES
  6
Continuous
 62
     7
100
AcDbCircle
 10
346.0227458018
 20
108.9546153942
 30
0.0
 40
15.4617105404
100
AcDbArc
 50
303.8519649154
 51
306.5496035174
  0
ARC
  5
529
330
224
100
AcDbEntity
  8
7_ALL_FEATURES
  6
Continuous
 62
     7
100
AcDbCircle
 10
321.4806492983
 20
130.3812132375
 30
0.0
 40
12.661936558
100
AcDbArc
 50
126.553377499
 51
128.4530571358
  0
ARC
  5
52A
330
224
100
AcDbEntity
  8
7_ALL_FEATURES
  6
Continuous
 62
     7
100
AcDbCircle
 10
345.6565169981
 20
130.0446363061
 30
0.0
 40
12.490612648
100
AcDbArc
 50
49.27949091439999
 51
51.22341653579999
  0
ARC
  5
52B
330
224
100
AcDbEntity
  8
7_ALL_FEATURES
  6
Continuous
 62
     7
100
AcDbCircle
 10
347.1553152628
 20
137.9196889505
 30
0.0
 40
10.4431066669
100
AcDbArc
 50
312.2470563984
 51
312.45994017
  0
ARC
  5
52C
330
224
100
AcDbEntity
  8
7_ALL_FEATURES
  6
Continuous
 62
     7
100
AcDbCircle
 10
320.080918563
 20
138.3396715588
 30
0.0
 40
10.2950651867
100
AcDbArc
 50
224.5366700074
 51
225.4445816902
  0
ARC
  5
52D
330
224
100
AcDbEntity
  8
7_ALL_FEATURES
  6
Continuous
 62
     9
100
AcDbCircle
 10
351.0621699139
 20
131.2567309385
 30
0.0
 40
6.5920274681
100
AcDbArc
 50
27.1242904932
 51
28.3469595454
  0
ARC
  5
52E
330
224
100
AcDbEntity
  8
7_ALL_FEATURES
  6
Continuous
 62
     9
100
AcDbCircle
 10
316.0114208004
 20
131.9447376936
 30
0.0
 40
6.5798177757
100
AcDbArc
 50
149.7306688491
 51
150.5589377851
  0
ARC
  5
52F
330
224
100
AcDbEntity
  8
7_ALL_FEATURES
  6
Continuous
 62
     9
100
AcDbCircle
 10
315.9413616688
 20
131.9844160287
 30
0.0
 40
6.4993029446
100
AcDbArc
 50
150.559980859
 51
150.8876524909
  0
ARC
  5
530
330
224
100
AcDbEntity
  8
7_ALL_FEATURES
  6
Continuous
 62
     9
100
AcDbCircle
 10
315.8381236353
 20
132.0414768642
 30
0.0
 40
6.3813458047
100
AcDbArc
 50
150.884280514
 51
152.3368461736
  0
ARC
  5
531
330
224
100
AcDbEntity
  8
7_ALL_FEATURES
  6
Continuous
 62
     9
100
AcDbCircle
 10
351.2556366596
 20
131.3551481352
 30
0.0
 40
6.3749649935
100
AcDbArc
 50
25.3484478669
 51
26.8966100652
  0
ARC
  5
532
330
224
100
AcDbEntity
  8
02___PRT_ALL_AXES
  6
Continuous
 62
     7
100
AcDbCircle
 10
315.5717961378
 20
134.1262170777
 30
0.0
 40
5.540508107
100
AcDbArc
 50
155.8200584886
 51
160.5259963537
  0
ARC
  5
533
330
224
100
AcDbEntity
  8
7_ALL_FEATURES
  6
Continuous
 62
     7
100
AcDbCircle
 10
353.5346774702
 20
112.5042834209
 30
0.0
 40
5.5175824599
100
AcDbArc
 50
342.0054879059
 51
349.9068997146001
  0
ARC
  5
534
330
224
100
AcDbEntity
  8
02___PRT_ALL_AXES
  6
Continuous
 62
     7
100
AcDbCircle
 10
351.6442639936
 20
133.4403788958
 30
0.0
 40
5.4911431345
100
AcDbArc
 50
17.0919991788
 51
20.39727890130001
  0
ARC
  5
535
330
224
100
AcDbEntity
  8
7_ALL_FEATURES
  6
Continuous
 62
     7
100
AcDbCircle
 10
353.657228246
 20
108.4351726842
 30
0.0
 40
5.3129100279
100
AcDbArc
 50
358.9482154858
 51
10.2178978956
  0
ARC
  5
536
330
224
100
AcDbEntity
  8
7_ALL_FEATURES
  6
Continuous
 62
     7
100
AcDbCircle
 10
353.578980614
 20
104.4153628854
 30
0.0
 40
5.3129100279
100
AcDbArc
 50
358.9482154858
 51
10.2178978956
  0
ARC
  5
537
330
224
100
AcDbEntity
  8
02___PRT_ALL_AXES
  6
Continuous
 62
     7
100
AcDbCircle
 10
351.9036590958
 20
133.5198085268
 30
0.0
 40
5.219859556
100
AcDbArc
 50
12.8892574856
 51
17.0954727082
  0
ARC
  5
538
330
224
100
AcDbEntity
  8
7_ALL_FEATURES
  6
Continuous
 62
     7
100
AcDbCircle
 10
352.4338684001
 20
135.6481592979
 30
0.0
 40
5.1001332043
100
AcDbArc
 50
344.0242608674
 51
348.6979273242999
  0
ARC
  5
539
330
224
100
AcDbEntity
  8
02___PRT_ALL_AXES
  6
Continuous
 62
     7
100
AcDbCircle
 10
352.0833589825
 20
133.5622942007
 30
0.0
 40
5.0352105699
100
AcDbArc
 50
10.7554350036
 51
12.8741235436
  0
ARC
  5
53A
330
224
100
AcDbEntity
  8
02___PRT_ALL_AXES
  6
Continuous
 62
     7
100
AcDbCircle
 10
352.1691493164
 20
133.5787360986
 30
0.0
 40
4.9478590013
100
AcDbArc
 50
8.7773900176
 51
10.7537778746
  0
ARC
  5
53B
330
224
100
AcDbEntity
  8
7_ALL_FEATURES
  6
Continuous
 62
     7
100
AcDbCircle
 10
352.0780654153
 20
134.3127419498
 30
0.0
 40
4.7704099796
100
AcDbArc
 50
347.9800844444
 51
358.8298701250001
  0
ARC
  5
53C
330
224
100
AcDbEntity
  8
7_ALL_FEATURES
  6
Continuous
 62
     7
100
AcDbCircle
 10
315.0814498548
 20
135.0293212834
 30
0.0
 40
4.726033399
100
AcDbArc
 50
178.8954483536
 51
188.4426828783
  0
ARC
  5
53D
330
224
100
AcDbEntity
  8
7_ALL_FEATURES
  6
Continuous
 62
     7
100
AcDbCircle
 10
352.1434030396
 20
134.3063869072
 30
0.0
 40
4.7049588803
100
AcDbArc
 50
358.8909956436
 51
3.6568078616
  0
ARC
  5
53E
330
224
100
AcDbEntity
  8
02___PRT_ALL_AXES
  6
Continuous
 62
     7
100
AcDbCircle
 10
301.4209979834
 20
140.4860645816
 30
0.0
 40
4.3152673848
100
AcDbArc
 50
245.6341373162
 51
248.8067842109
  0
ARC
  5
53F
330
224
100
AcDbEntity
  8
02___PRT_ALL_AXES
  6
Continuous
 62
     7
100
AcDbCircle
 10
364.1614992456
 20
136.9924882811
 30
0.0
 40
4.3152673848
100
AcDbArc
 50
245.6341373162
 51
248.8067842109
  0
ARC
  5
540
330
224
100
AcDbEntity
  8
02___PRT_ALL_AXES
  6
Continuous
 62
     7
100
AcDbCircle
 10
305.0556392975
 20
137.1417736466
 30
0.0
 40
0.9498330439
100
AcDbArc
 50
21.13021953
 51
26.652150419
  0
ARC
  5
541
330
224
100
AcDbEntity
  8
02___PRT_ALL_AXES
  6
Continuous
 62
     7
100
AcDbCircle
 10
367.7961405597
 20
133.6481973462
 30
0.0
 40
0.9498330439
100
AcDbArc
 50
21.1302195299
 51
26.652150419
  0
ARC
  5
542
330
224
100
AcDbEntity
  8
02___PRT_ALL_AXES
  6
Continuous
 62
     7
100
AcDbCircle
 10
299.3880826595
 20
137.8073766277
 30
0.0
 40
0.8839965497
100
AcDbArc
 50
198.7849176792
 51
200.7731951509
  0
ARC
  5
543
330
224
100
AcDbEntity
  8
02___PRT_ALL_AXES
  6
Continuous
 62
     7
100
AcDbCircle
 10
362.1285839218
 20
134.3138003274
 30
0.0
 40
0.8839965498
100
AcDbArc
 50
198.7849176793
 51
200.7731951506
  0
ARC
  5
544
330
224
100
AcDbEntity
  8
02___PRT_ALL_AXES
  6
Continuous
 62
     7
100
AcDbCircle
 10
305.1226043708
 20
137.1682424975
 30
0.0
 40
0.8778289123
100
AcDbArc
 50
17.3362886566
 51
21.0943851813
  0
ARC
  5
545
330
224
100
AcDbEntity
  8
02___PRT_ALL_AXES
  6
Continuous
 62
     7
100
AcDbCircle
 10
367.863105633
 20
133.6746661971
 30
0.0
 40
0.8778289124
100
AcDbArc
 50
17.3362886567
 51
21.0943851812
  0
SPLINE
  5
546
330
224
100
AcDbEntity
  8
02___PRT_ALL_AXES
  6
Continuous
 62
     7
100
AcDbSpline
210
0.0
220
0.0
230
1.0
 70
     8
 71
     3
 72
    10
 73
     6
 74
     0
 42
0.000000001
 43
0.0000001
 40
0.0
 40
0.0
 40
0.0
 40
0.0
 40
0.5432113531
 40
0.7835899175
 40
1.0
 40
1.0
 40
1.0
 40
1.0
 10
92.7905600056
 20
180.7168666237
 30
0.0
 10
92.7074321096
 20
180.5562758605
 30
0.0
 10
92.57946935119999
 20
180.3281499175666
 30
0.0
 10
92.38686570253333
 20
180.0563025003667
 30
0.0
 10
92.287162748
 20
179.9409232365
 30
0.0
 10
92.23624647613333
 20
179.8899580651666
 30
0.0
  0
SPLINE
  5
547
330
224
100
AcDbEntity
  8
02___PRT_ALL_AXES
  6
Continuous
 62
     7
100
AcDbSpline
210
0.0
220
0.0
230
1.0
 70
     8
 71
     3
 72
    10
 73
     6
 74
     0
 42
0.000000001
 43
0.0000001
 40
0.0
 40
0.0
 40
0.0
 40
0.0
 40
0.5432113531
 40
0.7835899175
 40
1.0
 40
1.0
 40
1.0
 40
1.0
 10
77.33574678493333
 20
180.7168666237
 30
0.0
 10
77.41887468093334
 20
180.5562758605
 30
0.0
 10
77.54683743946667
 20
180.3281499175666
 30
0.0
 10
77.73944108799999
 20
180.0563025003667
 30
0.0
 10
77.83914404266666
 20
179.9409232365
 30
0.0
 10
77.8900603144
 20
179.8899580651666
 30
0.0
  0
SPLINE
  5
548
330
224
100
AcDbEntity
  8
02___PRT_ALL_AXES
  6
Continuous
 62
     7
100
AcDbSpline
210
0.0
220
0.0
230
1.0
 70
     8
 71
     3
 72
    23
 73
    19
 74
     0
 42
0.000000001
 43
0.0000001
 40
0.0
 40
0.0
 40
0.0
 40
0.0
 40
0.1041170889
 40
0.1987311506
 40
0.2791747916
 40
0.3449979218
 40
0.3976280174
 40
0.4391112132
 40
0.4720285887
 40
0.5000276534
 40
0.5280319966
 40
0.5609638799
 40
0.6024544255
 40
0.6550865092
 40
0.720913556
 40
0.8013534514
 40
0.8959302724
 40
1.0
 40
1.0
 40
1.0
 40
1.0
 10
78.11220392026667
 20
179.2168666237
 30
0.0
 10
78.11220392026667
 20
179.1615126445
 30
0.0
 10
78.1166918916
 20
179.0557938450333
 30
0.0
 10
78.13590763
 20
178.9084249585
 30
0.0
 10
78.1644386456
 20
178.7833530102333
 30
0.0
 10
78.19919426626666
 20
178.6832176454333
 30
0.0
 10
78.23792849146668
 20
178.6071291174333
 30
0.0
 10
78.2794186092
 20
178.5532014390333
 30
0.0
 10
78.3235936036
 20
178.5197339509
 30
0.0
 10
78.3710719476
 20
178.5078260449
 30
0.0
 10
78.4185503948
 20
178.5197724441
 30
0.0
 10
78.46270383706667
 20
178.5532915653
 30
0.0
 10
78.5041795856
 20
178.6072421631667
 30
0.0
 10
78.54290680413334
 20
178.6833425191666
 30
0.0
 10
78.57764567933333
 20
178.7834849042333
 30
0.0
 10
78.60615560906666
 20
178.9085411137
 30
0.0
 10
78.62535750173333
 20
179.0558640566333
 30
0.0
 10
78.62984201053332
 20
179.1615378241
 30
0.0
 10
78.62984201053332
 20
179.2168666237
 30
0.0
  0
SPLINE
  5
549
330
224
100
AcDbEntity
  8
02___PRT_ALL_AXES
  6
Continuous
 62
     7
100
AcDbSpline
210
0.0
220
0.0
230
1.0
 70
     8
 71
     3
 72
    10
 73
     6
 74
     0
 42
0.000000001
 43
0.0000001
 40
0.0
 40
0.0
 40
0.0
 40
0.0
 40
0.2421734631
 40
0.6149310735
 40
1.0
 40
1.0
 40
1.0
 40
1.0
 10
90.669239662
 20
179.7168666237
 30
0.0
 10
90.85599627973333
 20
179.7545971582333
 30
0.0
 10
91.3233659392
 20
179.8865042739667
 30
0.0
 10
92.04013996600001
 20
180.2195209830333
 30
0.0
 10
92.54320008066667
 20
180.5419567434333
 30
0.0
 10
92.7905600056
 20
180.7168666237
 30
0.0
  0
SPLINE
  5
54A
330
224
100
AcDbEntity
  8
02___PRT_ALL_AXES
  6
Continuous
 62
     7
100
AcDbSpline
210
0.0
220
0.0
230
1.0
 70
     8
 71
     3
 72
    17
 73
    13
 74
     0
 42
0.000000001
 43
0.0000001
 40
0.0
 40
0.0
 40
0.0
 40
0.0
 40
0.0756330934
 40
0.1477259157
 40
0.2767176744
 40
0.3915979064
 40
0.500051026
 40
0.6084998144
 40
0.7233726472
 40
0.8523499488
 40
0.9244006269
 40
1.0
 40
1.0
 40
1.0
 40
1.0
 10
89.25502609973334
 20
179.2168666237
 30
0.0
 10
89.25502609973334
 20
179.1611802849
 30
0.0
 10
89.2680376636
 20
179.0519324241
 30
0.0
 10
89.3382404224
 20
178.8591771589
 30
0.0
 10
89.48650757399999
 20
178.6706832330333
 30
0.0
 10
89.71681211053334
 20
178.5396968870333
 30
0.0
 10
89.96224560733333
 20
178.4979077903666
 30
0.0
 10
90.20765486626668
 20
178.5397820601
 30
0.0
 10
90.43791471639999
 20
178.6708084910333
 30
0.0
 10
90.58608869693334
 20
178.8593140375667
 30
0.0
 10
90.65624010666666
 20
179.0520132882333
 30
0.0
 10
90.669239662
 20
179.1612051121
 30
0.0
 10
90.669239662
 20
179.2168666237
 30
0.0
  0
SPLINE
  5
54B
330
224
100
AcDbEntity
  8
02___PRT_ALL_AXES
  6
Continuous
 62
     7
100
AcDbSpline
210
0.0
220
0.0
230
1.0
 70
     8
 71
     3
 72
    10
 73
     6
 74
     0
 42
0.000000001
 43
0.0000001
 40
0.0
 40
0.0
 40
0.0
 40
0.0
 40
0.2494403395
 40
0.4992795929
 40
1.0
 40
1.0
 40
1.0
 40
1.0
 10
84.2359282772
 20
179.7168666237
 30
0.0
 10
84.48908337506667
 20
179.7543074011666
 30
0.0
 10
84.99195855386667
 20
179.8577119689
 30
0.0
 10
85.97277775386668
 20
180.1624465465
 30
0.0
 10
86.6774977504
 20
180.4807159829
 30
0.0
 10
87.13370575613334
 20
180.7168666237
 30
0.0
  0
SPLINE
  5
54C
330
224
100
AcDbEntity
  8
02___PRT_ALL_AXES
  6
Continuous
 62
     7
100
AcDbSpline
210
0.0
220
0.0
230
1.0
 70
     8
 71
     3
 72
    19
 73
    15
 74
     0
 42
0.000000001
 43
0.0000001
 40
0.0
 40
0.0
 40
0.0
 40
0.0
 40
0.0638036974
 40
0.1272626836
 40
0.1902376798
 40
0.2527732141
 40
0.3766396511
 40
0.5000560147
 40
0.6234651895
 40
0.7473195124
 40
0.8098500054
 40
0.8728049193
 40
0.9362224762
 40
1.0
 40
1.0
 40
1.0
 40
1.0
 10
82.30407662466666
 20
179.2168666237
 30
0.0
 10
82.30407662466666
 20
179.1608462093
 30
0.0
 10
82.3227684204
 20
179.0483462639666
 30
0.0
 10
82.39957787173334
 20
178.8976627957
 30
0.0
 10
82.51067477253333
 20
178.7724319722333
 30
0.0
 10
82.68752179346666
 20
178.6413451626333
 30
0.0
 10
82.943953136
 20
178.5378561598333
 30
0.0
 10
83.27014603013333
 20
178.4984488638333
 30
0.0
 10
83.59631651320001
 20
178.5379353522333
 30
0.0
 10
83.852709118
 20
178.6414617838333
 30
0.0
 10
84.02949771840001
 20
178.7725761683666
 30
0.0
 10
84.1405065416
 20
178.8978053442333
 30
0.0
 10
84.21725493679999
 20
179.0484284673
 30
0.0
 10
84.2359282772
 20
179.1608691899667
 30
0.0
 10
84.2359282772
 20
179.2168666237
 30
0.0
  0
SPLINE
  5
54D
330
224
100
AcDbEntity
  8
02___PRT_ALL_AXES
  6
Continuous
 62
     7
100
AcDbSpline
210
0.0
220
0.0
230
1.0
 70
     8
 71
     3
 72
    10
 73
     6
 74
     0
 42
0.000000001
 43
0.0000001
 40
0.0
 40
0.0
 40
0.0
 40
0.0
 40
0.5007204287
 40
0.7505596794
 40
1.0
 40
1.0
 40
1.0
 40
1.0
 10
79.40629914586667
 20
180.7168666237
 30
0.0
 10
79.8625071712
 20
180.4807159727667
 30
0.0
 10
80.56722718533332
 20
180.1624465267666
 30
0.0
 10
81.5480463888
 20
179.8577119601
 30
0.0
 10
82.050921546
 20
179.7543073983666
 30
0.0
 10
82.30407662466666
 20
179.7168666237
 30
0.0
  0
SPLINE
  5
54E
330
224
100
AcDbEntity
  8
02___PRT_ALL_AXES
  6
Continuous
 62
     7
100
AcDbSpline
210
0.0
220
0.0
230
1.0
 70
     8
 71
     3
 72
     9
 73
     5
 74
     0
 42
0.000000001
 43
0.0000001
 40
0.0
 40
0.0
 40
0.0
 40
0.0
 40
0.2660030251
 40
1.0
 40
1.0
 40
1.0
 40
1.0
 10
77.8900603144
 20
179.8899580651666
 30
0.0
 10
77.90543843986667
 20
179.8745651706333
 30
0.0
 10
77.96451700186667
 20
179.8180279786333
 30
0.0
 10
78.0293066476
 20
179.7670740399666
 30
0.0
 10
78.08037093933332
 20
179.7354965263667
 30
0.0
  0
SPLINE
  5
54F
330
224
100
AcDbEntity
  8
02___PRT_ALL_AXES
  6
Continuous
 62
     7
100
AcDbSpline
210
0.0
220
0.0
230
1.0
 70
     8
 71
     3
 72
    10
 73
     6
 74
     0
 42
0.000000001
 43
0.0000001
 40
0.0
 40
0.0
 40
0.0
 40
0.0
 40
0.258124603
 40
0.6351527744
 40
1.0
 40
1.0
 40
1.0
 40
1.0
 10
87.13370575613334
 20
180.7168666237
 30
0.0
 10
87.2994901288
 20
180.5996393695667
 30
0.0
 10
87.71648901613334
 20
180.3237566679666
 30
0.0
 10
88.4141663448
 20
179.9553091850333
 30
0.0
 10
88.97371697533333
 20
179.7736996493
 30
0.0
 10
89.25502609973334
 20
179.7168666237
 30
0.0
  0
SPLINE
  5
550
330
224
100
AcDbEntity
  8
02___PRT_ALL_AXES
  6
Continuous
 62
     7
100
AcDbSpline
210
0.0
220
0.0
230
1.0
 70
     8
 71
     3
 72
    11
 73
     7
 74
     0
 42
0.000000001
 43
0.0000001
 40
0.0
 40
0.0
 40
0.0
 40
0.0
 40
0.1976182287
 40
0.4318039509
 40
0.7009288274
 40
1.0
 40
1.0
 40
1.0
 40
1.0
 10
78.62984201053332
 20
179.7168666237
 30
0.0
 10
78.70368459320001
 20
179.7576245995667
 30
0.0
 10
78.84937152013333
 20
179.8745850130333
 30
0.0
 10
79.04243615066667
 20
180.1040874814333
 30
0.0
 10
79.2306722916
 20
180.3908807330333
 30
0.0
 10
79.3476207896
 20
180.6035087443666
 30
0.0
 10
79.40629914586667
 20
180.7168666237
 30
0.0
  0
SPLINE
  5
551
330
224
100
AcDbEntity
  8
02___PRT_ALL_AXES
  6
Continuous
 62
     7
100
AcDbSpline
210
0.0
220
0.0
230
1.0
 70
     8
 71
     3
 72
    10
 73
     6
 74
     0
 42
0.000000001
 43
0.0000001
 40
0.0
 40
0.0
 40
0.0
 40
0.0
 40
0.2164101934
 40
0.456788783
 40
1.0
 40
1.0
 40
1.0
 40
1.0
 10
227.5412021889852
 20
179.8899593195666
 30
0.0
 10
227.5921183369852
 20
179.9409244861
 30
0.0
 10
227.6918210393852
 20
180.0563036655666
 30
0.0
 10
227.8844242377852
 20
180.3281506745
 30
0.0
 10
228.0123867348519
 20
180.5562761855667
 30
0.0
 10
228.0955144625852
 20
180.7168666237
 30
0.0
  0
SPLINE
  5
552
330
224
100
AcDbEntity
  8
02___PRT_ALL_AXES
  6
Continuous
 62
     7
100
AcDbSpline
210
0.0
220
0.0
230
1.0
 70
     8
 71
     3
 72
    10
 73
     6
 74
     0
 42
0.000000001
 43
0.0000001
 40
0.0
 40
0.0
 40
0.0
 40
0.0
 40
0.2164101934
 40
0.456788783
 40
1.0
 40
1.0
 40
1.0
 40
1.0
 10
213.1950135156519
 20
179.8899593195666
 30
0.0
 10
213.1440973676519
 20
179.9409244861
 30
0.0
 10
213.0443946652518
 20
180.0563036655666
 30
0.0
 10
212.8517914668519
 20
180.3281506745
 30
0.0
 10
212.7238289697852
 20
180.5562761855667
 30
0.0
 10
212.6407012420519
 20
180.7168666237
 30
0.0
  0
SPLINE
  5
553
330
224
100
AcDbEntity
  8
02___PRT_ALL_AXES
  6
Continuous
 62
     7
100
AcDbSpline
210
0.0
220
0.0
230
1.0
 70
     8
 71
     3
 72
    19
 73
    15
 74
     0
 42
0.000000001
 43
0.0000001
 40
0.0
 40
0.0
 40
0.0
 40
0.0
 40
0.0638114962
 40
0.1272689962
 40
0.1902443843
 40
0.2527839854
 40
0.3766579829
 40
0.5000634573
 40
0.6234641555
 40
0.7473062116
 40
0.8098329522
 40
0.8727912221
 40
0.9362181193
 40
1.0
 40
1.0
 40
1.0
 40
1.0
 10
221.1953329703185
 20
179.2168666237
 30
0.0
 10
221.1953329703185
 20
179.1608393693
 30
0.0
 10
221.2140261704519
 20
179.0483331702333
 30
0.0
 10
221.2908460213852
 20
178.8976483947666
 30
0.0
 10
221.4019468144518
 20
178.7724181059667
 30
0.0
 10
221.5788048672518
 20
178.6413277277
 30
0.0
 10
221.8352425716519
 20
178.5378519421
 30
0.0
 10
222.1614242403185
 20
178.4984495441
 30
0.0
 10
222.4875666861852
 20
178.5379367271667
 30
0.0
 10
222.7439386229852
 20
178.6414522871667
 30
0.0
 10
222.9207243783185
 20
178.7725506562333
 30
0.0
 10
223.0317485333852
 20
178.8977771955667
 30
0.0
 10
223.1085071893852
 20
179.0484128987666
 30
0.0
 10
223.1271846229852
 20
179.1608653721
 30
0.0
 10
223.1271846229852
 20
179.2168666237
 30
0.0
  0
SPLINE
  5
554
330
224
100
AcDbEntity
  8
02___PRT_ALL_AXES
  6
Continuous
 62
     7
100
AcDbSpline
210
0.0
220
0.0
230
1.0
 70
     8
 71
     3
 72
    10
 73
     6
 74
     0
 42
0.000000001
 43
0.0000001
 40
0.0
 40
0.0
 40
0.0
 40
0.0
 40
0.258124603
 40
0.6351527744
 40
1.0
 40
1.0
 40
1.0
 40
1.0
 10
212.6407012420519
 20
180.7168666237
 30
0.0
 10
212.8064856147185
 20
180.5996393695667
 30
0.0
 10
213.2234845020519
 20
180.3237566679666
 30
0.0
 10
213.9211618307185
 20
179.9553091850333
 30
0.0
 10
214.4807124612519
 20
179.7736996493
 30
0.0
 10
214.7620215855185
 20
179.7168666237
 30
0.0
  0
SPLINE
  5
555
330
224
100
AcDbEntity
  8
02___PRT_ALL_AXES
  6
Continuous
 62
     7
100
AcDbSpline
210
0.0
220
0.0
230
1.0
 70
     8
 71
     3
 72
     9
 73
     5
 74
     0
 42
0.000000001
 43
0.0000001
 40
0.0
 40
0.0
 40
0.0
 40
0.0
 40
0.2347660415
 40
1.0
 40
1.0
 40
1.0
 40
1.0
 10
227.3508896297852
 20
179.7354961078333
 30
0.0
 10
227.3672250280518
 20
179.7455976901
 30
0.0
 10
227.4352222608518
 20
179.7911917421
 30
0.0
 10
227.4969554061852
 20
179.8456699389
 30
0.0
 10
227.5412021889852
 20
179.8899593195666
 30
0.0
  0
SPLINE
  5
556
330
224
100
AcDbEntity
  8
02___PRT_ALL_AXES
  6
Continuous
 62
     7
100
AcDbSpline
210
0.0
220
0.0
230
1.0
 70
     8
 71
     3
 72
    10
 73
     6
 74
     0
 42
0.000000001
 43
0.0000001
 40
0.0
 40
0.0
 40
0.0
 40
0.0
 40
0.2421734631
 40
0.6149310735
 40
1.0
 40
1.0
 40
1.0
 40
1.0
 10
216.1762351479185
 20
179.7168666237
 30
0.0
 10
216.3629917656519
 20
179.7545971582333
 30
0.0
 10
216.8303614251185
 20
179.8865042739667
 30
0.0
 10
217.5471354519185
 20
180.2195209830333
 30
0.0
 10
218.0501955665852
 20
180.5419567434333
 30
0.0
 10
218.2975554915185
 20
180.7168666237
 30
0.0
  0
SPLINE
  5
557
330
224
100
AcDbEntity
  8
02___PRT_ALL_AXES
  6
Continuous
 62
     7
100
AcDbSpline
210
0.0
220
0.0
230
1.0
 70
     8
 71
     3
 72
    17
 73
    13
 74
     0
 42
0.000000001
 43
0.0000001
 40
0.0
 40
0.0
 40
0.0
 40
0.0
 40
0.0756330934
 40
0.1477259157
 40
0.2767176744
 40
0.3915979064
 40
0.500051026
 40
0.6084998144
 40
0.7233726472
 40
0.8523499488
 40
0.9244006269
 40
1.0
 40
1.0
 40
1.0
 40
1.0
 10
214.7620215855185
 20
179.2168666237
 30
0.0
 10
214.7620215855185
 20
179.1611802849
 30
0.0
 10
214.7750331495185
 20
179.0519324241
 30
0.0
 10
214.8452359083186
 20
178.8591771589
 30
0.0
 10
214.9935030599185
 20
178.6706832330333
 30
0.0
 10
215.2238075963185
 20
178.5396968870333
 30
0.0
 10
215.4692410931185
 20
178.4979077903666
 30
0.0
 10
215.7146503521852
 20
178.5397820601
 30
0.0
 10
215.9449102023185
 20
178.6708084910333
 30
0.0
 10
216.0930841828518
 20
178.8593140375667
 30
0.0
 10
216.1632355925852
 20
179.0520132882333
 30
0.0
 10
216.1762351479185
 20
179.1612051121
 30
0.0
 10
216.1762351479185
 20
179.2168666237
 30
0.0
  0
SPLINE
  5
558
330
224
100
AcDbEntity
  8
02___PRT_ALL_AXES
  6
Continuous
 62
     7
100
AcDbSpline
210
0.0
220
0.0
230
1.0
 70
     8
 71
     3
 72
    23
 73
    19
 74
     0
 42
0.000000001
 43
0.0000001
 40
0.0
 40
0.0
 40
0.0
 40
0.0
 40
0.1041045604
 40
0.198722586
 40
0.2791671156
 40
0.344987429
 40
0.3976144983
 40
0.4391006973
 40
0.4720229716
 40
0.500024351
 40
0.5280300251
 40
0.560964335
 40
0.6024594955
 40
0.6550984182
 40
0.7209332483
 40
0.8013730741
 40
0.8959372264
 40
1.0
 40
1.0
 40
1.0
 40
1.0
 10
226.8014192371185
 20
179.2168666237
 30
0.0
 10
226.8014192371185
 20
179.1615192890333
 30
0.0
 10
226.8059071227185
 20
179.0558051066333
 30
0.0
 10
226.8251197491185
 20
178.9084398163667
 30
0.0
 10
226.8536502753852
 20
178.7833667597
 30
0.0
 10
226.8884026787185
 20
178.6832327154333
 30
0.0
 10
226.9271373321852
 20
178.6071466589
 30
0.0
 10
226.9686212169852
 20
178.5532111783667
 30
0.0
 10
227.0127988711185
 20
178.5197370009
 30
0.0
 10
227.0602811668519
 20
178.5078264257
 30
0.0
 10
227.1077638612518
 20
178.5197699213
 30
0.0
 10
227.1519210993852
 20
178.5532924421
 30
0.0
 10
227.1934000407185
 20
178.6072497958333
 30
0.0
 10
227.2321310888519
 20
178.6833598394333
 30
0.0
 10
227.2668684557852
 20
178.7835110855667
 30
0.0
 10
227.2953739285852
 20
178.9085655097
 30
0.0
 10
227.3145738509852
 20
179.0558781107667
 30
0.0
 10
227.3190573273852
 20
179.1615415051667
 30
0.0
 10
227.3190573273852
 20
179.2168666237
 30
0.0
  0
SPLINE
  5
559
330
224
100
AcDbEntity
  8
02___PRT_ALL_AXES
  6
Continuous
 62
     7
100
AcDbSpline
210
0.0
220
0.0
230
1.0
 70
     8
 71
     3
 72
    11
 73
     7
 74
     0
 42
0.000000001
 43
0.0000001
 40
0.0
 40
0.0
 40
0.0
 40
0.0
 40
0.299071183
 40
0.5681960717
 40
0.8023817875
 40
1.0
 40
1.0
 40
1.0
 40
1.0
 10
226.0249621017852
 20
180.7168666237
 30
0.0
 10
226.0836404600519
 20
180.6035087403667
 30
0.0
 10
226.2005889616519
 20
180.3908807198333
 30
0.0
 10
226.3888251081852
 20
180.1040874633
 30
0.0
 10
226.5818897400518
 20
179.8745850015666
 30
0.0
 10
226.7275766604519
 20
179.7576245962333
 30
0.0
 10
226.8014192371185
 20
179.7168666237
 30
0.0
  0
SPLINE
  5
55A
330
224
100
AcDbEntity
  8
02___PRT_ALL_AXES
  6
Continuous
 62
     7
100
AcDbSpline
210
0.0
220
0.0
230
1.0
 70
     8
 71
     3
 72
    10
 73
     6
 74
     0
 42
0.000000001
 43
0.0000001
 40
0.0
 40
0.0
 40
0.0
 40
0.0
 40
0.5007204287
 40
0.7505596794
 40
1.0
 40
1.0
 40
1.0
 40
1.0
 10
218.2975554915185
 20
180.7168666237
 30
0.0
 10
218.7537635168518
 20
180.4807159727667
 30
0.0
 10
219.4584835309852
 20
180.1624465267666
 30
0.0
 10
220.4393027344519
 20
179.8577119601
 30
0.0
 10
220.9421778916519
 20
179.7543073983666
 30
0.0
 10
221.1953329703185
 20
179.7168666237
 30
0.0
  0
SPLINE
  5
55B
330
224
100
AcDbEntity
  8
02___PRT_ALL_AXES
  6
Continuous
 62
     7
100
AcDbSpline
210
0.0
220
0.0
230
1.0
 70
     8
 71
     3
 72
    10
 73
     6
 74
     0
 42
0.000000001
 43
0.0000001
 40
0.0
 40
0.0
 40
0.0
 40
0.0
 40
0.2494403395
 40
0.4992795929
 40
1.0
 40
1.0
 40
1.0
 40
1.0
 10
223.1271846229852
 20
179.7168666237
 30
0.0
 10
223.3803397207185
 20
179.7543074011666
 30
0.0
 10
223.8832148996518
 20
179.8577119689
 30
0.0
 10
224.8640340995185
 20
180.1624465465
 30
0.0
 10
225.5687540961852
 20
180.4807159829
 30
0.0
 10
226.0249621017852
 20
180.7168666237
 30
0.0
  0
SPLINE
  5
55C
330
224
100
AcDbEntity
  8
02___PRT_ALL_AXES
  6
Continuous
 62
     7
100
AcDbSpline
 70
     0
 71
     3
 72
     9
 73
     5
 74
     0
 42
0.000000001
 43
0.0000001
 40
0.0
 40
0.0
 40
0.0
 40
0.0
 40
0.2494808282
 40
1.0
 40
1.0
 40
1.0
 40
1.0
 10
328.9987623711
 20
91.080548499
 30
0.0
 10
329.0402072745
 20
91.0495844967
 30
0.0
 10
329.2085857882
 20
90.9285018958
 30
0.0
 10
329.3855396917
 20
90.8194628442
 30
0.0
 10
329.5217365566
 20
90.7441480534
 30
0.0
  0
SPLINE
  5
55D
330
224
100
AcDbEntity
  8
02___PRT_ALL_AXES
  6
Continuous
 62
     7
100
AcDbSpline
 70
     0
 71
     3
 72
    15
 73
    11
 74
     0
 42
0.000000001
 43
0.0000001
 40
0.0
 40
0.0
 40
0.0
 40
0.0
 40
0.1208154983
 40
0.2453481743
 40
0.3737173271
 40
0.5039347362
 40
0.6331197202
 40
0.7588920424
 40
0.8806574653
 40
1.0
 40
1.0
 40
1.0
 40
1.0
 10
329.5217365566
 20
90.7441480534
 30
0.0
 10
329.7781072346
 20
90.6023789753
 30
0.0
 10
330.3250440156
 20
90.3605979917
 30
0.0
 10
331.2003835751
 20
90.117026114
 30
0.0
 10
332.1213012021
 20
89.97929298
 30
0.0
 10
333.0628936871
 20
89.94556614
 30
0.0
 10
333.9962256113
 20
90.0160087963
 30
0.0
 10
334.8949627376
 20
90.1929363825
 30
0.0
 10
335.7391127042
 20
90.4831492333
 30
0.0
 10
336.2563234502
 20
90.7642385579
 30
0.0
 10
336.4952204592
 20
90.9275562145
 30
0.0
  0
SPLINE
  5
55E
330
224
100
AcDbEntity
  8
7_ALL_FEATURES
  6
Continuous
 62
     7
100
AcDbSpline
 70
     0
 71
     3
 72
     9
 73
     5
 74
     0
 42
0.000000001
 43
0.0000001
 40
0.0
 40
0.0
 40
0.0
 40
0.0
 40
0.2610168268
 40
1.0
 40
1.0
 40
1.0
 40
1.0
 10
318.9393412701
 20
143.1146308572
 30
0.0
 10
318.6831835621
 20
143.0224049571
 30
0.0
 10
317.7071952774
 20
142.6545116913
 30
0.0
 10
316.75300891
 20
142.2269008774
 30
0.0
 10
316.0694918867
 20
141.8706222079
 30
0.0
  0
SPLINE
  5
55F
330
224
100
AcDbEntity
  8
7_ALL_FEATURES
  6
Continuous
 62
     7
100
AcDbSpline
 70
     0
 71
     3
 72
     9
 73
     5
 74
     0
 42
0.000000001
 43
0.0000001
 40
0.0
 40
0.0
 40
0.0
 40
0.0
 40
0.2623270847
 40
1.0
 40
1.0
 40
1.0
 40
1.0
 10
316.0694918867
 20
141.8706222079
 30
0.0
 10
315.8751616788
 20
141.7693288889
 30
0.0
 10
315.1410945966
 20
141.3706430195
 30
0.0
 10
314.4345536038
 20
140.9196454586
 30
0.0
 10
313.9395618625
 20
140.5525768474
 30
0.0
  0
SPLINE
  5
560
330
224
100
AcDbEntity
  8
7_ALL_FEATURES
  6
Continuous
 62
     7
100
AcDbSpline
 70
     0
 71
     3
 72
    17
 73
    13
 74
     0
 42
0.000000001
 43
0.0000001
 40
0.0
 40
0.0
 40
0.0
 40
0.0
 40
0.0464021981
 40
0.0969802077
 40
0.1515744574
 40
0.2098862339
 40
0.335892325
 40
0.4709162104
 40
0.6100156036
 40
0.7479253339
 40
0.8794690913
 40
1.0
 40
1.0
 40
1.0
 40
1.0
 10
353.4792034256
 20
139.782242859
 30
0.0
 10
353.047255583
 20
140.1294742233
 30
0.0
 10
352.098161969
 20
140.7984360521
 30
0.0
 10
350.5191965789
 20
141.6887253738
 30
0.0
 10
348.740743302
 20
142.4999755489
 30
0.0
 10
346.0617988567
 20
143.488690853
 30
0.0
 10
342.3594574896
 20
144.447027885
 30
0.0
 10
337.6227539269
 20
145.1380343305
 30
0.0
 10
332.6989854124
 20
145.3647287393
 30
0.0
 10
327.8175376821
 20
145.1164163755
 30
0.0
 10
323.2061439605
 20
144.4054889336
 30
0.0
 10
320.2938033314
 20
143.6022854547
 30
0.0
 10
318.9393412701
 20
143.1146308572
 30
0.0
  0
SPLINE
  5
561
330
224
100
AcDbEntity
  8
7_ALL_FEATURES
  6
Continuous
 62
     7
100
AcDbSpline
 70
     0
 71
     3
 72
    12
 73
     8
 74
     0
 42
0.000000001
 43
0.0000001
 40
0.0
 40
0.0
 40
0.0
 40
0.0
 40
0.2897181134
 40
0.5476921844
 40
0.7806132735
 40
0.891224807
 40
1.0
 40
1.0
 40
1.0
 40
1.0
 10
313.6103558537
 20
140.30838989
 30
0.0
 10
313.1190124899
 20
139.9440087189
 30
0.0
 10
312.2346454453
 20
139.1897019155
 30
0.0
 10
311.1889178841
 20
137.9018703515
 30
0.0
 10
310.6301257856
 20
136.7440197321
 30
0.0
 10
310.4041740422
 20
135.8132253893
 30
0.0
 10
310.3607596069
 20
135.3500495006
 30
0.0
 10
310.3562946289
 20
135.1204244097
 30
0.0
  0
SPLINE
  5
562
330
224
100
AcDbEntity
  8
7_ALL_FEATURES
  6
Continuous
 62
     7
100
AcDbSpline
 70
     0
 71
     3
 72
    11
 73
     7
 74
     0
 42
0.000000001
 43
0.0000001
 40
0.0
 40
0.0
 40
0.0
 40
0.0
 40
0.2189507675
 40
0.4533466082
 40
0.7119220289
 40
1.0
 40
1.0
 40
1.0
 40
1.0
 10
356.8387825394
 20
134.6064692611
 30
0.0
 10
356.8111496874
 20
135.0391824006
 30
0.0
 10
356.6274454243
 20
135.930627091
 30
0.0
 10
356.0029542253
 20
137.2077233584
 30
0.0
 10
355.045963874
 20
138.4341245394
 30
0.0
 10
354.2435841708
 20
139.1677267439
 30
0.0
 10
353.7989667554
 20
139.5251805629
 30
0.0
  0
SPLINE
  5
563
330
224
100
AcDbEntity
  8
7_ALL_FEATURES
  6
Continuous
 62
     7
100
AcDbSpline
 70
     0
 71
     3
 72
    15
 73
    11
 74
     0
 42
0.000000001
 43
0.0000001
 40
0.0
 40
0.0
 40
0.0
 40
0.0
 40
0.1373967423
 40
0.2620671543
 40
0.3776158009
 40
0.489065069
 40
0.602206011
 40
0.7225016977
 40
0.8541912597
 40
1.0
 40
1.0
 40
1.0
 40
1.0
 10
354.3118461793
 20
130.3142796695
 30
0.0
 10
354.6684324407
 20
130.6499922533
 30
0.0
 10
355.3044019796
 20
131.3411512717
 30
0.0
 10
356.0209111231
 20
132.4914804091
 30
0.0
 10
356.4331425025
 20
133.6883674775
 30
0.0
 10
356.5254926089
 20
134.9112927663
 30
0.0
 10
356.294094084
 20
136.1321605811
 30
0.0
 10
355.7497044052
 20
137.3261507561
 30
0.0
 10
354.9089340243
 20
138.4774639171
 30
0.0
 10
354.1988864999
 20
139.17217952
 30
0.0
 10
353.8050146868
 20
139.5112824778
 30
0.0
  0
SPLINE
  5
564
330
224
100
AcDbEntity
  8
7_ALL_FEATURES
  6
Continuous
 62
     7
100
AcDbSpline
 70
     0
 71
     3
 72
    15
 73
    11
 74
     0
 42
0.000000001
 43
0.0000001
 40
0.0
 40
0.0
 40
0.0
 40
0.0
 40
0.1463239196
 40
0.2786818805
 40
0.3996811152
 40
0.5133727167
 40
0.6250087582
 40
0.7402262837
 40
0.8640045339
 40
1.0
 40
1.0
 40
1.0
 40
1.0
 10
313.6065299001
 20
140.2970027221
 30
0.0
 10
313.2057098513
 20
139.9785036997
 30
0.0
 10
312.4788614719
 20
139.3225526249
 30
0.0
 10
311.6011537618
 20
138.2246015419
 30
0.0
 10
311.0080066353
 20
137.0741820326
 30
0.0
 10
310.7155435615
 20
135.8854139213
 30
0.0
 10
310.7352719626
 20
134.6807592784
 30
0.0
 10
311.0657384052
 20
133.4868874381
 30
0.0
 10
311.6937116304
 20
132.3246192787
 30
0.0
 10
312.2708704149
 20
131.6159676037
 30
0.0
 10
312.5973399614
 20
131.2698162049
 30
0.0
  0
LINE
  5
565
330
224
100
AcDbEntity
  8
7_ALL_FEATURES
  6
Continuous
 62
     9
100
AcDbLine
 10
356.929203543
 20
134.2621830735
 30
0.0
 11
356.9409853307
 21
134.2390671973
 31
0.0
  0
SPLINE
  5
566
330
224
100
AcDbEntity
  8
7_ALL_FEATURES
  6
Continuous
 62
     7
100
AcDbSpline
 70
     0
 71
     3
 72
    17
 73
    13
 74
     0
 42
0.000000001
 43
0.0000001
 40
0.0
 40
0.0
 40
0.0
 40
0.0
 40
0.1205335674
 40
0.2520790799
 40
0.3899916605
 40
0.52909313
 40
0.6641172804
 40
0.7901221128
 40
0.8484320761
 40
0.9030247938
 40
0.9536009164
 40
1.0
 40
1.0
 40
1.0
 40
1.0
 10
349.0806599587
 20
93.2312656542
 30
0.0
 10
347.5928850823
 20
92.6956136924
 30
0.0
 10
344.3939049631
 20
91.8133813527
 30
0.0
 10
339.3286474424
 20
91.0325152177
 30
0.0
 10
333.9667693033
 20
90.7598405884
 30
0.0
 10
328.5584331958
 20
91.0089321479
 30
0.0
 10
323.355639838
 20
91.7680679532
 30
0.0
 10
319.2890471524
 20
92.8208122849
 30
0.0
 10
316.3466094473
 20
93.9069632121
 30
0.0
 10
314.3932611613
 20
94.7981011198
 30
0.0
 10
312.6590333722
 20
95.7760279321
 30
0.0
 10
311.6167178618
 20
96.5109394059
 30
0.0
 10
311.1423166833
 20
96.8923363421
 30
0.0
  0
SPLINE
  5
567
330
224
100
AcDbEntity
  8
7_ALL_FEATURES
  6
Continuous
 62
     7
100
AcDbSpline
 70
     0
 71
     3
 72
    19
 73
    15
 74
     0
 42
0.000000001
 43
0.0000001
 40
0.0
 40
0.0
 40
0.0
 40
0.0
 40
0.0525990177
 40
0.1090048145
 40
0.1688384171
 40
0.2316526893
 40
0.3640037569
 40
0.5013407701
 40
0.6384909812
 40
0.7702949603
 40
0.8327134382
 40
0.8920847651
 40
0.9479639289
 40
1.0
 40
1.0
 40
1.0
 40
1.0
 10
306.3863883131
 20
113.0274678737
 30
0.0
 10
307.2394243477
 20
112.5557519446
 30
0.0
 10
309.053887483
 20
111.6612130458
 30
0.0
 10
311.961821452
 20
110.4993195747
 30
0.0
 10
315.1227101093
 20
109.4815440727
 30
0.0
 10
319.704096568
 20
108.312840316
 30
0.0
 10
325.7960271816
 20
107.3041985923
 30
0.0
 10
333.3315600581
 20
106.819094082
 30
0.0
 10
340.8686407845
 20
107.0626900045
 30
0.0
 10
346.9687046289
 20
107.876544556
 30
0.0
 10
351.5582005623
 20
108.899508006
 30
0.0
 10
354.7232025169
 20
109.8162583717
 30
0.0
 10
357.6360736758
 20
110.8850947174
 30
0.0
 10
359.4555856509
 20
111.722327313
 30
0.0
 10
360.3112135865
 20
112.1671386503
 30
0.0
  0
SPLINE
  5
568
330
224
100
AcDbEntity
  8
7_ALL_FEATURES
  6
Continuous
 62
     7
100
AcDbSpline
 70
     0
 71
     3
 72
    24
 73
    20
 74
     0
 42
0.000000001
 43
0.0000001
 40
0.0
 40
0.0
 40
0.0
 40
0.0
 40
0.0655706278
 40
0.1356401073
 40
0.2092143057
 40
0.2851771079
 40
0.3623259876
 40
0.4394210394
 40
0.5152234498
 40
0.5885374733
 40
0.6582532084
 40
0.7233945127
 40
0.783176179
 40
0.8370786367
 40
0.8849534121
 40
0.9271756337
 40
0.9648396186
 40
0.9825909001
 40
1.0
 40
1.0
 40
1.0
 40
1.0
 10
349.6594225155
 20
97.9900682137
 30
0.0
 10
348.6808787685
 20
97.6377576038
 30
0.0
 10
346.6198592637
 20
97.0089435364
 30
0.0
 10
343.3744869747
 20
96.3023591409
 30
0.0
 10
339.9231021699
 20
95.8112238225
 30
0.0
 10
336.3348327358
 20
95.5455636117
 30
0.0
 10
332.6811480502
 20
95.5108114546
 30
0.0
 10
329.0351564872
 20
95.7076860084
 30
0.0
 10
325.4697372348
 20
96.1322143166
 30
0.0
 10
322.0560500159
 20
96.7757871673
 30
0.0
 10
318.8619438859
 20
97.6254191274
 30
0.0
 10
315.9504177078
 20
98.6641122707
 30
0.0
 10
313.3781421054
 20
99.8716253464
 30
0.0
 10
311.1941059049
 20
101.2253079043
 30
0.0
 10
309.4391612024
 20
102.7030614915
 30
0.0
 10
308.1473948834
 20
104.2828750436
 30
0.0
 10
307.4742272021
 20
105.7011145435
 30
0.0
 10
307.2250280181
 20
106.8331013232
 30
0.0
 10
307.1910895859
 20
107.3925485955
 30
0.0
 10
307.1964469285
 20
107.6686271933
 30
0.0
  0
SPLINE
  5
569
330
224
100
AcDbEntity
  8
7_ALL_FEATURES
  6
Continuous
 62
     7
100
AcDbSpline
 70
     0
 71
     3
 72
    16
 73
    12
 74
     0
 42
0.000000001
 43
0.0000001
 40
0.0
 40
0.0
 40
0.0
 40
0.0
 40
0.1186967111
 40
0.2479400451
 40
0.3836143354
 40
0.5211077584
 40
0.6556838214
 40
0.782813814
 40
0.8985387944
 40
0.9511885244
 40
1.0
 40
1.0
 40
1.0
 40
1.0
 10
349.7376701475
 20
102.0098780125
 30
0.0
 10
348.2808537279
 20
101.4853722019
 30
0.0
 10
345.1562361818
 20
100.6114159559
 30
0.0
 10
340.2087936371
 20
99.8084831781
 30
0.0
 10
334.961586287
 20
99.4799373322
 30
0.0
 10
329.6376946067
 20
99.6407521296
 30
0.0
 10
324.4617423385
 20
100.2838271694
 30
0.0
 10
319.6533552474
 20
101.3813607058
 30
0.0
 10
316.007980384
 20
102.6734137246
 30
0.0
 10
313.4595758125
 20
103.9170672621
 30
0.0
 10
312.3220824622
 20
104.5982471318
 30
0.0
 10
311.7936364427
 20
104.953451258
 30
0.0
  0
SPLINE
  5
56A
330
224
100
AcDbEntity
  8
7_ALL_FEATURES
  6
Continuous
 62
     7
100
AcDbSpline
 70
     0
 71
     3
 72
    12
 73
     8
 74
     0
 42
0.000000001
 43
0.0000001
 40
0.0
 40
0.0
 40
0.0
 40
0.0
 40
0.2976129056
 40
0.5579204263
 40
0.787528845
 40
0.8949430748
 40
1.0
 40
1.0
 40
1.0
 40
1.0
 10
311.7936364427
 20
104.953451258
 30
0.0
 10
311.0987473984
 20
105.4205329405
 30
0.0
 10
309.8518872438
 20
106.3875999651
 30
0.0
 10
308.3747507415
 20
108.0598602375
 30
0.0
 10
307.5970941842
 20
109.5781933504
 30
0.0
 10
307.3087790219
 20
110.7930964917
 30
0.0
 10
307.2689602918
 20
111.392934357
 30
0.0
 10
307.2746945605
 20
111.6884369922
 30
0.0
  0
SPLINE
  5
56B
330
224
100
AcDbEntity
  8
7_ALL_FEATURES
  6
Continuous
 62
     7
100
AcDbSpline
 70
     0
 71
     3
 72
     9
 73
     5
 74
     0
 42
0.000000001
 43
0.0000001
 40
0.0
 40
0.0
 40
0.0
 40
0.0
 40
0.2396218735
 40
1.0
 40
1.0
 40
1.0
 40
1.0
 10
349.8159177795
 20
106.0296878114
 30
0.0
 10
349.4506116279
 20
105.8981645826
 30
0.0
 10
347.9158652545
 20
105.3778574901
 30
0.0
 10
346.3452870631
 20
104.9656998869
 30
0.0
 10
345.1414248791
 20
104.7036757997
 30
0.0
  0
LINE
  5
56C
330
224
100
AcDbEntity
  8
7_ALL_FEATURES
  6
Continuous
 62
     7
100
AcDbLine
 10
343.3086105149
 20
104.3448830068
 30
0.0
 11
343.2280970964
 21
104.3308935314
 31
0.0
  0
SPLINE
  5
56D
330
224
100
AcDbEntity
  8
7_ALL_FEATURES
  6
Continuous
 62
     7
100
AcDbSpline
 70
     0
 71
     3
 72
    15
 73
    11
 74
     0
 42
0.000000001
 43
0.0000001
 40
0.0
 40
0.0
 40
0.0
 40
0.0
 40
0.131156942
 40
0.2666205783
 40
0.4032723517
 40
0.5379361786
 40
0.6675314456
 40
0.7892298241
 40
0.9006335622
 40
1.0
 40
1.0
 40
1.0
 40
1.0
 10
343.2280970964
 20
104.3308935314
 30
0.0
 10
341.835379514
 20
104.0901492445
 30
0.0
 10
338.9813050387
 20
103.7267695075
 30
0.0
 10
334.6363586318
 20
103.5214304728
 30
0.0
 10
330.2503703554
 20
103.6489081592
 30
0.0
 10
325.9498375417
 20
104.1056016311
 30
0.0
 10
321.8581034007
 20
104.8780392052
 30
0.0
 10
318.091330281
 20
105.9439726828
 30
0.0
 10
314.7567202709
 20
107.272194436
 30
0.0
 10
312.7605738114
 20
108.3759128892
 30
0.0
 10
311.8718840747
 20
108.9732610569
 30
0.0
  0
SPLINE
  5
56E
330
224
100
AcDbEntity
  8
7_ALL_FEATURES
  6
Continuous
 62
     7
100
AcDbSpline
 70
     0
 71
     3
 72
     9
 73
     5
 74
     0
 42
0.000000001
 43
0.0000001
 40
0.0
 40
0.0
 40
0.0
 40
0.0
 40
0.5305551771
 40
1.0
 40
1.0
 40
1.0
 40
1.0
 10
311.8718840747
 20
108.9732610569
 30
0.0
 10
311.2320152099
 20
109.4033599746
 30
0.0
 10
310.0744979715
 20
110.2909207271
 30
0.0
 10
309.0796370709
 20
111.3649062757
 30
0.0
 10
308.6764956246
 20
111.9152226005
 30
0.0
  0
SPLINE
  5
56F
330
224
100
AcDbEntity
  8
7_ALL_FEATURES
  6
Continuous
 62
     7
100
AcDbSpline
 70
     0
 71
     3
 72
     9
 73
     5
 74
     0
 42
0.000000001
 43
0.0000001
 40
0.0
 40
0.0
 40
0.0
 40
0.0
 40
0.2377697192
 40
1.0
 40
1.0
 40
1.0
 40
1.0
 10
302.8283632655
 20
115.3818961799
 30
0.0
 10
303.0689787056
 20
115.1888374441
 30
0.0
 10
304.0996284983
 20
114.4002178384
 30
0.0
 10
305.1976714727
 20
113.7016000384
 30
0.0
 10
306.0570684997
 20
113.2122566887
 30
0.0
  0
SPLINE
  5
570
330
224
100
AcDbEntity
  8
7_ALL_FEATURES
  6
Continuous
 62
     7
100
AcDbSpline
 70
     0
 71
     3
 72
    11
 73
     7
 74
     0
 42
0.000000001
 43
0.0000001
 40
0.0
 40
0.0
 40
0.0
 40
0.0
 40
0.2898679038
 40
0.5479885854
 40
0.7810460536
 40
1.0
 40
1.0
 40
1.0
 40
1.0
 10
310.5044071775
 20
97.4051610945
 30
0.0
 10
309.9739563307
 20
97.8315750916
 30
0.0
 10
309.0235006595
 20
98.7083719698
 30
0.0
 10
307.9168688893
 20
100.1866641902
 30
0.0
 10
307.2428140376
 20
101.7307405265
 30
0.0
 10
307.1016498733
 20
102.800516606
 30
0.0
 10
307.1116905286
 20
103.3145097848
 30
0.0
  0
SPLINE
  5
571
330
224
100
AcDbEntity
  8
7_ALL_FEATURES
  6
Continuous
 62
     7
100
AcDbSpline
 70
     0
 71
     3
 72
     9
 73
     5
 74
     0
 42
0.000000001
 43
0.0000001
 40
0.0
 40
0.0
 40
0.0
 40
0.0
 40
0.4704107181
 40
1.0
 40
1.0
 40
1.0
 40
1.0
 10
357.5423097621
 20
110.8624504046
 30
0.0
 10
357.1206517052
 20
110.3469685072
 30
0.0
 10
356.1029215685
 20
109.3490334567
 30
0.0
 10
354.9406194508
 20
108.5320393189
 30
0.0
 10
354.302217898
 20
108.1388850146
 30
0.0
  0
SPLINE
  5
572
330
224
100
AcDbEntity
  8
7_ALL_FEATURES
  6
Continuous
 62
     7
100
AcDbSpline
 70
     0
 71
     3
 72
     9
 73
     5
 74
     0
 42
0.000000001
 43
0.0000001
 40
0.0
 40
0.0
 40
0.0
 40
0.0
 40
0.4774691985
 40
1.0
 40
1.0
 40
1.0
 40
1.0
 10
354.302217898
 20
108.1388850146
 30
0.0
 10
353.6295180078
 20
107.7246083636
 30
0.0
 10
352.1641224901
 20
106.9474989475
 30
0.0
 10
350.6293921026
 20
106.322567548
 30
0.0
 10
349.8159177795
 20
106.0296878114
 30
0.0
  0
SPLINE
  5
573
330
224
100
AcDbEntity
  8
7_ALL_FEATURES
  6
Continuous
 62
     7
100
AcDbSpline
 70
     0
 71
     3
 72
    12
 73
     8
 74
     0
 42
0.000000001
 43
0.0000001
 40
0.0
 40
0.0
 40
0.0
 40
0.0
 40
0.105019707
 40
0.2123998407
 40
0.4419711957
 40
0.7023079935
 40
1.0
 40
1.0
 40
1.0
 40
1.0
 10
359.0148875702
 20
110.6825375755
 30
0.0
 10
359.0091439362
 20
110.3865523148
 30
0.0
 10
358.9460223746
 20
109.7877114583
 30
0.0
 10
358.6097978523
 20
108.5829020693
 30
0.0
 10
357.7712208761
 20
107.0935237353
 30
0.0
 10
356.2256062815
 20
105.4778920301
 30
0.0
 10
354.938507689
 20
104.5591171646
 30
0.0
 10
354.223970266
 20
104.1190752158
 30
0.0
  0
SPLINE
  5
574
330
224
100
AcDbEntity
  8
7_ALL_FEATURES
  6
Continuous
 62
     7
100
AcDbSpline
 70
     0
 71
     3
 72
     9
 73
     5
 74
     0
 42
0.000000001
 43
0.0000001
 40
0.0
 40
0.0
 40
0.0
 40
0.0
 40
0.4774691985
 40
1.0
 40
1.0
 40
1.0
 40
1.0
 10
354.223970266
 20
104.1190752158
 30
0.0
 10
353.5512703758
 20
103.7047985647
 30
0.0
 10
352.0858748581
 20
102.9276891486
 30
0.0
 10
350.5511444707
 20
102.3027577492
 30
0.0
 10
349.7376701475
 20
102.0098780125
 30
0.0
  0
SPLINE
  5
575
330
224
100
AcDbEntity
  8
7_ALL_FEATURES
  6
Continuous
 62
     7
100
AcDbSpline
 70
     0
 71
     3
 72
    15
 73
    11
 74
     0
 42
0.000000001
 43
0.0000001
 40
0.0
 40
0.0
 40
0.0
 40
0.0
 40
0.0941763075
 40
0.1925318939
 40
0.298576392
 40
0.4148151926
 40
0.5427450516
 40
0.6830013841
 40
0.8356237458
 40
1.0
 40
1.0
 40
1.0
 40
1.0
 10
358.9366399383
 20
106.6627277767
 30
0.0
 10
358.9284627922
 20
106.2413369468
 30
0.0
 10
358.805165441
 20
105.3786534414
 30
0.0
 10
358.3103933071
 20
104.1263382188
 30
0.0
 10
357.5183746872
 20
102.9195277637
 30
0.0
 10
356.4434358344
 20
101.7703820301
 30
0.0
 10
355.0997467333
 20
100.6885226393
 30
0.0
 10
353.5026574736
 20
99.6838738162
 30
0.0
 10
351.6701992157
 20
98.7670413003
 30
0.0
 10
350.3515673501
 20
98.2392650121
 30
0.0
 10
349.6594225155
 20
97.9900682137
 30
0.0
  0
SPLINE
  5
576
330
224
100
AcDbEntity
  8
7_ALL_FEATURES
  6
Continuous
 62
     7
100
AcDbSpline
 70
     0
 71
     3
 72
    11
 73
     7
 74
     0
 42
0.000000001
 43
0.0000001
 40
0.0
 40
0.0
 40
0.0
 40
0.0
 40
0.2189432984
 40
0.4519961495
 40
0.7101167806
 40
1.0
 40
1.0
 40
1.0
 40
1.0
 10
358.8518598985
 20
102.3072622325
 30
0.0
 10
358.8418176102
 20
101.7931854724
 30
0.0
 10
358.6591686168
 20
100.7295216264
 30
0.0
 10
357.9252333061
 20
99.2126126583
 30
0.0
 10
356.7615157451
 20
97.7782922339
 30
0.0
 10
355.7772864892
 20
96.9391105232
 30
0.0
 10
355.2304804481
 20
96.533580191
 30
0.0
  0
SPLINE
  5
577
330
224
100
AcDbEntity
  8
7_ALL_FEATURES
  6
Continuous
 62
     7
100
AcDbSpline
 70
     0
 71
     3
 72
     9
 73
     5
 74
     0
 42
0.000000001
 43
0.0000001
 40
0.0
 40
0.0
 40
0.0
 40
0.0
 40
0.4710379772
 40
1.0
 40
1.0
 40
1.0
 40
1.0
 10
354.5719612915
 20
96.0451269431
 30
0.0
 10
353.8715680924
 20
95.5257475326
 30
0.0
 10
352.2849355092
 20
94.5561969312
 30
0.0
 10
350.5888772559
 20
93.8039197776
 30
0.0
 10
349.6749556699
 20
93.4524352312
 30
0.0
  0
SPLINE
  5
578
330
224
100
AcDbEntity
  8
7_ALL_FEATURES
  6
Continuous
 62
     7
100
AcDbSpline
 70
     0
 71
     3
 72
     9
 73
     5
 74
     0
 42
0.000000001
 43
0.0000001
 40
0.0
 40
0.0
 40
0.0
 40
0.0
 40
0.2483018586
 40
1.0
 40
1.0
 40
1.0
 40
1.0
 10
307.2290501085
 20
109.3435479429
 30
0.0
 10
307.2311738106
 20
109.4529881524
 30
0.0
 10
307.2535316832
 20
109.8933979248
 30
0.0
 10
307.3319642485
 20
110.3307097648
 30
0.0
 10
307.4193267191
 20
110.6503633596
 30
0.0
  0
SPLINE
  5
579
330
224
100
AcDbEntity
  8
7_ALL_FEATURES
  6
Continuous
 62
     7
100
AcDbSpline
 70
     0
 71
     3
 72
     9
 73
     5
 74
     0
 42
0.000000001
 43
0.0000001
 40
0.0
 40
0.0
 40
0.0
 40
0.0
 40
0.2483018586
 40
1.0
 40
1.0
 40
1.0
 40
1.0
 10
307.1508024766
 20
105.323738144
 30
0.0
 10
307.1529261786
 20
105.4331783536
 30
0.0
 10
307.1752840512
 20
105.8735881259
 30
0.0
 10
307.2537166165
 20
106.310899966
 30
0.0
 10
307.3410790872
 20
106.6305535608
 30
0.0
  0
SPLINE
  5
57A
330
224
100
AcDbEntity
  8
0
  6
Continuous
 62
     7
100
AcDbSpline
 70
     0
 71
     3
 72
    11
 73
     7
 74
     0
 42
0.000000001
 43
0.0000001
 40
0.0
 40
0.0
 40
0.0
 40
0.0
 40
0.242624042
 40
0.5107618128
 40
0.7731508936
 40
1.0
 40
1.0
 40
1.0
 40
1.0
 10
363.2711970036
 20
132.9474897487
 30
0.0
 10
363.5562083054
 20
133.0501039287
 30
0.0
 10
364.1855658409
 20
133.184783475
 30
0.0
 10
365.1544491101
 20
133.2168926662
 30
0.0
 10
366.0954762188
 20
133.0910562984
 30
0.0
 10
366.6816216806
 20
132.8939943284
 30
0.0
 10
366.9318442694
 20
132.7613089048
 30
0.0
  0
SPLINE
  5
57B
330
224
100
AcDbEntity
  8
0
  6
Continuous
 62
     7
100
AcDbSpline
 70
     0
 71
     3
 72
    11
 73
     7
 74
     0
 42
0.000000001
 43
0.0000001
 40
0.0
 40
0.0
 40
0.0
 40
0.0
 40
0.242624042
 40
0.5107618128
 40
0.7731508936
 40
1.0
 40
1.0
 40
1.0
 40
1.0
 10
300.5306957414
 20
136.4410660491
 30
0.0
 10
300.8157070432
 20
136.5436802291
 30
0.0
 10
301.4450645788
 20
136.6783597755
 30
0.0
 10
302.4139478479
 20
136.7104689667
 30
0.0
 10
303.3549749566
 20
136.5846325988
 30
0.0
 10
303.9411204185
 20
136.3875706288
 30
0.0
 10
304.1913430072
 20
136.2548852053
 30
0.0
  0
SPLINE
  5
57C
330
224
100
AcDbEntity
  8
7_ALL_FEATURES
  6
Continuous
 62
     7
100
AcDbSpline
 70
     0
 71
     3
 72
    19
 73
    15
 74
     0
 42
0.000000001
 43
0.0000001
 40
0.0
 40
0.0
 40
0.0
 40
0.0
 40
0.0528480156
 40
0.1093840671
 40
0.1692419822
 40
0.2319845029
 40
0.3639816512
 40
0.5008336099
 40
0.6375702927
 40
0.7692289687
 40
0.8317262253
 40
0.8912978807
 40
0.9475063003
 40
1.0
 40
1.0
 40
1.0
 40
1.0
 10
306.4025819439
 20
113.0965466011
 30
0.0
 10
307.2611350601
 20
112.6337623963
 30
0.0
 10
309.0821312444
 20
111.7561776282
 30
0.0
 10
311.9923526853
 20
110.6153932091
 30
0.0
 10
315.1462007841
 20
109.6161113901
 30
0.0
 10
319.7050319106
 20
108.468658235
 30
0.0
 10
325.755987082
 20
107.4751651181
 30
0.0
 10
333.2366412999
 20
106.9903801205
 30
0.0
 10
340.7233456384
 20
107.2163742251
 30
0.0
 10
346.7920563885
 20
108.0006680961
 30
0.0
 10
351.3712203384
 20
108.9908448878
 30
0.0
 10
354.5411570205
 20
109.8809953311
 30
0.0
 10
357.4700108613
 20
110.9209254428
 30
0.0
 10
359.3062223858
 20
111.7357990203
 30
0.0
 10
360.1727520044
 20
112.1690382514
 30
0.0
  0
SPLINE
  5
57D
330
224
100
AcDbEntity
  8
7_ALL_FEATURES
  6
Continuous
 62
     7
100
AcDbSpline
 70
     0
 71
     3
 72
    24
 73
    20
 74
     0
 42
0.000000001
 43
0.0000001
 40
0.0
 40
0.0
 40
0.0
 40
0.0
 40
0.0655706278
 40
0.1356401073
 40
0.2092143057
 40
0.2851771079
 40
0.3623259876
 40
0.4394210394
 40
0.5152234498
 40
0.5885374733
 40
0.6582532084
 40
0.7233945127
 40
0.783176179
 40
0.8370786367
 40
0.8849534121
 40
0.9271756337
 40
0.9648396186
 40
0.9825909001
 40
1.0
 40
1.0
 40
1.0
 40
1.0
 10
349.6920256955
 20
99.6649889632
 30
0.0
 10
348.7134819485
 20
99.3126783533
 30
0.0
 10
346.6524624436
 20
98.6838642859
 30
0.0
 10
343.4070901547
 20
97.9772798904
 30
0.0
 10
339.9557053499
 20
97.486144572
 30
0.0
 10
336.3674359158
 20
97.2204843612
 30
0.0
 10
332.7137512302
 20
97.1857322041
 30
0.0
 10
329.0677596672
 20
97.3826067579
 30
0.0
 10
325.5023404148
 20
97.8071350661
 30
0.0
 10
322.0886531959
 20
98.4507079168
 30
0.0
 10
318.8945470658
 20
99.3003398769
 30
0.0
 10
315.9830208878
 20
100.3390330203
 30
0.0
 10
313.4107452854
 20
101.5465460959
 30
0.0
 10
311.2267090849
 20
102.9002286538
 30
0.0
 10
309.4717643824
 20
104.377982241
 30
0.0
 10
308.1799980634
 20
105.9577957931
 30
0.0
 10
307.5068303821
 20
107.376035293
 30
0.0
 10
307.2576311981
 20
108.5080220727
 30
0.0
 10
307.2236927659
 20
109.067469345
 30
0.0
 10
307.2290501085
 20
109.3435479429
 30
0.0
  0
SPLINE
  5
57E
330
224
100
AcDbEntity
  8
7_ALL_FEATURES
  6
Continuous
 62
     7
100
AcDbSpline
 70
     0
 71
     3
 72
    24
 73
    20
 74
     0
 42
0.000000001
 43
0.0000001
 40
0.0
 40
0.0
 40
0.0
 40
0.0
 40
0.0655706278
 40
0.1356401073
 40
0.2092143057
 40
0.2851771079
 40
0.3623259876
 40
0.4394210394
 40
0.5152234498
 40
0.5885374733
 40
0.6582532084
 40
0.7233945127
 40
0.783176179
 40
0.8370786367
 40
0.8849534121
 40
0.9271756337
 40
0.9648396186
 40
0.9825909001
 40
1.0
 40
1.0
 40
1.0
 40
1.0
 10
349.6137780636
 20
95.6451791644
 30
0.0
 10
348.6352343165
 20
95.2928685545
 30
0.0
 10
346.5742148117
 20
94.664054487
 30
0.0
 10
343.3288425227
 20
93.9574700916
 30
0.0
 10
339.8774577179
 20
93.4663347732
 30
0.0
 10
336.2891882839
 20
93.2006745623
 30
0.0
 10
332.6355035982
 20
93.1659224053
 30
0.0
 10
328.9895120352
 20
93.3627969591
 30
0.0
 10
325.4240927829
 20
93.7873252673
 30
0.0
 10
322.010405564
 20
94.4308981179
 30
0.0
 10
318.8162994339
 20
95.280530078
 30
0.0
 10
315.9047732558
 20
96.3192232214
 30
0.0
 10
313.3324976534
 20
97.5267362971
 30
0.0
 10
311.148461453
 20
98.8804188549
 30
0.0
 10
309.3935167504
 20
100.3581724422
 30
0.0
 10
308.1017504314
 20
101.9379859942
 30
0.0
 10
307.4285827501
 20
103.3562254942
 30
0.0
 10
307.1793835661
 20
104.4882122739
 30
0.0
 10
307.145445134
 20
105.0476595462
 30
0.0
 10
307.1508024766
 20
105.323738144
 30
0.0
  0
SPLINE
  5
57F
330
224
100
AcDbEntity
  8
7_ALL_FEATURES
  6
Continuous
 62
     7
100
AcDbSpline
 70
     0
 71
     3
 72
    17
 73
    13
 74
     0
 42
0.000000001
 43
0.0000001
 40
0.0
 40
0.0
 40
0.0
 40
0.0
 40
0.1207503466
 40
0.2516179008
 40
0.3883485359
 40
0.5262322269
 40
0.6604805323
 40
0.7865684432
 40
0.8453322631
 40
0.9006785827
 40
0.9522996309
 40
1.0
 40
1.0
 40
1.0
 40
1.0
 10
349.0356831126
 20
93.4467043636
 30
0.0
 10
347.5432168128
 20
92.9393620479
 30
0.0
 10
344.356661204
 20
92.1022021077
 30
0.0
 10
339.3336302425
 20
91.3588939727
 30
0.0
 10
334.0385908543
 20
91.097558143
 30
0.0
 10
328.6983593592
 20
91.3301659493
 30
0.0
 10
323.5415061724
 20
92.0466052894
 30
0.0
 10
319.486473941
 20
93.0426573675
 30
0.0
 10
316.5223689119
 20
94.0716842984
 30
0.0
 10
314.5300080873
 20
94.9202662923
 30
0.0
 10
312.7375696173
 20
95.8543836888
 30
0.0
 10
311.6442564829
 20
96.5560994648
 30
0.0
 10
311.1397073258
 20
96.9210568648
 30
0.0
  0
SPLINE
  5
580
330
224
100
AcDbEntity
  8
7_ALL_FEATURES
  6
Continuous
 62
     7
100
AcDbSpline
 70
     0
 71
     3
 72
    22
 73
    18
 74
     0
 42
0.000000001
 43
0.0000001
 40
0.0
 40
0.0
 40
0.0
 40
0.0
 40
0.0645689352
 40
0.133462684
 40
0.2057652265
 40
0.2804545196
 40
0.432456683
 40
0.5075503834
 40
0.5805148817
 40
0.6503011198
 40
0.715968349
 40
0.7767309114
 40
0.8320173855
 40
0.881551479
 40
0.925468021
 40
0.9644718331
 40
1.0
 40
1.0
 40
1.0
 40
1.0
 10
349.7702733275
 20
103.684798762
 30
0.0
 10
348.823714363
 20
103.3440038133
 30
0.0
 10
346.8327728902
 20
102.7331180179
 30
0.0
 10
343.7001190153
 20
102.0386465554
 30
0.0
 10
340.3699071943
 20
101.5456079648
 30
0.0
 10
335.7242895178
 20
101.1678689848
 30
0.0
 10
331.0080433022
 20
101.2261889346
 30
0.0
 10
326.3563137575
 20
101.7165458501
 30
0.0
 10
323.0083547788
 20
102.2910879507
 30
0.0
 10
319.8510250438
 20
103.0623909274
 30
0.0
 10
316.9427308896
 20
104.0160861715
 30
0.0
 10
314.3369804881
 20
105.1344578137
 30
0.0
 10
312.0808521252
 20
106.3975748879
 30
0.0
 10
310.2142452519
 20
107.7842196491
 30
0.0
 10
308.7703595064
 20
109.2751260504
 30
0.0
 10
307.7793383127
 20
110.8508587267
 30
0.0
 10
307.4349675685
 20
111.9796577967
 30
0.0
 10
307.3579278866
 20
112.5278299813
 30
0.0
  0
SPLINE
  5
581
330
224
100
AcDbEntity
  8
7_ALL_FEATURES
  6
Continuous
 62
     7
100
AcDbSpline
 70
     0
 71
     3
 72
    15
 73
    11
 74
     0
 42
0.000000001
 43
0.0000001
 40
0.0
 40
0.0
 40
0.0
 40
0.0
 40
0.1174147676
 40
0.2450248302
 40
0.3790880401
 40
0.5153965663
 40
0.649600072
 40
0.77748638
 40
0.8952807188
 40
1.0
 40
1.0
 40
1.0
 40
1.0
 10
349.8517812774
 20
107.8721006358
 30
0.0
 10
348.4525695526
 20
107.3683345675
 30
0.0
 10
345.4573916186
 20
106.5215818796
 30
0.0
 10
340.7156154582
 20
105.7220755958
 30
0.0
 10
335.6805205773
 20
105.3609606307
 30
0.0
 10
330.5504071382
 20
105.4534841398
 30
0.0
 10
325.5266407073
 20
105.9957518654
 30
0.0
 10
320.8053619264
 20
106.9662388294
 30
0.0
 10
316.5713003192
 20
108.3254365717
 30
0.0
 10
314.0113667252
 20
109.5354822322
 30
0.0
 10
312.8694148157
 20
110.2101093701
 30
0.0
  0
SPLINE
  5
582
330
224
100
AcDbEntity
  8
7_ALL_FEATURES
  6
Continuous
 62
     7
100
AcDbSpline
 70
     0
 71
     3
 72
    10
 73
     6
 74
     0
 42
0.000000001
 43
0.0000001
 40
0.0
 40
0.0
 40
0.0
 40
0.0
 40
0.2417657794
 40
0.4919756519
 40
1.0
 40
1.0
 40
1.0
 40
1.0
 10
323.2860183845
 20
107.7684709616
 30
0.0
 10
324.3516930609
 20
107.5245054172
 30
0.0
 10
326.5407850442
 20
107.1137537642
 30
0.0
 10
331.0351293981
 20
106.5961626434
 30
0.0
 10
334.477175849
 20
106.5470351101
 30
0.0
 10
336.7711820963
 20
106.668912771
 30
0.0
  0
SPLINE
  5
583
330
224
100
AcDbEntity
  8
7_ALL_FEATURES
  6
Continuous
 62
     7
100
AcDbSpline
 70
     0
 71
     3
 72
     9
 73
     5
 74
     0
 42
0.000000001
 43
0.0000001
 40
0.0
 40
0.0
 40
0.0
 40
0.0
 40
0.2558597861
 40
1.0
 40
1.0
 40
1.0
 40
1.0
 10
336.7711820963
 20
106.668912771
 30
0.0
 10
337.2975590526
 20
106.6968785154
 30
0.0
 10
339.3528972137
 20
106.8386157671
 30
0.0
 10
341.4000364741
 20
107.1102498094
 30
0.0
 10
342.9063263205
 20
107.3955412896
 30
0.0
  0
SPLINE
  5
584
330
224
100
AcDbEntity
  8
7_ALL_FEATURES
  6
Continuous
 62
     7
100
AcDbSpline
 70
     0
 71
     3
 72
    17
 73
    13
 74
     0
 42
0.000000001
 43
0.0000001
 40
0.0
 40
0.0
 40
0.0
 40
0.0
 40
0.0440669303
 40
0.0925686156
 40
0.1454538763
 40
0.2024807816
 40
0.32723616
 40
0.4626371938
 40
0.6033461253
 40
0.7435581739
 40
0.8775074003
 40
1.0
 40
1.0
 40
1.0
 40
1.0
 10
312.1315200937
 20
108.751854927
 30
0.0
 10
312.5267733945
 20
108.3671828965
 30
0.0
 10
313.4191019875
 20
107.6218508108
 30
0.0
 10
314.9473609199
 20
106.6267896694
 30
0.0
 10
316.7099171355
 20
105.7125448293
 30
0.0
 10
319.4242490637
 20
104.5833436101
 30
0.0
 10
323.249187787
 20
103.4732707935
 30
0.0
 10
328.2067962846
 20
102.6441507527
 30
0.0
 10
333.416810599
 20
102.3242870928
 30
0.0
 10
338.6146016295
 20
102.5302471012
 30
0.0
 10
343.5358176206
 20
103.2506722464
 30
0.0
 10
346.6444645003
 20
104.0963159085
 30
0.0
 10
348.0869377684
 20
104.6156576736
 30
0.0
  0
SPLINE
  5
585
330
224
100
AcDbEntity
  8
7_ALL_FEATURES
  6
Continuous
 62
     7
100
AcDbSpline
 70
     0
 71
     3
 72
    11
 73
     7
 74
     0
 42
0.000000001
 43
0.0000001
 40
0.0
 40
0.0
 40
0.0
 40
0.0
 40
0.2465854243
 40
0.5009786705
 40
0.7548755391
 40
1.0
 40
1.0
 40
1.0
 40
1.0
 10
324.8655652305
 20
100.2906746651
 30
0.0
 10
326.2085159369
 20
100.0126292268
 30
0.0
 10
328.9680020388
 20
99.5908522524
 30
0.0
 10
333.164517894
 20
99.342561764
 30
0.0
 10
337.3582567275
 20
99.4721283762
 30
0.0
 10
340.1176140396
 20
99.8164836885
 30
0.0
 10
341.4594787155
 20
100.0573241662
 30
0.0
  0
SPLINE
  5
586
330
224
100
AcDbEntity
  8
7_ALL_FEATURES
  6
Continuous
 62
     7
100
AcDbSpline
 70
     0
 71
     3
 72
    11
 73
     7
 74
     0
 42
0.000000001
 43
0.0000001
 40
0.0
 40
0.0
 40
0.0
 40
0.0
 40
0.2465854243
 40
0.5009786705
 40
0.7548755391
 40
1.0
 40
1.0
 40
1.0
 40
1.0
 10
324.7873175985
 20
96.2708648663
 30
0.0
 10
326.1302683049
 20
95.992819428
 30
0.0
 10
328.8897544068
 20
95.5710424536
 30
0.0
 10
333.086270262
 20
95.3227519652
 30
0.0
 10
337.2800090955
 20
95.4523185773
 30
0.0
 10
340.0393664076
 20
95.7966738897
 30
0.0
 10
341.3812310835
 20
96.0375143674
 30
0.0
  0
SPLINE
  5
587
330
224
100
AcDbEntity
  8
7_ALL_FEATURES
  6
Continuous
 62
     7
100
AcDbSpline
 70
     0
 71
     3
 72
    11
 73
     7
 74
     0
 42
0.000000001
 43
0.0000001
 40
0.0
 40
0.0
 40
0.0
 40
0.0
 40
0.2182636683
 40
0.4578151201
 40
0.7187567595
 40
1.0
 40
1.0
 40
1.0
 40
1.0
 10
354.2348867918
 20
108.1088091607
 30
0.0
 10
353.8586115753
 20
107.7532130454
 30
0.0
 10
353.0128017951
 20
107.0661944925
 30
0.0
 10
351.5693609111
 20
106.1533444135
 30
0.0
 10
349.9098172425
 20
105.3204672335
 30
0.0
 10
348.7146005815
 20
104.841638647
 30
0.0
 10
348.0869377684
 20
104.6156576736
 30
0.0
  0
SPLINE
  5
588
330
224
100
AcDbEntity
  8
7_ALL_FEATURES
  6
Continuous
 62
     7
100
AcDbSpline
 70
     0
 71
     3
 72
     9
 73
     5
 74
     0
 42
0.000000001
 43
0.0000001
 40
0.0
 40
0.0
 40
0.0
 40
0.0
 40
0.2382404034
 40
1.0
 40
1.0
 40
1.0
 40
1.0
 10
302.8389401966
 20
115.3793652167
 30
0.0
 10
303.084135069
 20
115.190624067
 30
0.0
 10
304.1306001109
 20
114.420892488
 30
0.0
 10
305.239433593
 20
113.7376585324
 30
0.0
 10
306.1052398159
 20
113.2588808873
 30
0.0
  0
SPLINE
  5
589
330
224
100
AcDbEntity
  8
7_ALL_FEATURES
  6
Continuous
 62
     7
100
AcDbSpline
 70
     0
 71
     3
 72
     9
 73
     5
 74
     0
 42
0.000000001
 43
0.0000001
 40
0.0
 40
0.0
 40
0.0
 40
0.0
 40
0.473878338
 40
1.0
 40
1.0
 40
1.0
 40
1.0
 10
354.5653880509
 20
96.0670301213
 30
0.0
 10
353.8336360456
 20
95.5809388402
 30
0.0
 10
352.2089365714
 20
94.6749602444
 30
0.0
 10
350.492329822
 20
93.9656701598
 30
0.0
 10
349.5746542476
 20
93.635274265
 30
0.0
  0
SPLINE
  5
58A
330
224
100
AcDbEntity
  8
7_ALL_FEATURES
  6
Continuous
 62
     7
100
AcDbSpline
 70
     0
 71
     3
 72
     9
 73
     5
 74
     0
 42
0.000000001
 43
0.0000001
 40
0.0
 40
0.0
 40
0.0
 40
0.0
 40
0.2375736705
 40
1.0
 40
1.0
 40
1.0
 40
1.0
 10
353.3865222719
 20
109.4324115
 30
0.0
 10
353.1172364202
 20
109.2867755128
 30
0.0
 10
351.9703314558
 20
108.6986478702
 30
0.0
 10
350.7761800492
 20
108.2049171257
 30
0.0
 10
349.8517812774
 20
107.8721006358
 30
0.0
  0
SPLINE
  5
58B
330
224
100
AcDbEntity
  8
7_ALL_FEATURES
  6
Continuous
 62
     7
100
AcDbSpline
 70
     0
 71
     3
 72
    14
 73
    10
 74
     0
 42
0.000000001
 43
0.0000001
 40
0.0
 40
0.0
 40
0.0
 40
0.0
 40
0.0951651486
 40
0.1967710632
 40
0.3065172565
 40
0.4255194596
 40
0.554359649
 40
0.6932312392
 40
1.0
 40
1.0
 40
1.0
 40
1.0
 10
358.7823735097
 20
110.7997593001
 30
0.0
 10
358.6667624343
 20
110.4422687098
 30
0.0
 10
358.3547622191
 20
109.7252781055
 30
0.0
 10
357.6880872888
 20
108.7096952883
 30
0.0
 10
356.8183600626
 20
107.7323226654
 30
0.0
 10
355.7537361471
 20
106.8004989827
 30
0.0
 10
354.5032393414
 20
105.920194341
 30
0.0
 10
352.5359545563
 20
104.7869145228
 30
0.0
 10
350.9098147759
 20
104.09507428
 30
0.0
 10
349.7702733275
 20
103.684798762
 30
0.0
  0
SPLINE
  5
58C
330
224
100
AcDbEntity
  8
7_ALL_FEATURES
  6
Continuous
 62
     7
100
AcDbSpline
 70
     0
 71
     3
 72
     9
 73
     5
 74
     0
 42
0.000000001
 43
0.0000001
 40
0.0
 40
0.0
 40
0.0
 40
0.0
 40
0.2475944727
 40
1.0
 40
1.0
 40
1.0
 40
1.0
 10
358.9692431183
 20
108.3376485262
 30
0.0
 10
358.9667078174
 20
108.2069975005
 30
0.0
 10
358.9367670457
 20
107.679808745
 30
0.0
 10
358.8263173375
 20
107.1577878432
 30
0.0
 10
358.7041258778
 20
106.7799495012
 30
0.0
  0
SPLINE
  5
58D
330
224
100
AcDbEntity
  8
7_ALL_FEATURES
  6
Continuous
 62
     7
100
AcDbSpline
 70
     0
 71
     3
 72
    14
 73
    10
 74
     0
 42
0.000000001
 43
0.0000001
 40
0.0
 40
0.0
 40
0.0
 40
0.0
 40
0.0951651486
 40
0.1967710632
 40
0.3065172565
 40
0.4255194596
 40
0.554359649
 40
0.6932312392
 40
1.0
 40
1.0
 40
1.0
 40
1.0
 10
358.7041258778
 20
106.7799495012
 30
0.0
 10
358.5885148023
 20
106.422458911
 30
0.0
 10
358.2765145871
 20
105.7054683067
 30
0.0
 10
357.6098396568
 20
104.6898854894
 30
0.0
 10
356.7401124306
 20
103.7125128666
 30
0.0
 10
355.6754885152
 20
102.7806891838
 30
0.0
 10
354.4249917095
 20
101.9003845422
 30
0.0
 10
352.4577069243
 20
100.7671047239
 30
0.0
 10
350.8315671439
 20
100.0752644812
 30
0.0
 10
349.6920256955
 20
99.6649889632
 30
0.0
  0
SPLINE
  5
58E
330
224
100
AcDbEntity
  8
7_ALL_FEATURES
  6
Continuous
 62
     7
100
AcDbSpline
 70
     0
 71
     3
 72
    15
 73
    11
 74
     0
 42
0.000000001
 43
0.0000001
 40
0.0
 40
0.0
 40
0.0
 40
0.0
 40
0.0941763075
 40
0.1925318939
 40
0.298576392
 40
0.4148151926
 40
0.5427450516
 40
0.6830013841
 40
0.8356237458
 40
1.0
 40
1.0
 40
1.0
 40
1.0
 10
358.8909954863
 20
104.3178387274
 30
0.0
 10
358.8828183402
 20
103.8964478974
 30
0.0
 10
358.7595209891
 20
103.0337643921
 30
0.0
 10
358.2647488551
 20
101.7814491695
 30
0.0
 10
357.4727302352
 20
100.5746387144
 30
0.0
 10
356.3977913824
 20
99.4254929808
 30
0.0
 10
355.0541022813
 20
98.34363359
 30
0.0
 10
353.4570130216
 20
97.3389847669
 30
0.0
 10
351.6245547637
 20
96.422152251
 30
0.0
 10
350.3059228981
 20
95.8943759627
 30
0.0
 10
349.6137780636
 20
95.6451791644
 30
0.0
  0
SPLINE
  5
58F
330
224
100
AcDbEntity
  8
0
  6
Continuous
 62
     7
100
AcDbSpline
 70
     0
 71
     3
 72
     9
 73
     5
 74
     0
 42
0.000000001
 43
0.0000001
 40
0.0
 40
0.0
 40
0.0
 40
0.0
 40
0.242085687
 40
1.0
 40
1.0
 40
1.0
 40
1.0
 10
300.2786546427
 20
136.3368265407
 30
0.0
 10
300.2985447313
 20
136.3462612602
 30
0.0
 10
300.3812297657
 20
136.3841259059
 30
0.0
 10
300.465848923
 20
136.4177188852
 30
0.0
 10
300.5306957414
 20
136.4410660491
 30
0.0
  0
SPLINE
  5
590
330
224
100
AcDbEntity
  8
0
  6
Continuous
 62
     7
100
AcDbSpline
 70
     0
 71
     3
 72
     9
 73
     5
 74
     0
 42
0.000000001
 43
0.0000001
 40
0.0
 40
0.0
 40
0.0
 40
0.0
 40
0.242085687
 40
1.0
 40
1.0
 40
1.0
 40
1.0
 10
363.0191559048
 20
132.8432502403
 30
0.0
 10
363.0390459934
 20
132.8526849598
 30
0.0
 10
363.1217310278
 20
132.8905496054
 30
0.0
 10
363.2063501851
 20
132.9241425848
 30
0.0
 10
363.2711970036
 20
132.9474897487
 30
0.0
  0
SPLINE
  5
591
330
224
100
AcDbEntity
  8
02___PRT_ALL_AXES
  6
Continuous
 62
     7
100
AcDbSpline
 70
     0
 71
     3
 72
     9
 73
     5
 74
     0
 42
0.000000001
 43
0.0000001
 40
0.0
 40
0.0
 40
0.0
 40
0.0
 40
0.2464754283
 40
1.0
 40
1.0
 40
1.0
 40
1.0
 10
298.5078077067
 20
137.7926326651
 30
0.0
 10
298.5074226256
 20
137.7701115652
 30
0.0
 10
298.5099014392
 20
137.6786912849
 30
0.0
 10
298.5290046733
 20
137.5879108583
 30
0.0
 10
298.5511730176
 20
137.5227151601
 30
0.0
  0
SPLINE
  5
592
330
224
100
AcDbEntity
  8
02___PRT_ALL_AXES
  6
Continuous
 62
     7
100
AcDbSpline
 70
     0
 71
     3
 72
    10
 73
     6
 74
     0
 42
0.000000001
 43
0.0000001
 40
0.0
 40
0.0
 40
0.0
 40
0.0
 40
0.4324488503
 40
0.6989117276
 40
1.0
 40
1.0
 40
1.0
 40
1.0
 10
298.5615532185
 20
137.4938499415
 30
0.0
 10
298.6360584554
 20
137.2973818472
 30
0.0
 10
298.8662485752
 20
137.0239674791
 30
0.0
 10
299.2614660734
 20
136.7434116971
 30
0.0
 10
299.5074396271
 20
136.6155593088
 30
0.0
 10
299.6406836616
 20
136.5551596581
 30
0.0
  0
SPLINE
  5
593
330
224
100
AcDbEntity
  8
02___PRT_ALL_AXES
  6
Continuous
 62
     7
100
AcDbSpline
 70
     0
 71
     3
 72
    11
 73
     7
 74
     0
 42
0.000000001
 43
0.0000001
 40
0.0
 40
0.0
 40
0.0
 40
0.0
 40
0.2404327136
 40
0.5047992276
 40
0.7666282088
 40
1.0
 40
1.0
 40
1.0
 40
1.0
 10
299.860967659
 20
136.4626533437
 30
0.0
 10
300.2361129295
 20
136.3167921476
 30
0.0
 10
301.061660323
 20
136.1072529065
 30
0.0
 10
302.3454768033
 20
136.0014791165
 30
0.0
 10
303.6183667099
 20
136.0940325949
 30
0.0
 10
304.4298470375
 20
136.2967441857
 30
0.0
 10
304.7929659364
 20
136.4408906663
 30
0.0
  0
SPLINE
  5
594
330
224
100
AcDbEntity
  8
02___PRT_ALL_AXES
  6
Continuous
 62
     7
100
AcDbSpline
 70
     0
 71
     3
 72
     9
 73
     5
 74
     0
 42
0.000000001
 43
0.0000001
 40
0.0
 40
0.0
 40
0.0
 40
0.0
 40
0.5512964391
 40
1.0
 40
1.0
 40
1.0
 40
1.0
 10
304.7929659364
 20
136.4408906663
 30
0.0
 10
305.0025212932
 20
136.5240773781
 30
0.0
 10
305.3720113624
 20
136.704585155
 30
0.0
 10
305.6910018209
 20
136.973721036
 30
0.0
 10
305.8032416273
 20
137.1188985741
 30
0.0
  0
SPLINE
  5
595
330
224
100
AcDbEntity
  8
02___PRT_ALL_AXES
  6
Continuous
 62
     7
100
AcDbSpline
 70
     0
 71
     3
 72
     9
 73
     5
 74
     0
 42
0.000000001
 43
0.0000001
 40
0.0
 40
0.0
 40
0.0
 40
0.0
 40
0.2559147846
 40
1.0
 40
1.0
 40
1.0
 40
1.0
 10
305.8032416273
 20
137.1188985741
 30
0.0
 10
305.8109005661
 20
137.1288050939
 30
0.0
 10
305.8402399046
 20
137.1679645325
 30
0.0
 10
305.8671608805
 20
137.2089522269
 30
0.0
 10
305.8855267773
 20
137.2403885885
 30
0.0
  0
SPLINE
  5
596
330
224
100
AcDbEntity
  8
02___PRT_ALL_AXES
  6
Continuous
 62
     7
100
AcDbSpline
 70
     0
 71
     3
 72
     9
 73
     5
 74
     0
 42
0.000000001
 43
0.0000001
 40
0.0
 40
0.0
 40
0.0
 40
0.0
 40
0.2601696182
 40
1.0
 40
1.0
 40
1.0
 40
1.0
 10
305.8855267773
 20
137.2403885885
 30
0.0
 10
305.8983626726
 20
137.2623594104
 30
0.0
 10
305.9446025542
 20
137.3485403876
 30
0.0
 10
305.9774644454
 20
137.442191717
 30
0.0
 10
305.9916211446
 20
137.5131515566
 30
0.0
  0
SPLINE
  5
597
330
224
100
AcDbEntity
  8
02___PRT_ALL_AXES
  6
Continuous
 62
     7
100
AcDbSpline
 70
     0
 71
     3
 72
     9
 73
     5
 74
     0
 42
0.000000001
 43
0.0000001
 40
0.0
 40
0.0
 40
0.0
 40
0.0
 40
0.2474040833
 40
1.0
 40
1.0
 40
1.0
 40
1.0
 10
310.1553060082
 20
135.2764709891
 30
0.0
 10
310.1670648937
 20
135.3349575156
 30
0.0
 10
310.2188960086
 20
135.5704787066
 30
0.0
 10
310.2877861563
 20
135.8021993788
 30
0.0
 10
310.3482447116
 20
135.9733068376
 30
0.0
  0
SPLINE
  5
598
330
224
100
AcDbEntity
  8
7_ALL_FEATURES
  6
Continuous
 62
     7
100
AcDbSpline
 70
     0
 71
     3
 72
    11
 73
     7
 74
     0
 42
0.000000001
 43
0.0000001
 40
0.0
 40
0.0
 40
0.0
 40
0.0
 40
0.2220136759
 40
0.4590792388
 40
0.7170907823
 40
1.0
 40
1.0
 40
1.0
 40
1.0
 10
357.0551216253
 20
134.3344378884
 30
0.0
 10
356.9808017546
 20
133.9619127599
 30
0.0
 10
356.7361632562
 20
133.2076798016
 30
0.0
 10
356.1226829505
 20
132.1370185596
 30
0.0
 10
355.2658675274
 20
131.110939539
 30
0.0
 10
354.5731393454
 20
130.492469189
 30
0.0
 10
354.1940957818
 20
130.1914061867
 30
0.0
  0
SPLINE
  5
599
330
224
100
AcDbEntity
  8
02___PRT_ALL_AXES
  6
Continuous
 62
     7
100
AcDbSpline
 70
     0
 71
     3
 72
    13
 73
     9
 74
     0
 42
0.000000001
 43
0.0000001
 40
0.0
 40
0.0
 40
0.0
 40
0.0
 40
0.1042909808
 40
0.2257500579
 40
0.5001919802
 40
0.7745263792
 40
0.8958624272
 40
1.0
 40
1.0
 40
1.0
 40
1.0
 10
304.4130870861
 20
136.3234348736
 30
0.0
 10
304.2837710045
 20
136.4141078178
 30
0.0
 10
303.9782915439
 20
136.5739496531
 30
0.0
 10
303.2563146409
 20
136.8098877407
 30
0.0
 10
302.2392098364
 20
136.932095458
 30
0.0
 10
301.2183489766
 20
136.8487169573
 30
0.0
 10
300.4885380665
 20
136.6403412826
 30
0.0
 10
300.1776709185
 20
136.4921943831
 30
0.0
 10
300.0452835944
 20
136.4064943354
 30
0.0
  0
SPLINE
  5
59A
330
224
100
AcDbEntity
  8
02___PRT_ALL_AXES
  6
Continuous
 62
     7
100
AcDbSpline
 70
     0
 71
     3
 72
    13
 73
     9
 74
     0
 42
0.000000001
 43
0.0000001
 40
0.0
 40
0.0
 40
0.0
 40
0.0
 40
0.1042909808
 40
0.2257500579
 40
0.5001919802
 40
0.7745263792
 40
0.8958624272
 40
1.0
 40
1.0
 40
1.0
 40
1.0
 10
367.1535883482
 20
132.8298585731
 30
0.0
 10
367.0242722667
 20
132.9205315174
 30
0.0
 10
366.718792806
 20
133.0803733527
 30
0.0
 10
365.9968159031
 20
133.3163114402
 30
0.0
 10
364.9797110985
 20
133.4385191575
 30
0.0
 10
363.9588502388
 20
133.3551406568
 30
0.0
 10
363.2290393287
 20
133.1467649821
 30
0.0
 10
362.9181721807
 20
132.9986180827
 30
0.0
 10
362.7857848565
 20
132.912918035
 30
0.0
  0
SPLINE
  5
59B
330
224
100
AcDbEntity
  8
02___PRT_ALL_AXES
  6
Continuous
 62
     7
100
AcDbSpline
 70
     0
 71
     3
 72
     9
 73
     5
 74
     0
 42
0.000000001
 43
0.0000001
 40
0.0
 40
0.0
 40
0.0
 40
0.0
 40
0.2464754283
 40
1.0
 40
1.0
 40
1.0
 40
1.0
 10
361.2483089689
 20
134.2990563647
 30
0.0
 10
361.2479238877
 20
134.2765352648
 30
0.0
 10
361.2504027014
 20
134.1851149845
 30
0.0
 10
361.2695059354
 20
134.0943345578
 30
0.0
 10
361.2916742798
 20
134.0291388597
 30
0.0
  0
SPLINE
  5
59C
330
224
100
AcDbEntity
  8
02___PRT_ALL_AXES
  6
Continuous
 62
     7
100
AcDbSpline
 70
     0
 71
     3
 72
    10
 73
     6
 74
     0
 42
0.000000001
 43
0.0000001
 40
0.0
 40
0.0
 40
0.0
 40
0.0
 40
0.4324488503
 40
0.6989117276
 40
1.0
 40
1.0
 40
1.0
 40
1.0
 10
361.3020544806
 20
134.0002736411
 30
0.0
 10
361.3765597176
 20
133.8038055467
 30
0.0
 10
361.6067498374
 20
133.5303911787
 30
0.0
 10
362.0019673356
 20
133.2498353967
 30
0.0
 10
362.2479408892
 20
133.1219830083
 30
0.0
 10
362.3811849237
 20
133.0615833576
 30
0.0
  0
SPLINE
  5
59D
330
224
100
AcDbEntity
  8
02___PRT_ALL_AXES
  6
Continuous
 62
     7
100
AcDbSpline
 70
     0
 71
     3
 72
    11
 73
     7
 74
     0
 42
0.000000001
 43
0.0000001
 40
0.0
 40
0.0
 40
0.0
 40
0.0
 40
0.2404327136
 40
0.5047992276
 40
0.7666282088
 40
1.0
 40
1.0
 40
1.0
 40
1.0
 10
362.6014689212
 20
132.9690770433
 30
0.0
 10
362.9766141917
 20
132.8232158472
 30
0.0
 10
363.8021615852
 20
132.6136766061
 30
0.0
 10
365.0859780654
 20
132.507902816
 30
0.0
 10
366.358867972
 20
132.6004562944
 30
0.0
 10
367.1703482997
 20
132.8031678853
 30
0.0
 10
367.5334671986
 20
132.9473143659
 30
0.0
  0
SPLINE
  5
59E
330
224
100
AcDbEntity
  8
02___PRT_ALL_AXES
  6
Continuous
 62
     7
100
AcDbSpline
 70
     0
 71
     3
 72
     9
 73
     5
 74
     0
 42
0.000000001
 43
0.0000001
 40
0.0
 40
0.0
 40
0.0
 40
0.0
 40
0.5512964391
 40
1.0
 40
1.0
 40
1.0
 40
1.0
 10
367.5334671986
 20
132.9473143659
 30
0.0
 10
367.7430225553
 20
133.0305010777
 30
0.0
 10
368.1125126245
 20
133.2110088545
 30
0.0
 10
368.431503083
 20
133.4801447355
 30
0.0
 10
368.5437428895
 20
133.6253222737
 30
0.0
  0
SPLINE
  5
59F
330
224
100
AcDbEntity
  8
02___PRT_ALL_AXES
  6
Continuous
 62
     7
100
AcDbSpline
 70
     0
 71
     3
 72
     9
 73
     5
 74
     0
 42
0.000000001
 43
0.0000001
 40
0.0
 40
0.0
 40
0.0
 40
0.0
 40
0.2559147846
 40
1.0
 40
1.0
 40
1.0
 40
1.0
 10
368.5437428895
 20
133.6253222737
 30
0.0
 10
368.5514018282
 20
133.6352287935
 30
0.0
 10
368.5807411668
 20
133.6743882321
 30
0.0
 10
368.6076621426
 20
133.7153759265
 30
0.0
 10
368.6260280394
 20
133.746812288
 30
0.0
  0
SPLINE
  5
5A0
330
224
100
AcDbEntity
  8
02___PRT_ALL_AXES
  6
Continuous
 62
     7
100
AcDbSpline
 70
     0
 71
     3
 72
     9
 73
     5
 74
     0
 42
0.000000001
 43
0.0000001
 40
0.0
 40
0.0
 40
0.0
 40
0.0
 40
0.2601696182
 40
1.0
 40
1.0
 40
1.0
 40
1.0
 10
368.6260280394
 20
133.746812288
 30
0.0
 10
368.6388639348
 20
133.76878311
 30
0.0
 10
368.6851038164
 20
133.8549640872
 30
0.0
 10
368.7179657076
 20
133.9486154166
 30
0.0
 10
368.7321224068
 20
134.0195752562
 30
0.0
  0
SPLINE
  5
5A1
330
224
100
AcDbEntity
  8
7_ALL_FEATURES
  6
Continuous
 62
     7
100
AcDbSpline
 70
     0
 71
     3
 72
    11
 73
     7
 74
     0
 42
0.000000001
 43
0.0000001
 40
0.0
 40
0.0
 40
0.0
 40
0.0
 40
0.2869452122
 40
0.5442558579
 40
0.7785111561
 40
1.0
 40
1.0
 40
1.0
 40
1.0
 10
312.8512704663
 20
130.9959794991
 30
0.0
 10
312.4172360087
 20
131.3691637586
 30
0.0
 10
311.6400307016
 20
132.1349217429
 30
0.0
 10
310.7413907477
 20
133.4141667769
 30
0.0
 10
310.197244107
 20
134.7432445358
 30
0.0
 10
310.0852212254
 20
135.6591940245
 30
0.0
 10
310.094153291
 20
136.1009381568
 30
0.0
  0
SPLINE
  5
5A2
330
224
100
AcDbEntity
  8
7_ALL_FEATURES
  6
Continuous
 62
     7
100
AcDbSpline
 70
     0
 71
     3
 72
    19
 73
    15
 74
     0
 42
0.000000001
 43
0.0000001
 40
0.0
 40
0.0
 40
0.0
 40
0.0
 40
0.0482803223
 40
0.1016757736
 40
0.1598889989
 40
0.2223995473
 40
0.3573830476
 40
0.4999955739
 40
0.6426086792
 40
0.777594218
 40
0.8401064544
 40
0.8983209981
 40
0.9517182272
 40
1.0
 40
1.0
 40
1.0
 40
1.0
 10
354.1839102425
 20
130.1751706442
 30
0.0
 10
353.623801926
 20
129.7597242568
 30
0.0
 10
352.3772250268
 20
128.9738469231
 30
0.0
 10
350.291085522
 20
127.9743948682
 30
0.0
 10
347.9260350266
 20
127.1088737656
 30
0.0
 10
344.3617085384
 20
126.1283380642
 30
0.0
 10
339.4948027818
 20
125.3512254
 30
0.0
 10
333.4165901503
 20
125.1207358711
 30
0.0
 10
327.3519126733
 20
125.5874701238
 30
0.0
 10
322.5188543698
 20
126.5532984307
 30
0.0
 10
318.9952857474
 20
127.671724561
 30
0.0
 10
316.6656218977
 20
128.6285979755
 30
0.0
 10
314.6198625774
 20
129.708432477
 30
0.0
 10
313.4047181894
 20
130.5421705553
 30
0.0
 10
312.8611638501
 20
130.9790857983
 30
0.0
  0
SPLINE
  5
5A3
330
224
100
AcDbEntity
  8
02___PRT_ALL_AXES
  6
Continuous
 62
     7
100
AcDbSpline
 70
     0
 71
     3
 72
    16
 73
    12
 74
     0
 42
0.000000001
 43
0.0000001
 40
0.0
 40
0.0
 40
0.0
 40
0.0
 40
0.0865920421
 40
0.139984047
 40
0.1999794949
 40
0.3365056226
 40
0.4871499525
 40
0.6399492185
 40
0.7825715266
 40
0.9045228666
 40
1.0
 40
1.0
 40
1.0
 40
1.0
 10
305.904549083
 20
137.5678428751
 30
0.0
 10
305.803614923
 20
137.7693675407
 30
0.0
 10
305.5350808926
 20
138.039510136
 30
0.0
 10
305.0948045374
 20
138.315011446
 30
0.0
 10
304.5012066587
 20
138.5867644062
 30
0.0
 10
303.6247492934
 20
138.8269414907
 30
0.0
 10
302.4832373981
 20
138.9573662012
 30
0.0
 10
301.3188734322
 20
138.9271383382
 30
0.0
 10
300.2434236147
 20
138.738757422
 30
0.0
 10
299.3599472412
 20
138.4144510645
 30
0.0
 10
298.8851257884
 20
138.0776311628
 30
0.0
 10
298.7270052885
 20
137.8859082711
 30
0.0
  0
SPLINE
  5
5A4
330
224
100
AcDbEntity
  8
02___PRT_ALL_AXES
  6
Continuous
 62
     7
100
AcDbSpline
 70
     0
 71
     3
 72
     9
 73
     5
 74
     0
 42
0.000000001
 43
0.0000001
 40
0.0
 40
0.0
 40
0.0
 40
0.0
 40
0.2578764616
 40
1.0
 40
1.0
 40
1.0
 40
1.0
 10
298.7270052885
 20
137.8859082711
 30
0.0
 10
298.7164314259
 20
137.8730873432
 30
0.0
 10
298.6763829032
 20
137.822596256
 30
0.0
 10
298.6402878995
 20
137.7689211058
 30
0.0
 10
298.6164070803
 20
137.7274841735
 30
0.0
  0
SPLINE
  5
5A5
330
224
100
AcDbEntity
  8
02___PRT_ALL_AXES
  6
Continuous
 62
     7
100
AcDbSpline
 70
     0
 71
     3
 72
     9
 73
     5
 74
     0
 42
0.000000001
 43
0.0000001
 40
0.0
 40
0.0
 40
0.0
 40
0.0
 40
0.2575983138
 40
1.0
 40
1.0
 40
1.0
 40
1.0
 10
298.6164070803
 20
137.7274841735
 30
0.0
 10
298.607329609
 20
137.7117333502
 30
0.0
 10
298.5737054036
 20
137.6496829656
 30
0.0
 10
298.5468589487
 20
137.5838754324
 30
0.0
 10
298.5317827316
 20
137.5336982636
 30
0.0
  0
SPLINE
  5
5A6
330
224
100
AcDbEntity
  8
02___PRT_ALL_AXES
  6
Continuous
 62
     7
100
AcDbSpline
 70
     0
 71
     3
 72
    19
 73
    15
 74
     0
 42
0.000000001
 43
0.0000001
 40
0.0
 40
0.0
 40
0.0
 40
0.0
 40
0.0387083756
 40
0.0833623174
 40
0.1358848121
 40
0.1965904604
 40
0.338892917
 40
0.4982992589
 40
0.6580416159
 40
0.8012691909
 40
0.8625903072
 40
0.9157348995
 40
0.9609763114
 40
1.0
 40
1.0
 40
1.0
 40
1.0
 10
304.8483091474
 20
136.4585618527
 30
0.0
 10
304.8353878887
 20
136.5343970507
 30
0.0
 10
304.7721067252
 20
136.692314984
 30
0.0
 10
304.5948697461
 20
136.9000511035
 30
0.0
 10
304.3415106546
 20
137.0884172439
 30
0.0
 10
303.8878586085
 20
137.3203898846
 30
0.0
 10
303.1888702533
 20
137.5186155461
 30
0.0
 10
302.2729868769
 20
137.6125787536
 30
0.0
 10
301.3519181266
 20
137.559986661
 30
0.0
 10
300.641047201
 20
137.3934199428
 30
0.0
 10
300.1724779845
 20
137.1827375679
 30
0.0
 10
299.9064370193
 20
137.0061731833
 30
0.0
 10
299.7153885634
 20
136.8070838058
 30
0.0
 10
299.6407087325
 20
136.652380601
 30
0.0
 10
299.6223441069
 20
136.5770315283
 30
0.0
  0
SPLINE
  5
5A7
330
224
100
AcDbEntity
  8
02___PRT_ALL_AXES
  6
Continuous
 62
     7
100
AcDbSpline
 70
     0
 71
     3
 72
    19
 73
    15
 74
     0
 42
0.000000001
 43
0.0000001
 40
0.0
 40
0.0
 40
0.0
 40
0.0
 40
0.0390236886
 40
0.0842651005
 40
0.1374096928
 40
0.1987308091
 40
0.3419583841
 40
0.5017007411
 40
0.661107083
 40
0.8034095396
 40
0.8641151879
 40
0.9166376826
 40
0.9612916244
 40
1.0
 40
1.0
 40
1.0
 40
1.0
 10
362.362845369
 20
133.0834552279
 30
0.0
 10
362.3812099947
 20
133.1588043006
 30
0.0
 10
362.4558898256
 20
133.3135075054
 30
0.0
 10
362.6469382814
 20
133.5125968828
 30
0.0
 10
362.9129792467
 20
133.6891612675
 30
0.0
 10
363.3815484632
 20
133.8998436424
 30
0.0
 10
364.0924193888
 20
134.0664103606
 30
0.0
 10
365.013488139
 20
134.1190024532
 30
0.0
 10
365.9293715154
 20
134.0250392457
 30
0.0
 10
366.6283598707
 20
133.8268135842
 30
0.0
 10
367.0820119168
 20
133.5948409435
 30
0.0
 10
367.3353710082
 20
133.4064748031
 30
0.0
 10
367.5126079873
 20
133.1987386835
 30
0.0
 10
367.5758891508
 20
133.0408207503
 30
0.0
 10
367.5888104096
 20
132.9649855523
 30
0.0
  0
SPLINE
  5
5A8
330
224
100
AcDbEntity
  8
02___PRT_ALL_AXES
  6
Continuous
 62
     7
100
AcDbSpline
 70
     0
 71
     3
 72
     9
 73
     5
 74
     0
 42
0.000000001
 43
0.0000001
 40
0.0
 40
0.0
 40
0.0
 40
0.0
 40
0.2433952209
 40
1.0
 40
1.0
 40
1.0
 40
1.0
 10
361.2722839938
 20
134.0401219632
 30
0.0
 10
361.2772269444
 20
134.0565732565
 30
0.0
 10
361.2996399822
 20
134.1235247568
 30
0.0
 10
361.3302451747
 20
134.1876431337
 30
0.0
 10
361.3569083424
 20
134.233907873
 30
0.0
  0
SPLINE
  5
5A9
330
224
100
AcDbEntity
  8
02___PRT_ALL_AXES
  6
Continuous
 62
     7
100
AcDbSpline
 70
     0
 71
     3
 72
     9
 73
     5
 74
     0
 42
0.000000001
 43
0.0000001
 40
0.0
 40
0.0
 40
0.0
 40
0.0
 40
0.2426088589
 40
1.0
 40
1.0
 40
1.0
 40
1.0
 10
361.3569083424
 20
134.233907873
 30
0.0
 10
361.3647154485
 20
134.2474544153
 30
0.0
 10
361.3981579772
 20
134.3025596246
 30
0.0
 10
361.4364500445
 20
134.3546756063
 30
0.0
 10
361.4675065506
 20
134.3923319706
 30
0.0
  0
SPLINE
  5
5AA
330
224
100
AcDbEntity
  8
02___PRT_ALL_AXES
  6
Continuous
 62
     7
100
AcDbSpline
 70
     0
 71
     3
 72
    16
 73
    12
 74
     0
 42
0.000000001
 43
0.0000001
 40
0.0
 40
0.0
 40
0.0
 40
0.0
 40
0.0954771334
 40
0.2174284734
 40
0.3600507815
 40
0.5128500475
 40
0.6634943774
 40
0.8000205051
 40
0.860015953
 40
0.9134079579
 40
1.0
 40
1.0
 40
1.0
 40
1.0
 10
361.4675065506
 20
134.3923319706
 30
0.0
 10
361.6256270506
 20
134.5840548623
 30
0.0
 10
362.1004485034
 20
134.9208747641
 30
0.0
 10
362.9839248769
 20
135.2451811216
 30
0.0
 10
364.0593746944
 20
135.4335620377
 30
0.0
 10
365.2237386603
 20
135.4637899008
 30
0.0
 10
366.3652505555
 20
135.3333651903
 30
0.0
 10
367.2417079208
 20
135.0931881057
 30
0.0
 10
367.8353057996
 20
134.8214351456
 30
0.0
 10
368.2755821548
 20
134.5459338355
 30
0.0
 10
368.5441161852
 20
134.2757912403
 30
0.0
 10
368.6450503452
 20
134.0742665746
 30
0.0
  0
SPLINE
  5
5AB
330
224
100
AcDbEntity
  8
02___PRT_ALL_AXES
  6
Continuous
 62
     7
100
AcDbSpline
 70
     0
 71
     3
 72
    21
 73
    17
 74
     0
 42
0.000000001
 43
0.0000001
 40
0.0
 40
0.0
 40
0.0
 40
0.0
 40
0.037688995
 40
0.0801733413
 40
0.1303685738
 40
0.1891825891
 40
0.2561721366
 40
0.3300431061
 40
0.4905566997
 40
0.6530366095
 40
0.729248321
 40
0.7992902079
 40
0.86160986
 40
0.9153594225
 40
0.960833005
 40
1.0
 40
1.0
 40
1.0
 40
1.0
 10
306.0063272895
 20
137.6495723887
 30
0.0
 10
306.0081947412
 20
137.7587885093
 30
0.0
 10
305.9587874873
 20
137.9938743993
 30
0.0
 10
305.7446698558
 20
138.312776388
 30
0.0
 10
305.4099109146
 20
138.6023559945
 30
0.0
 10
304.9660094149
 20
138.8581457153
 30
0.0
 10
304.4271746911
 20
139.0734488402
 30
0.0
 10
303.5828748678
 20
139.3029863289
 30
0.0
 10
302.4342586402
 20
139.4392846613
 30
0.0
 10
301.2723924735
 20
139.3873188154
 30
0.0
 10
300.3914758895
 20
139.2229431563
 30
0.0
 10
299.811083456
 20
139.0490740074
 30
0.0
 10
299.3168947911
 20
138.8282947248
 30
0.0
 10
298.9248476318
 20
138.5669810767
 30
0.0
 10
298.6473235799
 20
138.2709571586
 30
0.0
 10
298.5447229072
 20
138.0403754236
 30
0.0
 10
298.5225138515
 20
137.9290534971
 30
0.0
  0
SPLINE
  5
5AC
330
224
100
AcDbEntity
  8
02___PRT_ALL_AXES
  6
Continuous
 62
     7
100
AcDbSpline
 70
     0
 71
     3
 72
    21
 73
    17
 74
     0
 42
0.000000001
 43
0.0000001
 40
0.0
 40
0.0
 40
0.0
 40
0.0
 40
0.037688995
 40
0.0801733413
 40
0.1303685738
 40
0.1891825891
 40
0.2561721366
 40
0.3300431061
 40
0.4905566997
 40
0.6530366095
 40
0.729248321
 40
0.7992902079
 40
0.86160986
 40
0.9153594225
 40
0.960833005
 40
1.0
 40
1.0
 40
1.0
 40
1.0
 10
368.7468285516
 20
134.1559960882
 30
0.0
 10
368.7486960033
 20
134.2652122089
 30
0.0
 10
368.6992887495
 20
134.5002980989
 30
0.0
 10
368.485171118
 20
134.8192000876
 30
0.0
 10
368.1504121768
 20
135.1087796941
 30
0.0
 10
367.706510677
 20
135.3645694149
 30
0.0
 10
367.1676759532
 20
135.5798725397
 30
0.0
 10
366.32337613
 20
135.8094100284
 30
0.0
 10
365.1747599023
 20
135.9457083608
 30
0.0
 10
364.0128937356
 20
135.893742515
 30
0.0
 10
363.1319771516
 20
135.7293668558
 30
0.0
 10
362.5515847182
 20
135.555497707
 30
0.0
 10
362.0573960532
 20
135.3347184244
 30
0.0
 10
361.6653488939
 20
135.0734047763
 30
0.0
 10
361.387824842
 20
134.7773808582
 30
0.0
 10
361.2852241694
 20
134.5467991231
 30
0.0
 10
361.2630151137
 20
134.4354771967
 30
0.0
  0
SPLINE
  5
5AD
330
224
100
AcDbEntity
  8
7_ALL_FEATURES
  6
Continuous
 62
     7
100
AcDbSpline
 70
     0
 71
     3
 72
    11
 73
     7
 74
     0
 42
0.000000001
 43
0.0000001
 40
0.0
 40
0.0
 40
0.0
 40
0.0
 40
0.2208388317
 40
0.4581256269
 40
0.7168034673
 40
1.0
 40
1.0
 40
1.0
 40
1.0
 10
357.3370259094
 20
134.2444480951
 30
0.0
 10
357.2310961747
 20
133.874006425
 30
0.0
 10
356.9250589329
 20
133.1284236738
 30
0.0
 10
356.2345028001
 20
132.0784821283
 30
0.0
 10
355.3108501335
 20
131.0744199553
 30
0.0
 10
354.5807472389
 20
130.4695145983
 30
0.0
 10
354.1839102425
 20
130.1751706442
 30
0.0
  0
SPLINE
  5
5AE
330
224
100
AcDbEntity
  8
7_ALL_FEATURES
  6
Continuous
 62
     7
100
AcDbSpline
 70
     0
 71
     3
 72
    27
 73
    23
 74
     0
 42
0.000000001
 43
0.0000001
 40
0.0
 40
0.0
 40
0.0
 40
0.0
 40
0.0190898696
 40
0.0393226849
 40
0.0611405536
 40
0.084865434
 40
0.1385885739
 40
0.200873188
 40
0.2708750658
 40
0.3470402137
 40
0.4273615783
 40
0.5095648013
 40
0.5912623218
 40
0.670096438
 40
0.7438857971
 40
0.810788917
 40
0.8695131971
 40
0.9196225817
 40
0.9417243778
 40
0.9621744629
 40
0.9814084236
 40
1.0
 40
1.0
 40
1.0
 40
1.0
 10
310.186473361
 20
136.9442225652
 30
0.0
 10
310.2544780514
 20
137.2850931144
 30
0.0
 10
310.4702241123
 20
137.9738136111
 30
0.0
 10
311.0015539046
 20
138.9583873788
 30
0.0
 10
311.7394341132
 20
139.9077787827
 30
0.0
 10
313.0412320135
 20
141.1685170544
 30
0.0
 10
315.1755606081
 20
142.5894366876
 30
0.0
 10
318.2775931722
 20
143.9743919301
 30
0.0
 10
321.9223074881
 20
145.0652178826
 30
0.0
 10
325.9826537933
 20
145.8229041144
 30
0.0
 10
330.3163038865
 20
146.2204302001
 30
0.0
 10
334.7684145711
 20
146.2429071253
 30
0.0
 10
339.1794559892
 20
145.8894559034
 30
0.0
 10
343.3915704761
 20
145.1729415978
 30
0.0
 10
347.2548558578
 20
144.1197619486
 30
0.0
 10
350.6353599668
 20
142.7667326171
 30
0.0
 10
353.4170891985
 20
141.1609535143
 30
0.0
 10
355.2370194595
 20
139.5831642013
 30
0.0
 10
356.2557926365
 20
138.2307350565
 30
0.0
 10
356.7816386631
 20
137.2296188852
 30
0.0
 10
357.0934839861
 20
136.2084460395
 30
0.0
 10
357.1542863848
 20
135.5162372882
 30
0.0
 10
357.1474430414
 20
135.1777914483
 30
0.0
  0
SPLINE
  5
5AF
330
224
100
AcDbEntity
  8
7_ALL_FEATURES
  6
Continuous
 62
     7
100
AcDbSpline
 70
     0
 71
     3
 72
    29
 73
    25
 74
     0
 42
0.000000001
 43
0.0000001
 40
0.0
 40
0.0
 40
0.0
 40
0.0
 40
0.0192983342
 40
0.03979567
 40
0.0619574393
 40
0.0861155908
 40
0.1409639392
 40
0.2046521668
 40
0.2761999488
 40
0.3538861324
 40
0.4355246241
 40
0.5186651824
 40
0.6007626577
 40
0.6793376346
 40
0.7521428544
 40
0.8173550709
 40
0.846749323
 40
0.873897448
 40
0.8988312025
 40
0.9216890695
 40
0.9427406955
 40
0.9624083454
 40
0.9812726126
 40
1.0
 40
1.0
 40
1.0
 40
1.0
 10
309.8195386324
 20
137.3000018121
 30
0.0
 10
309.8904718723
 20
137.6555516328
 30
0.0
 10
310.1180268768
 20
138.3743301373
 30
0.0
 10
310.681284228
 20
139.39983423
 30
0.0
 10
311.4647624763
 20
140.3872007497
 30
0.0
 10
312.8496090704
 20
141.6964896711
 30
0.0
 10
315.1185016885
 20
143.1635354341
 30
0.0
 10
318.4088257547
 20
144.5791801153
 30
0.0
 10
322.2655955408
 20
145.6758704886
 30
0.0
 10
326.5470933909
 20
146.4122056863
 30
0.0
 10
331.0951959777
 20
146.7603487831
 30
0.0
 10
335.7388272029
 20
146.7065393077
 30
0.0
 10
340.3028483819
 20
146.2527655949
 30
0.0
 10
344.6160144095
 20
145.4165480584
 30
0.0
 10
348.5163695572
 20
144.2300435394
 30
0.0
 10
351.4002487499
 20
142.9445955991
 30
0.0
 10
353.3595398566
 20
141.7588251168
 30
0.0
 10
354.5901771454
 20
140.8440368558
 30
0.0
 10
355.6218445757
 20
139.8809299303
 30
0.0
 10
356.4444130331
 20
138.8769812158
 30
0.0
 10
357.0489391058
 20
137.8400433564
 30
0.0
 10
357.4261932577
 20
136.778182854
 30
0.0
 10
357.5681621172
 20
135.7036635501
 30
0.0
 10
357.5039322985
 20
134.9936577149
 30
0.0
 10
357.435097626
 20
134.6486269412
 30
0.0
  0
SPLINE
  5
5B0
330
224
100
AcDbEntity
  8
7_ALL_FEATURES
  6
Continuous
 62
     7
100
AcDbSpline
 70
     0
 71
     3
 72
     9
 73
     5
 74
     0
 42
0.000000001
 43
0.0000001
 40
0.0
 40
0.0
 40
0.0
 40
0.0
 40
0.2795719
 40
1.0
 40
1.0
 40
1.0
 40
1.0
 10
312.8611638501
 20
130.9790857983
 30
0.0
 10
312.5374065979
 20
131.2393256093
 30
0.0
 10
311.4246646391
 20
132.2186069113
 30
0.0
 10
310.4939788567
 20
133.4503431257
 30
0.0
 10
310.0995647776
 20
134.4454288193
 30
0.0
  0
SPLINE
  5
5B1
330
224
100
AcDbEntity
  8
7_ALL_FEATURES
  6
Continuous
 62
     7
100
AcDbSpline
 70
     0
 71
     3
 72
     9
 73
     5
 74
     0
 42
0.000000001
 43
0.0000001
 40
0.0
 40
0.0
 40
0.0
 40
0.0
 40
0.2537284649
 40
1.0
 40
1.0
 40
1.0
 40
1.0
 10
310.0995647776
 20
134.4454288193
 30
0.0
 10
310.0751094988
 20
134.5071281839
 30
0.0
 10
309.9828781627
 20
134.7519172578
 30
0.0
 10
309.9076779885
 20
135.003179417
 30
0.0
 10
309.8623144438
 20
135.1930418373
 30
0.0
  0
SPLINE
  5
5B2
330
224
100
AcDbEntity
  8
7_ALL_FEATURES
  6
Continuous
 62
     7
100
AcDbSpline
 70
     0
 71
     3
 72
     9
 73
     5
 74
     0
 42
0.000000001
 43
0.0000001
 40
0.0
 40
0.0
 40
0.0
 40
0.0
 40
0.5018268048
 40
1.0
 40
1.0
 40
1.0
 40
1.0
 10
309.8623144438
 20
135.1930418373
 30
0.0
 10
309.7799071251
 20
135.5379455063
 30
0.0
 10
309.68640525
 20
136.244624913
 30
0.0
 10
309.7506648622
 20
136.9547750633
 30
0.0
 10
309.8195386324
 20
137.3000018121
 30
0.0
  0
ENDSEC
  0
SECTION
  2
OBJECTS
  0
DICTIONARY
  5
C
330
0
100
AcDbDictionary
281
     1
  3
ACAD_DETAILVIEWSTYLE
350
606
  3
ACAD_GROUP
350
D
  3
ACAD_LAYOUT
350
1A
  3
ACAD_MATERIAL
350
5F4
  3
ACAD_MLEADERSTYLE
350
5F8
  3
ACAD_MLINESTYLE
350
17
  3
ACAD_PLOTSETTINGS
350
19
  3
ACAD_PLOTSTYLENAME
350
E
  3
ACAD_SCALELIST
350
5B8
  3
ACAD_SECTIONVIEWSTYLE
350
607
  3
ACAD_TABLESTYLE
350
5B3
  3
ACAD_VISUALSTYLE
350
5DB
  3
ACDB_RECOMPOSE_DATA
350
603
  3
AcDbVariableDictionary
350
5FC
  3
APPDATA
350
5FA
  0
SUN
  5
5FB
330
1F4
100
AcDbSun
 90
        1
290
     0
 63
     7
421
 16777215
 40
1.0
291
     1
 91
  2455826
 92
 54000000
292
     0
 70
     2
 71
   256
280
     1
  0
DICTIONARY
  5
606
102
{ACAD_REACTORS
330
C
102
}
330
C
100
AcDbDictionary
281
     1
  0
DICTIONARY
  5
D
102
{ACAD_REACTORS
330
C
102
}
330
C
100
AcDbDictionary
281
     1
  0
DICTIONARY
  5
1A
102
{ACAD_REACTORS
330
C
102
}
330
C
100
AcDbDictionary
281
     1
  3
Layout1
350
5B5
  3
Model
350
5B4
  0
DICTIONARY
  5
5F4
102
{ACAD_REACTORS
330
C
102
}
330
C
100
AcDbDictionary
281
     1
  3
ByBlock
350
5F6
  3
ByLayer
350
5F5
  3
Global
350
5F7
  0
DICTIONARY
  5
5F8
102
{ACAD_REACTORS
330
C
102
}
330
C
100
AcDbDictionary
281
     1
  3
Standard
350
5F9
  0
DICTIONARY
  5
17
102
{ACAD_REACTORS
330
C
102
}
330
C
100
AcDbDictionary
281
     1
  3
Standard
350
18
  0
DICTIONARY
  5
19
102
{ACAD_REACTORS
330
C
102
}
330
C
100
AcDbDictionary
281
     1
  0
ACDBDICTIONARYWDFLT
  5
E
102
{ACAD_REACTORS
330
C
102
}
330
C
100
AcDbDictionary
281
     1
  3
Normal
350
F
100
AcDbDictionaryWithDefault
340
F
  0
DICTIONARY
  5
5B8
102
{ACAD_REACTORS
330
C
102
}
330
C
100
AcDbDictionary
281
     1
  3
A0
350
5B9
  3
A1
350
5BA
  3
A2
350
5BB
  3
A3
350
5BC
  3
A4
350
5BD
  3
A5
350
5BE
  3
A6
350
5BF
  3
A7
350
5C0
  3
A8
350
5C1
  3
A9
350
5C2
  3
B0
350
5C3
  3
B1
350
5C4
  3
B2
350
5C5
  3
B3
350
5C6
  3
B4
350
5C7
  3
B5
350
5C8
  3
B6
350
5C9
  3
B7
350
5CA
  3
B8
350
5CB
  3
B9
350
5CC
  3
C0
350
5CD
  3
C1
350
5CE
  3
C2
350
5CF
  3
C3
350
5D0
  3
C4
350
5D1
  3
C5
350
5D2
  3
C6
350
5D3
  3
C7
350
5D4
  3
C8
350
5D5
  3
C9
350
5D6
  3
D0
350
5D7
  3
D1
350
5D8
  3
D2
350
5D9
  0
DICTIONARY
  5
607
102
{ACAD_REACTORS
330
C
102
}
330
C
100
AcDbDictionary
281
     1
  0
DICTIONARY
  5
5B3
330
C
100
AcDbDictionary
281
     1
  3
Standard
350
5B6
  3
Standard1
350
5B7
  0
DICTIONARY
  5
5DB
102
{ACAD_REACTORS
330
C
102
}
330
C
100
AcDbDictionary
281
     1
  3
2dWireframe
350
5E0
  3
Basic
350
5E3
  3
Brighten
350
5E7
  3
ColorChange
350
5EB
  3
Conceptual
350
5E5
  3
Dim
350
5E6
  3
EdgeColorOff
350
5EE
  3
Facepattern
350
5EA
  3
Flat
350
5DC
  3
FlatWithEdges
350
5DD
  3
Gouraud
350
5DE
  3
GouraudWithEdges
350
5DF
  3
Hidden
350
5E2
  3
JitterOff
350
5EC
  3
Linepattern
350
5E9
  3
OverhangOff
350
5ED
  3
Realistic
350
5E4
  3
Shaded
350
5F3
  3
Shaded with edges
350
5F2
  3
Shades of Gray
350
5EF
  3
Sketchy
350
5F0
  3
Thicken
350
5E8
  3
Wireframe
350
5E1
  3
X-Ray
350
5F1
  0
XRECORD
  5
603
102
{ACAD_REACTORS
330
C
102
}
330
C
100
AcDbXrecord
280
     1
 90
        1
330
5B6
330
5B7
  0
DICTIONARY
  5
5FC
102
{ACAD_REACTORS
330
C
102
}
330
C
100
AcDbDictionary
281
     1
  3
CANNOSCALE
350
5FD
  3
CMLEADERSTYLE
350
605
  3
CTABLESTYLE
350
604
  0
DICTIONARY
  5
5FA
102
{ACAD_REACTORS
330
C
102
}
330
C
100
AcDbDictionary
281
     1
  0
LAYOUT
  5
5B5
102
{ACAD_REACTORS
330
1A
102
}
330
1A
100
AcDbPlotSettings
  1

  2
none_device
  4
ISO_A3_(420.00_x_297.00_MM)
  6

 40
0.0
 41
0.0
 42
0.0
 43
0.0
 44
420.0
 45
297.0
 46
0.0
 47
0.0
 48
0.0
 49
0.0
140
0.0
141
0.0
142
1.0
143
1.0
 70
     0
 72
     1
 73
     0
 74
     0
  7

 75
     0
 76
     0
 77
     2
 78
   300
147
1.0
148
0.0
149
0.0
100
AcDbLayout
  1
Layout1
 70
     0
 71
     1
 10
0.0
 20
0.0
 11
420.0
 21
297.0
 12
0.0
 22
0.0
 32
0.0
 14
0.0
 24
0.0
 34
0.0
 15
0.0
 25
0.0
 35
0.0
146
0.0
 13
0.0
 23
0.0
 33
0.0
 16
1.0
 26
0.0
 36
0.0
 17
0.0
 27
1.0
 37
0.0
 76
     0
330
225
  0
LAYOUT
  5
5B4
102
{ACAD_REACTORS
330
1A
102
}
330
1A
100
AcDbPlotSettings
  1

  2
none_device
  4
ISO_A3_(420.00_x_297.00_MM)
  6

 40
0.0
 41
0.0
 42
0.0
 43
0.0
 44
420.0
 45
297.0
 46
0.0
 47
0.0
 48
0.0
 49
0.0
140
0.0
141
0.0
142
1.0
143
1.0
 70
  1024
 72
     1
 73
     0
 74
     0
  7

 75
     0
 76
     0
 77
     2
 78
   300
147
1.0
148
0.0
149
0.0
100
AcDbLayout
  1
Model
 70
     0
 71
     0
 10
0.0
 20
0.0
 11
420.0
 21
297.0
 12
0.0
 22
0.0
 32
0.0
 14
0.0
 24
0.0
 34
0.0
 15
0.0
 25
0.0
 35
0.0
146
0.0
 13
0.0
 23
0.0
 33
0.0
 16
1.0
 26
0.0
 36
0.0
 17
0.0
 27
1.0
 37
0.0
 76
     0
330
224
331
1F4
  0
MATERIAL
  5
5F6
102
{ACAD_REACTORS
330
5F4
102
}
330
5F4
100
AcDbMaterial
  1
ByBlock
 72
     1
 94
      127
  0
MATERIAL
  5
5F5
102
{ACAD_REACTORS
330
5F4
102
}
330
5F4
100
AcDbMaterial
  1
ByLayer
 72
     1
 94
      127
  0
MATERIAL
  5
5F7
102
{ACAD_REACTORS
330
5F4
102
}
330
5F4
100
AcDbMaterial
  1
Global
 72
     1
 94
      127
  0
MLEADERSTYLE
  5
5F9
102
{ACAD_REACTORS
330
5F8
102
}
330
5F8
100
AcDbMLeaderStyle
170
     2
171
     1
172
     0
 90
        2
 40
0.0
 41
0.0
173
     1
 91
-1056964608
340
14
 92
       -2
290
     1
 42
2.0
291
     1
 43
8.0
  3
Standard
341
0
 44
4.0
300

342
11
174
     1
178
     1
175
     1
176
     0
 93
-1056964608
 45
4.0
292
     0
297
     0
 46
4.0
343
0
 94
-1056964608
 47
1.0
 49
1.0
140
1.0
293
     1
141
0.0
294
     1
177
     0
142
1.0
295
     0
296
     0
143
3.75
1001
ACAD_MLEADERVER
1070
     2
  0
MLINESTYLE
  5
18
102
{ACAD_REACTORS
330
17
102
}
330
17
100
AcDbMlineStyle
  2
STANDARD
 70
     0
  3

 62
   256
 51
90.0
 52
90.0
 71
     2
 49
0.5
 62
   256
  6
BYLAYER
 49
-0.5
 62
   256
  6
BYLAYER
  0
ACDBPLACEHOLDER
  5
F
102
{ACAD_REACTORS
330
E
102
}
330
E
  0
SCALE
  5
5B9
102
{ACAD_REACTORS
330
5B8
102
}
330
5B8
100
AcDbScale
 70
     0
300
1:1
140
1.0
141
1.0
290
     1
  0
SCALE
  5
5BA
102
{ACAD_REACTORS
330
5B8
102
}
330
5B8
100
AcDbScale
 70
     0
300
1:2
140
1.0
141
2.0
290
     0
  0
SCALE
  5
5BB
102
{ACAD_REACTORS
330
5B8
102
}
330
5B8
100
AcDbScale
 70
     0
300
1:4
140
1.0
141
4.0
290
     0
  0
SCALE
  5
5BC
102
{ACAD_REACTORS
330
5B8
102
}
330
5B8
100
AcDbScale
 70
     0
300
1:5
140
1.0
141
5.0
290
     0
  0
SCALE
  5
5BD
102
{ACAD_REACTORS
330
5B8
102
}
330
5B8
100
AcDbScale
 70
     0
300
1:8
140
1.0
141
8.0
290
     0
  0
SCALE
  5
5BE
102
{ACAD_REACTORS
330
5B8
102
}
330
5B8
100
AcDbScale
 70
     0
300
1:10
140
1.0
141
10.0
290
     0
  0
SCALE
  5
5BF
102
{ACAD_REACTORS
330
5B8
102
}
330
5B8
100
AcDbScale
 70
     0
300
1:16
140
1.0
141
16.0
290
     0
  0
SCALE
  5
5C0
102
{ACAD_REACTORS
330
5B8
102
}
330
5B8
100
AcDbScale
 70
     0
300
1:20
140
1.0
141
20.0
290
     0
  0
SCALE
  5
5C1
102
{ACAD_REACTORS
330
5B8
102
}
330
5B8
100
AcDbScale
 70
     0
300
1:30
140
1.0
141
30.0
290
     0
  0
SCALE
  5
5C2
102
{ACAD_REACTORS
330
5B8
102
}
330
5B8
100
AcDbScale
 70
     0
300
1:40
140
1.0
141
40.0
290
     0
  0
SCALE
  5
5C3
102
{ACAD_REACTORS
330
5B8
102
}
330
5B8
100
AcDbScale
 70
     0
300
1:50
140
1.0
141
50.0
290
     0
  0
SCALE
  5
5C4
102
{ACAD_REACTORS
330
5B8
102
}
330
5B8
100
AcDbScale
 70
     0
300
1:100
140
1.0
141
100.0
290
     0
  0
SCALE
  5
5C5
102
{ACAD_REACTORS
330
5B8
102
}
330
5B8
100
AcDbScale
 70
     0
300
2:1
140
2.0
141
1.0
290
     0
  0
SCALE
  5
5C6
102
{ACAD_REACTORS
330
5B8
102
}
330
5B8
100
AcDbScale
 70
     0
300
4:1
140
4.0
141
1.0
290
     0
  0
SCALE
  5
5C7
102
{ACAD_REACTORS
330
5B8
102
}
330
5B8
100
AcDbScale
 70
     0
300
8:1
140
8.0
141
1.0
290
     0
  0
SCALE
  5
5C8
102
{ACAD_REACTORS
330
5B8
102
}
330
5B8
100
AcDbScale
 70
     0
300
10:1
140
10.0
141
1.0
290
     0
  0
SCALE
  5
5C9
102
{ACAD_REACTORS
330
5B8
102
}
330
5B8
100
AcDbScale
 70
     0
300
100:1
140
100.0
141
1.0
290
     0
  0
SCALE
  5
5CA
102
{ACAD_REACTORS
330
5B8
102
}
330
5B8
100
AcDbScale
 70
     0
300
1/128" = 1'-0"
140
0.0078125
141
12.0
290
     0
  0
SCALE
  5
5CB
102
{ACAD_REACTORS
330
5B8
102
}
330
5B8
100
AcDbScale
 70
     0
300
1/64" = 1'-0"
140
0.015625
141
12.0
290
     0
  0
SCALE
  5
5CC
102
{ACAD_REACTORS
330
5B8
102
}
330
5B8
100
AcDbScale
 70
     0
300
1/32" = 1'-0"
140
0.03125
141
12.0
290
     0
  0
SCALE
  5
5CD
102
{ACAD_REACTORS
330
5B8
102
}
330
5B8
100
AcDbScale
 70
     0
300
1/16" = 1'-0"
140
0.0625
141
12.0
290
     0
  0
SCALE
  5
5CE
102
{ACAD_REACTORS
330
5B8
102
}
330
5B8
100
AcDbScale
 70
     0
300
3/32" = 1'-0"
140
0.09375
141
12.0
290
     0
  0
SCALE
  5
5CF
102
{ACAD_REACTORS
330
5B8
102
}
330
5B8
100
AcDbScale
 70
     0
300
1/8" = 1'-0"
140
0.125
141
12.0
290
     0
  0
SCALE
  5
5D0
102
{ACAD_REACTORS
330
5B8
102
}
330
5B8
100
AcDbScale
 70
     0
300
3/16" = 1'-0"
140
0.1875
141
12.0
290
     0
  0
SCALE
  5
5D1
102
{ACAD_REACTORS
330
5B8
102
}
330
5B8
100
AcDbScale
 70
     0
300
1/4" = 1'-0"
140
0.25
141
12.0
290
     0
  0
SCALE
  5
5D2
102
{ACAD_REACTORS
330
5B8
102
}
330
5B8
100
AcDbScale
 70
     0
300
3/8" = 1'-0"
140
0.375
141
12.0
290
     0
  0
SCALE
  5
5D3
102
{ACAD_REACTORS
330
5B8
102
}
330
5B8
100
AcDbScale
 70
     0
300
1/2" = 1'-0"
140
0.5
141
12.0
290
     0
  0
SCALE
  5
5D4
102
{ACAD_REACTORS
330
5B8
102
}
330
5B8
100
AcDbScale
 70
     0
300
3/4" = 1'-0"
140
0.75
141
12.0
290
     0
  0
SCALE
  5
5D5
102
{ACAD_REACTORS
330
5B8
102
}
330
5B8
100
AcDbScale
 70
     0
300
1" = 1'-0"
140
1.0
141
12.0
290
     0
  0
SCALE
  5
5D6
102
{ACAD_REACTORS
330
5B8
102
}
330
5B8
100
AcDbScale
 70
     0
300
1-1/2" = 1'-0"
140
1.5
141
12.0
290
     0
  0
SCALE
  5
5D7
102
{ACAD_REACTORS
330
5B8
102
}
330
5B8
100
AcDbScale
 70
     0
300
3" = 1'-0"
140
3.0
141
12.0
290
     0
  0
SCALE
  5
5D8
102
{ACAD_REACTORS
330
5B8
102
}
330
5B8
100
AcDbScale
 70
     0
300
6" = 1'-0"
140
6.0
141
12.0
290
     0
  0
SCALE
  5
5D9
102
{ACAD_REACTORS
330
5B8
102
}
330
5B8
100
AcDbScale
 70
     0
300
1'-0" = 1'-0"
140
12.0
141
12.0
290
     0
  0
TABLESTYLE
  5
5B6
102
{ACAD_REACTORS
330
5B3
330
3C2
102
}
102
{ACAD_XDICTIONARY
360
5FE
102
}
330
5B3
100
AcDbTableStyle
  3
Standard
 70
     0
 71
     0
 40
0.06
 41
0.06
280
     1
281
     1
  7
STANDARD
140
0.18
170
     1
 62
     0
 63
   257
283
     0
 90
        4
 91
        0
  1

274
    -2
284
     1
 64
     0
275
    -2
285
     1
 65
     0
276
    -2
286
     1
 66
     0
277
    -2
287
     1
 67
     0
278
    -2
288
     1
 68
     0
279
    -2
289
     1
 69
     0
  7
STANDARD
140
0.18
170
     1
 62
     0
 63
   257
283
     0
 90
        4
 91
        0
  1

274
    -2
284
     1
 64
     0
275
    -2
285
     1
 65
     0
276
    -2
286
     1
 66
     0
277
    -2
287
     1
 67
     0
278
    -2
288
     1
 68
     0
279
    -2
289
     1
 69
     0
  7
STANDARD
140
0.18
170
     1
 62
     0
 63
   257
283
     0
 90
        4
 91
        0
  1

274
    -2
284
     1
 64
     0
275
    -2
285
     1
 65
     0
276
    -2
286
     1
 66
     0
277
    -2
287
     1
 67
     0
278
    -2
288
     1
 68
     0
279
    -2
289
     1
 69
     0
  0
TABLESTYLE
  5
5B7
102
{ACAD_REACTORS
330
5B3
102
}
102
{ACAD_XDICTIONARY
360
600
102
}
330
5B3
100
AcDbTableStyle
  3
Standard1
 70
     1
 71
     0
 40
0.06
 41
0.06
280
     1
281
     1
  7
STANDARD
140
0.18
170
     1
 62
     0
 63
   257
283
     0
 90
        4
 91
        0
  1

274
    -2
284
     1
 64
     0
275
    -2
285
     1
 65
     0
276
    -2
286
     1
 66
     0
277
    -2
287
     1
 67
     0
278
    -2
288
     1
 68
     0
279
    -2
289
     1
 69
     0
  7
STANDARD
140
0.18
170
     1
 62
     0
 63
   257
283
     0
 90
        4
 91
        0
  1

274
    -2
284
     1
 64
     0
275
    -2
285
     1
 65
     0
276
    -2
286
     1
 66
     0
277
    -2
287
     1
 67
     0
278
    -2
288
     1
 68
     0
279
    -2
289
     1
 69
     0
  7
STANDARD
140
0.18
170
     1
 62
     0
 63
   257
283
     0
 90
        4
 91
        0
  1

274
    -2
284
     1
 64
     0
275
    -2
285
     1
 65
     0
276
    -2
286
     1
 66
     0
277
    -2
287
     1
 67
     0
278
    -2
288
     1
 68
     0
279
    -2
289
     1
 69
     0
  0
VISUALSTYLE
  5
5E0
102
{ACAD_REACTORS
330
5DB
102
}
330
5DB
100
AcDbVisualStyle
  2
2dWireframe
 70
     4
 71
     0
 72
     2
 73
     0
 90
        0
 40
0.6
 41
30.0
 62
     5
 63
     7
421
 16777215
 74
     1
 91
        4
 64
     7
 65
   257
 75
     1
175
     1
 42
1.0
 92
        0
 66
   257
 43
1.0
 76
     1
 77
     6
 78
     2
 67
     7
 79
     5
170
     0
171
     0
290
     0
174
     0
 93
        1
 44
0.0
173
     0
291
     0
 45
0.0
  0
VISUALSTYLE
  5
5E3
102
{ACAD_REACTORS
330
5DB
102
}
330
5DB
100
AcDbVisualStyle
  2
Basic
 70
     7
 71
     1
 72
     0
 73
     1
 90
        0
 40
0.6
 41
30.0
 62
     5
 63
     7
421
 16777215
 74
     0
 91
        4
 64
     7
 65
   257
 75
     1
175
     1
 42
1.0
 92
        8
 66
     7
 43
1.0
 76
     1
 77
     6
 78
     2
 67
     7
 79
     5
170
     0
171
     0
290
     0
174
     0
 93
        1
 44
0.0
173
     0
291
     1
 45
0.0
  0
VISUALSTYLE
  5
5E7
102
{ACAD_REACTORS
330
5DB
102
}
330
5DB
100
AcDbVisualStyle
  2
Brighten
 70
    12
 71
     2
 72
     2
 73
     0
 90
        0
 40
0.6
 41
30.0
 62
     5
 63
     7
421
 16777215
 74
     1
 91
        4
 64
     7
 65
   257
 75
     1
175
     1
 42
1.0
 92
        8
 66
     7
 43
1.0
 76
     1
 77
     6
 78
     2
 67
     7
 79
     5
170
     0
171
     0
290
     0
174
     0
 93
        1
 44
50.0
173
     0
291
     1
 45
0.0
  0
VISUALSTYLE
  5
5EB
102
{ACAD_REACTORS
330
5DB
102
}
330
5DB
100
AcDbVisualStyle
  2
ColorChange
 70
    16
 71
     2
 72
     2
 73
     3
 90
        0
 40
0.6
 41
30.0
 62
     5
 63
     8
421
  8421504
 74
     1
 91
        4
 64
     7
 65
   257
 75
     1
175
     1
 42
1.0
 92
        8
 66
     8
424
  8421504
 43
1.0
 76
     1
 77
     6
 78
     2
 67
     7
 79
     5
170
     0
171
     0
290
     0
174
     0
 93
        1
 44
0.0
173
     0
291
     1
 45
0.0
  0
VISUALSTYLE
  5
5E5
102
{ACAD_REACTORS
330
5DB
102
}
330
5DB
100
AcDbVisualStyle
  2
Conceptual
 70
     9
 71
     3
 72
     2
 73
     0
 90
        0
 40
0.6
 41
30.0
 62
     5
 63
     7
421
 16777215
 74
     2
 91
        2
 64
     7
 65
   257
 75
     1
175
     1
 42
179.0
 92
        8
 66
     7
 43
1.0
 76
     1
 77
     6
 78
     2
 67
     7
 79
     3
170
     0
171
     0
290
     0
174
     0
 93
        1
 44
0.0
173
     0
291
     0
 45
0.0
  0
VISUALSTYLE
  5
5E6
102
{ACAD_REACTORS
330
5DB
102
}
330
5DB
100
AcDbVisualStyle
  2
Dim
 70
    11
 71
     2
 72
     2
 73
     0
 90
        0
 40
0.6
 41
30.0
 62
     5
 63
     7
421
 16777215
 74
     1
 91
        4
 64
     7
 65
   257
 75
     1
175
     1
 42
1.0
 92
        8
 66
     7
 43
1.0
 76
     1
 77
     6
 78
     2
 67
     7
 79
     5
170
     0
171
     0
290
     0
174
     0
 93
        1
 44
-50.0
173
     0
291
     1
 45
0.0
  0
VISUALSTYLE
  5
5EE
102
{ACAD_REACTORS
330
5DB
102
}
330
5DB
100
AcDbVisualStyle
  2
EdgeColorOff
 70
    22
 71
     2
 72
     2
 73
     0
 90
        0
 40
0.6
 41
30.0
 62
     5
 63
     7
421
 16777215
 74
     1
 91
        4
 64
     7
 65
   257
 75
     1
175
     1
 42
1.0
 92
        8
 66
     7
 43
1.0
 76
     1
 77
     6
 78
     2
 67
     7
 79
     5
170
     0
171
     0
290
     0
174
     0
 93
        1
 44
0.0
173
     0
291
     1
 45
0.0
  0
VISUALSTYLE
  5
5EA
102
{ACAD_REACTORS
330
5DB
102
}
330
5DB
100
AcDbVisualStyle
  2
Facepattern
 70
    15
 71
     2
 72
     2
 73
     0
 90
        0
 40
0.6
 41
30.0
 62
     5
 63
     7
421
 16777215
 74
     1
 91
        4
 64
     7
 65
   257
 75
     1
175
     1
 42
1.0
 92
        8
 66
     7
 43
1.0
 76
     1
 77
     6
 78
     2
 67
     7
 79
     5
170
     0
171
     0
290
     0
174
     0
 93
        1
 44
0.0
173
     0
291
     1
 45
0.0
  0
VISUALSTYLE
  5
5DC
102
{ACAD_REACTORS
330
5DB
102
}
330
5DB
100
AcDbVisualStyle
  2
Flat
 70
     0
 71
     2
 72
     1
 73
     1
 90
        2
 40
0.6
 41
30.0
 62
     5
 63
     7
421
 16777215
 74
     0
 91
        0
 64
     7
 65
   257
 75
     1
175
     1
 42
1.0
 92
        8
 66
     7
 43
1.0
 76
     1
 77
     6
 78
     2
 67
     7
 79
     5
170
     0
171
     0
290
     0
174
     0
 93
       13
 44
0.0
173
     0
291
     1
 45
0.0
  0
VISUALSTYLE
  5
5DD
102
{ACAD_REACTORS
330
5DB
102
}
330
5DB
100
AcDbVisualStyle
  2
FlatWithEdges
 70
     1
 71
     2
 72
     1
 73
     1
 90
        2
 40
0.6
 41
30.0
 62
     5
 63
     7
421
 16777215
 74
     1
 91
        0
 64
     7
 65
   257
 75
     1
175
     1
 42
1.0
 92
        0
 66
   257
 43
1.0
 76
     1
 77
     6
 78
     2
 67
     7
 79
     5
170
     0
171
     0
290
     0
174
     0
 93
       13
 44
0.0
173
     0
291
     1
 45
0.0
  0
VISUALSTYLE
  5
5DE
102
{ACAD_REACTORS
330
5DB
102
}
330
5DB
100
AcDbVisualStyle
  2
Gouraud
 70
     2
 71
     2
 72
     2
 73
     1
 90
        2
 40
0.6
 41
30.0
 62
     5
 63
     7
421
 16777215
 74
     0
 91
        0
 64
     7
 65
   257
 75
     1
175
     1
 42
1.0
 92
        0
 66
     7
 43
1.0
 76
     1
 77
     6
 78
     2
 67
     7
 79
     5
170
     0
171
     0
290
     0
174
     0
 93
       13
 44
0.0
173
     0
291
     1
 45
0.0
  0
VISUALSTYLE
  5
5DF
102
{ACAD_REACTORS
330
5DB
102
}
330
5DB
100
AcDbVisualStyle
  2
GouraudWithEdges
 70
     3
 71
     2
 72
     2
 73
     1
 90
        2
 40
0.6
 41
30.0
 62
     5
 63
     7
421
 16777215
 74
     1
 91
        0
 64
     7
 65
   257
 75
     1
175
     1
 42
1.0
 92
        0
 66
   257
 43
1.0
 76
     1
 77
     6
 78
     2
 67
     7
 79
     5
170
     0
171
     0
290
     0
174
     0
 93
       13
 44
0.0
173
     0
291
     1
 45
0.0
  0
VISUALSTYLE
  5
5E2
102
{ACAD_REACTORS
330
5DB
102
}
330
5DB
100
AcDbVisualStyle
  2
Hidden
 70
     6
 71
     1
 72
     2
 73
     2
 90
        0
 40
0.6
 41
30.0
 62
     5
 63
     7
421
 16777215
 74
     2
 91
        2
 64
     7
 65
   257
 75
     2
175
     1
 42
40.0
 92
        0
 66
   257
 43
1.0
 76
     1
 77
     6
 78
     2
 67
     7
 79
     3
170
     0
171
     0
290
     0
174
     0
 93
        1
 44
0.0
173
     0
291
     0
 45
0.0
  0
VISUALSTYLE
  5
5EC
102
{ACAD_REACTORS
330
5DB
102
}
330
5DB
100
AcDbVisualStyle
  2
JitterOff
 70
    20
 71
     2
 72
     2
 73
     0
 90
        0
 40
0.6
 41
30.0
 62
     5
 63
     7
421
 16777215
 74
     1
 91
        4
 64
     7
 65
   257
 75
     1
175
     1
 42
1.0
 92
       10
 66
     7
 43
1.0
 76
     1
 77
     6
 78
     2
 67
     7
 79
     5
170
     0
171
     0
290
     0
174
     0
 93
        1
 44
0.0
173
     0
291
     1
 45
0.0
  0
VISUALSTYLE
  5
5E9
102
{ACAD_REACTORS
330
5DB
102
}
330
5DB
100
AcDbVisualStyle
  2
Linepattern
 70
    14
 71
     2
 72
     2
 73
     0
 90
        0
 40
0.6
 41
30.0
 62
     5
 63
     7
421
 16777215
 74
     1
 91
        4
 64
     7
 65
   257
 75
     7
175
     7
 42
1.0
 92
        8
 66
     7
 43
1.0
 76
     1
 77
     6
 78
     2
 67
     7
 79
     5
170
     0
171
     0
290
     0
174
     0
 93
        1
 44
0.0
173
     0
291
     1
 45
0.0
  0
VISUALSTYLE
  5
5ED
102
{ACAD_REACTORS
330
5DB
102
}
330
5DB
100
AcDbVisualStyle
  2
OverhangOff
 70
    21
 71
     2
 72
     2
 73
     0
 90
        0
 40
0.6
 41
30.0
 62
     5
 63
     7
421
 16777215
 74
     1
 91
        4
 64
     7
 65
   257
 75
     1
175
     1
 42
1.0
 92
        9
 66
     7
 43
1.0
 76
     1
 77
     6
 78
     2
 67
     7
 79
     5
170
     0
171
     0
290
     0
174
     0
 93
        1
 44
0.0
173
     0
291
     1
 45
0.0
  0
VISUALSTYLE
  5
5E4
102
{ACAD_REACTORS
330
5DB
102
}
330
5DB
100
AcDbVisualStyle
  2
Realistic
 70
     8
 71
     2
 72
     3
 73
     0
 90
        2
 40
0.6
 41
30.0
 62
     5
 63
     7
421
 16777215
 74
     0
 91
        0
 64
     7
 65
   257
 75
     1
175
     1
 42
1.0
 92
        8
 66
   257
 43
1.0
 76
     1
 77
     6
 78
     2
 67
     7
 79
     3
170
     0
171
     0
290
     0
174
     0
 93
       13
 44
0.0
173
     0
291
     0
 45
0.0
  0
VISUALSTYLE
  5
5F3
102
{ACAD_REACTORS
330
5DB
102
}
330
5DB
100
AcDbVisualStyle
  2
Shaded
 70
    27
 71
     2
 72
     2
 73
     1
 90
        2
 40
0.6
 41
30.0
 62
     5
 63
     7
421
 16777215
 74
     0
 91
        4
 64
     7
 65
   257
 75
     1
175
     1
 42
1.0
 92
        8
 66
   257
 43
1.0
 76
     1
 77
     6
 78
     2
 67
     8
425
  7895160
 79
     3
170
     0
171
     0
290
     0
174
     0
 93
        5
 44
0.0
173
     0
291
     0
 45
0.0
  0
VISUALSTYLE
  5
5F2
102
{ACAD_REACTORS
330
5DB
102
}
330
5DB
100
AcDbVisualStyle
  2
Shaded with edges
 70
    26
 71
     2
 72
     2
 73
     1
 90
        2
 40
0.6
 41
30.0
 62
     5
 63
     7
421
 16777215
 74
     1
 91
       10
 64
     7
 65
   257
 75
     2
175
     1
 42
1.0
 92
        8
 66
   257
 43
1.0
 76
     1
 77
     6
 78
     2
 67
     7
 79
     3
170
     0
171
     0
290
     0
174
     0
 93
        5
 44
0.0
173
     0
291
     0
 45
0.0
  0
VISUALSTYLE
  5
5EF
102
{ACAD_REACTORS
330
5DB
102
}
330
5DB
100
AcDbVisualStyle
  2
Shades of Gray
 70
    23
 71
     2
 72
     2
 73
     3
 90
        0
 40
0.6
 41
30.0
 62
     5
 63
     7
421
 16777215
 74
     2
 91
        2
 64
     7
 65
     7
 75
     1
175
     1
 42
40.0
 92
        8
 66
     7
 43
1.0
 76
     1
 77
     6
 78
     2
 67
     7
 79
     3
170
     0
171
     0
290
     0
174
     0
 93
        1
 44
0.0
173
     0
291
     0
 45
0.0
  0
VISUALSTYLE
  5
5F0
102
{ACAD_REACTORS
330
5DB
102
}
330
5DB
100
AcDbVisualStyle
  2
Sketchy
 70
    24
 71
     1
 72
     2
 73
     2
 90
        0
 40
0.6
 41
30.0
 62
     5
 63
     7
421
 16777215
 74
     2
 91
        2
 64
     7
 65
     7
 75
     1
175
     1
 42
40.0
 92
       11
 66
     7
 43
1.0
 76
     1
 77
     6
 78
     2
 67
     7
 79
     6
170
     0
171
     0
290
     0
174
     0
 93
        1
 44
0.0
173
     0
291
     0
 45
0.0
  0
VISUALSTYLE
  5
5E8
102
{ACAD_REACTORS
330
5DB
102
}
330
5DB
100
AcDbVisualStyle
  2
Thicken
 70
    13
 71
     2
 72
     2
 73
     0
 90
        0
 40
0.6
 41
30.0
 62
     5
 63
     7
421
 16777215
 74
     1
 91
        4
 64
     7
 65
   257
 75
     1
175
     1
 42
1.0
 92
       12
 66
     7
 43
1.0
 76
     1
 77
     6
 78
     2
 67
     7
 79
     5
170
     0
171
     0
290
     0
174
     0
 93
        1
 44
0.0
173
     0
291
     1
 45
0.0
  0
VISUALSTYLE
  5
5E1
102
{ACAD_REACTORS
330
5DB
102
}
330
5DB
100
AcDbVisualStyle
  2
Wireframe
 70
     5
 71
     0
 72
     2
 73
     0
 90
        0
 40
0.6
 41
30.0
 62
     5
 63
     7
421
 16777215
 74
     1
 91
        4
 64
     7
 65
   257
 75
     1
175
     1
 42
1.0
 92
        0
 66
   257
 43
1.0
 76
     1
 77
     6
 78
     2
 67
     7
 79
     3
170
     0
171
     0
290
     0
174
     0
 93
        1
 44
0.0
173
     0
291
     0
 45
0.0
  0
VISUALSTYLE
  5
5F1
102
{ACAD_REACTORS
330
5DB
102
}
330
5DB
100
AcDbVisualStyle
  2
X-Ray
 70
    25
 71
     2
 72
     2
 73
     1
 90
        1
 40
0.5
 41
30.0
 62
     5
 63
     7
421
 16777215
 74
     1
 91
        0
 64
     7
 65
   257
 75
     1
175
     1
 42
1.0
 92
        8
 66
     7
 43
1.0
 76
     1
 77
     6
 78
     2
 67
     7
 79
     3
170
     0
171
     0
290
     0
174
     0
 93
       13
 44
0.0
173
     0
291
     0
 45
0.0
  0
DICTIONARYVAR
  5
5FD
102
{ACAD_REACTORS
330
5FC
102
}
330
5FC
100
DictionaryVariables
280
     0
  1
1:1
  0
DICTIONARYVAR
  5
605
102
{ACAD_REACTORS
330
5FC
102
}
330
5FC
100
DictionaryVariables
280
     0
  1
Standard
  0
DICTIONARYVAR
  5
604
102
{ACAD_REACTORS
330
5FC
102
}
330
5FC
100
DictionaryVariables
280
     0
  1
Standard
  0
DICTIONARY
  5
5FE
330
5B6
100
AcDbDictionary
280
     1
281
     1
  3
ACAD_ROUNDTRIP_2008_TABLESTYLE_CELLSTYLEMAP
360
5FF
  0
DICTIONARY
  5
600
330
5B7
100
AcDbDictionary
280
     1
281
     1
  3
ACAD_ROUNDTRIP_2008_TABLESTYLE_CELLSTYLEMAP
360
601
  0
CELLSTYLEMAP
  5
5FF
102
{ACAD_REACTORS
330
5FE
102
}
330
5FE
100
AcDbCellStyleMap
 90
        3
300
CELLSTYLE
  1
TABLEFORMAT_BEGIN
 90
        5
170
     1
 91
        0
 92
    32768
 62
   257
 93
        1
300
CONTENTFORMAT
  1
CONTENTFORMAT_BEGIN
 90
        0
 91
        0
 92
        4
 93
        0
300

 40
0.0
140
1.0
 94
        1
 62
     0
340
11
144
0.18
309
CONTENTFORMAT_END
171
     1
301
MARGIN
  1
CELLMARGIN_BEGIN
 40
0.06
 40
0.06
 40
0.06
 40
0.06
 40
0.18
 40
0.18
309
CELLMARGIN_END
 94
        6
 95
        1
302
GRIDFORMAT
  1
GRIDFORMAT_BEGIN
 90
        0
 91
        1
 62
     0
 92
       -2
340
0
 93
        0
 40
0.045
309
GRIDFORMAT_END
 95
        2
302
GRIDFORMAT
  1
GRIDFORMAT_BEGIN
 90
        0
 91
        1
 62
     0
 92
       -2
340
0
 93
        0
 40
0.045
309
GRIDFORMAT_END
 95
        4
302
GRIDFORMAT
  1
GRIDFORMAT_BEGIN
 90
        0
 91
        1
 62
     0
 92
       -2
340
0
 93
        0
 40
0.045
309
GRIDFORMAT_END
 95
        8
302
GRIDFORMAT
  1
GRIDFORMAT_BEGIN
 90
        0
 91
        1
 62
     0
 92
       -2
340
0
 93
        0
 40
0.045
309
GRIDFORMAT_END
 95
       16
302
GRIDFORMAT
  1
GRIDFORMAT_BEGIN
 90
        0
 91
        1
 62
     0
 92
       -2
340
0
 93
        0
 40
0.045
309
GRIDFORMAT_END
 95
       32
302
GRIDFORMAT
  1
GRIDFORMAT_BEGIN
 90
        0
 91
        1
 62
     0
 92
       -2
340
0
 93
        0
 40
0.045
309
GRIDFORMAT_END
309
TABLEFORMAT_END
  1
CELLSTYLE_BEGIN
 90
        1
 91
        1
300
_TITLE
309
CELLSTYLE_END
300
CELLSTYLE
  1
TABLEFORMAT_BEGIN
 90
        5
170
     1
 91
        0
 92
        0
 62
   257
 93
        1
300
CONTENTFORMAT
  1
CONTENTFORMAT_BEGIN
 90
        0
 91
        0
 92
        4
 93
        0
300

 40
0.0
140
1.0
 94
        1
 62
     0
340
11
144
0.18
309
CONTENTFORMAT_END
171
     1
301
MARGIN
  1
CELLMARGIN_BEGIN
 40
0.06
 40
0.06
 40
0.06
 40
0.06
 40
0.18
 40
0.18
309
CELLMARGIN_END
 94
        6
 95
        1
302
GRIDFORMAT
  1
GRIDFORMAT_BEGIN
 90
        0
 91
        1
 62
     0
 92
       -2
340
0
 93
        0
 40
0.045
309
GRIDFORMAT_END
 95
        2
302
GRIDFORMAT
  1
GRIDFORMAT_BEGIN
 90
        0
 91
        1
 62
     0
 92
       -2
340
0
 93
        0
 40
0.045
309
GRIDFORMAT_END
 95
        4
302
GRIDFORMAT
  1
GRIDFORMAT_BEGIN
 90
        0
 91
        1
 62
     0
 92
       -2
340
0
 93
        0
 40
0.045
309
GRIDFORMAT_END
 95
        8
302
GRIDFORMAT
  1
GRIDFORMAT_BEGIN
 90
        0
 91
        1
 62
     0
 92
       -2
340
0
 93
        0
 40
0.045
309
GRIDFORMAT_END
 95
       16
302
GRIDFORMAT
  1
GRIDFORMAT_BEGIN
 90
        0
 91
        1
 62
     0
 92
       -2
340
0
 93
        0
 40
0.045
309
GRIDFORMAT_END
 95
       32
302
GRIDFORMAT
  1
GRIDFORMAT_BEGIN
 90
        0
 91
        1
 62
     0
 92
       -2
340
0
 93
        0
 40
0.045
309
GRIDFORMAT_END
309
TABLEFORMAT_END
  1
CELLSTYLE_BEGIN
 90
        2
 91
        1
300
_HEADER
309
CELLSTYLE_END
300
CELLSTYLE
  1
TABLEFORMAT_BEGIN
 90
        5
170
     1
 91
        0
 92
        0
 62
   257
 93
        1
300
CONTENTFORMAT
  1
CONTENTFORMAT_BEGIN
 90
        0
 91
        0
 92
        4
 93
        0
300

 40
0.0
140
1.0
 94
        1
 62
     0
340
11
144
0.18
309
CONTENTFORMAT_END
171
     1
301
MARGIN
  1
CELLMARGIN_BEGIN
 40
0.06
 40
0.06
 40
0.06
 40
0.06
 40
0.18
 40
0.18
309
CELLMARGIN_END
 94
        6
 95
        1
302
GRIDFORMAT
  1
GRIDFORMAT_BEGIN
 90
        0
 91
        1
 62
     0
 92
       -2
340
0
 93
        0
 40
0.045
309
GRIDFORMAT_END
 95
        2
302
GRIDFORMAT
  1
GRIDFORMAT_BEGIN
 90
        0
 91
        1
 62
     0
 92
       -2
340
0
 93
        0
 40
0.045
309
GRIDFORMAT_END
 95
        4
302
GRIDFORMAT
  1
GRIDFORMAT_BEGIN
 90
        0
 91
        1
 62
     0
 92
       -2
340
0
 93
        0
 40
0.045
309
GRIDFORMAT_END
 95
        8
302
GRIDFORMAT
  1
GRIDFORMAT_BEGIN
 90
        0
 91
        1
 62
     0
 92
       -2
340
0
 93
        0
 40
0.045
309
GRIDFORMAT_END
 95
       16
302
GRIDFORMAT
  1
GRIDFORMAT_BEGIN
 90
        0
 91
        1
 62
     0
 92
       -2
340
0
 93
        0
 40
0.045
309
GRIDFORMAT_END
 95
       32
302
GRIDFORMAT
  1
GRIDFORMAT_BEGIN
 90
        0
 91
        1
 62
     0
 92
       -2
340
0
 93
        0
 40
0.045
309
GRIDFORMAT_END
309
TABLEFORMAT_END
  1
CELLSTYLE_BEGIN
 90
        3
 91
        2
300
_DATA
309
CELLSTYLE_END
  0
CELLSTYLEMAP
  5
601
102
{ACAD_REACTORS
330
600
102
}
330
600
100
AcDbCellStyleMap
 90
        3
300
CELLSTYLE
  1
TABLEFORMAT_BEGIN
 90
        5
170
     1
 91
        0
 92
    32768
 62
   257
 93
        1
300
CONTENTFORMAT
  1
CONTENTFORMAT_BEGIN
 90
        0
 91
        0
 92
        4
 93
        0
300

 40
0.0
140
1.0
 94
        1
 62
     0
340
11
144
0.18
309
CONTENTFORMAT_END
171
     1
301
MARGIN
  1
CELLMARGIN_BEGIN
 40
0.06
 40
0.06
 40
0.06
 40
0.06
 40
0.18
 40
0.18
309
CELLMARGIN_END
 94
        6
 95
        1
302
GRIDFORMAT
  1
GRIDFORMAT_BEGIN
 90
        0
 91
        1
 62
     0
 92
       -2
340
0
 93
        0
 40
0.045
309
GRIDFORMAT_END
 95
        2
302
GRIDFORMAT
  1
GRIDFORMAT_BEGIN
 90
        0
 91
        1
 62
     0
 92
       -2
340
0
 93
        0
 40
0.045
309
GRIDFORMAT_END
 95
        4
302
GRIDFORMAT
  1
GRIDFORMAT_BEGIN
 90
        0
 91
        1
 62
     0
 92
       -2
340
0
 93
        0
 40
0.045
309
GRIDFORMAT_END
 95
        8
302
GRIDFORMAT
  1
GRIDFORMAT_BEGIN
 90
        0
 91
        1
 62
     0
 92
       -2
340
0
 93
        0
 40
0.045
309
GRIDFORMAT_END
 95
       16
302
GRIDFORMAT
  1
GRIDFORMAT_BEGIN
 90
        0
 91
        1
 62
     0
 92
       -2
340
0
 93
        0
 40
0.045
309
GRIDFORMAT_END
 95
       32
302
GRIDFORMAT
  1
GRIDFORMAT_BEGIN
 90
        0
 91
        1
 62
     0
 92
       -2
340
0
 93
        0
 40
0.045
309
GRIDFORMAT_END
309
TABLEFORMAT_END
  1
CELLSTYLE_BEGIN
 90
        1
 91
        1
300
_TITLE
309
CELLSTYLE_END
300
CELLSTYLE
  1
TABLEFORMAT_BEGIN
 90
        5
170
     1
 91
        0
 92
        0
 62
   257
 93
        1
300
CONTENTFORMAT
  1
CONTENTFORMAT_BEGIN
 90
        0
 91
        0
 92
        4
 93
        0
300

 40
0.0
140
1.0
 94
        1
 62
     0
340
11
144
0.18
309
CONTENTFORMAT_END
171
     1
301
MARGIN
  1
CELLMARGIN_BEGIN
 40
0.06
 40
0.06
 40
0.06
 40
0.06
 40
0.18
 40
0.18
309
CELLMARGIN_END
 94
        6
 95
        1
302
GRIDFORMAT
  1
GRIDFORMAT_BEGIN
 90
        0
 91
        1
 62
     0
 92
       -2
340
0
 93
        0
 40
0.045
309
GRIDFORMAT_END
 95
        2
302
GRIDFORMAT
  1
GRIDFORMAT_BEGIN
 90
        0
 91
        1
 62
     0
 92
       -2
340
0
 93
        0
 40
0.045
309
GRIDFORMAT_END
 95
        4
302
GRIDFORMAT
  1
GRIDFORMAT_BEGIN
 90
        0
 91
        1
 62
     0
 92
       -2
340
0
 93
        0
 40
0.045
309
GRIDFORMAT_END
 95
        8
302
GRIDFORMAT
  1
GRIDFORMAT_BEGIN
 90
        0
 91
        1
 62
     0
 92
       -2
340
0
 93
        0
 40
0.045
309
GRIDFORMAT_END
 95
       16
302
GRIDFORMAT
  1
GRIDFORMAT_BEGIN
 90
        0
 91
        1
 62
     0
 92
       -2
340
0
 93
        0
 40
0.045
309
GRIDFORMAT_END
 95
       32
302
GRIDFORMAT
  1
GRIDFORMAT_BEGIN
 90
        0
 91
        1
 62
     0
 92
       -2
340
0
 93
        0
 40
0.045
309
GRIDFORMAT_END
309
TABLEFORMAT_END
  1
CELLSTYLE_BEGIN
 90
        2
 91
        1
300
_HEADER
309
CELLSTYLE_END
300
CELLSTYLE
  1
TABLEFORMAT_BEGIN
 90
        5
170
     1
 91
        0
 92
        0
 62
   257
 93
        1
300
CONTENTFORMAT
  1
CONTENTFORMAT_BEGIN
 90
        0
 91
        0
 92
        4
 93
        0
300

 40
0.0
140
1.0
 94
        1
 62
     0
340
11
144
0.18
309
CONTENTFORMAT_END
171
     1
301
MARGIN
  1
CELLMARGIN_BEGIN
 40
0.06
 40
0.06
 40
0.06
 40
0.06
 40
0.18
 40
0.18
309
CELLMARGIN_END
 94
        6
 95
        1
302
GRIDFORMAT
  1
GRIDFORMAT_BEGIN
 90
        0
 91
        1
 62
     0
 92
       -2
340
0
 93
        0
 40
0.045
309
GRIDFORMAT_END
 95
        2
302
GRIDFORMAT
  1
GRIDFORMAT_BEGIN
 90
        0
 91
        1
 62
     0
 92
       -2
340
0
 93
        0
 40
0.045
309
GRIDFORMAT_END
 95
        4
302
GRIDFORMAT
  1
GRIDFORMAT_BEGIN
 90
        0
 91
        1
 62
     0
 92
       -2
340
0
 93
        0
 40
0.045
309
GRIDFORMAT_END
 95
        8
302
GRIDFORMAT
  1
GRIDFORMAT_BEGIN
 90
        0
 91
        1
 62
     0
 92
       -2
340
0
 93
        0
 40
0.045
309
GRIDFORMAT_END
 95
       16
302
GRIDFORMAT
  1
GRIDFORMAT_BEGIN
 90
        0
 91
        1
 62
     0
 92
       -2
340
0
 93
        0
 40
0.045
309
GRIDFORMAT_END
 95
       32
302
GRIDFORMAT
  1
GRIDFORMAT_BEGIN
 90
        0
 91
        1
 62
     0
 92
       -2
340
0
 93
        0
 40
0.045
309
GRIDFORMAT_END
309
TABLEFORMAT_END
  1
CELLSTYLE_BEGIN
 90
        3
 91
        2
300
_DATA
309
CELLSTYLE_END
  0
ENDSEC
  0
EOF
