  0
SECTION
  2
HEADER
  9
$ACADVER
  1
AC1015
  9
$ACADMAINTVER
 70
     6
  9
$DWGCODEPAGE
  3
ANSI_1252
  9
$INSBASE
 10
0.0
 20
0.0
 30
0.0
  9
$EXTMIN
 10
0.0
 20
0.0
 30
0.0
  9
$EXTMAX
 10
420.0
 20
297.0
 30
0.0
  9
$LIMMIN
 10
0.0
 20
0.0
  9
$LIMMAX
 10
420.0
 20
297.0
  9
$ORTHOMODE
 70
     0
  9
$REGENMODE
 70
     1
  9
$FILLMODE
 70
     1
  9
$QTEXTMODE
 70
     0
  9
$MIRRTEXT
 70
     1
  9
$LTSCALE
 40
23.1
  9
$ATTMODE
 70
     1
  9
$TEXTSIZE
 40
0.2
  9
$TRACEWID
 40
0.05
  9
$TEXTSTYLE
  7
STANDARD
  9
$CLAYER
  8
0
  9
$CELTYPE
  6
BYLAYER
  9
$CECOLOR
 62
   256
  9
$CELTSCALE
 40
1.0
  9
$DISPSILH
 70
     0
  9
$DIMSCALE
 40
1.0
  9
$DIMASZ
 40
2.5
  9
$DIMEXO
 40
2.625
  9
$DIMDLI
 40
15.96
  9
$DIMRND
 40
0.0
  9
$DIMDLE
 40
0.0
  9
$DIMEXE
 40
7.56
  9
$DIMTP
 40
0.01
  9
$DIMTM
 40
0.01
  9
$DIMTXT
 40
3.0
  9
$DIMCEN
 40
3.78
  9
$DIMTSZ
 40
0.0
  9
$DIMTOL
 70
     1
  9
$DIMLIM
 70
     0
  9
$DIMTIH
 70
     1
  9
$DIMTOH
 70
     1
  9
$DIMSE1
 70
     0
  9
$DIMSE2
 70
     0
  9
$DIMTAD
 70
     0
  9
$DIMZIN
 70
     0
  9
$DIMBLK
  1
CLOSED
  9
$DIMASO
 70
     1
  9
$DIMSHO
 70
     1
  9
$DIMPOST
  1

  9
$DIMAPOST
  1

  9
$DIMALT
 70
     0
  9
$DIMALTD
 70
     2
  9
$DIMALTF
 40
25.4
  9
$DIMLFAC
 40
1.0
  9
$DIMTOFL
 70
     0
  9
$DIMTVP
 40
0.0
  9
$DIMTIX
 70
     0
  9
$DIMSOXD
 70
     0
  9
$DIMSAH
 70
     0
  9
$DIMBLK1
  1

  9
$DIMBLK2
  1

  9
$DIMSTYLE
  2
STANDARD
  9
$DIMCLRD
 70
     0
  9
$DIMCLRE
 70
     0
  9
$DIMCLRT
 70
     0
  9
$DIMTFAC
 40
1.0
  9
$DIMGAP
 40
0.09
  9
$DIMJUST
 70
     0
  9
$DIMSD1
 70
     0
  9
$DIMSD2
 70
     0
  9
$DIMTOLJ
 70
     1
  9
$DIMTZIN
 70
     0
  9
$DIMALTZ
 70
     0
  9
$DIMALTTZ
 70
     0
  9
$DIMUPT
 70
     0
  9
$DIMDEC
 70
     4
  9
$DIMTDEC
 70
     4
  9
$DIMALTU
 70
     2
  9
$DIMALTTD
 70
     2
  9
$DIMTXSTY
  7
STANDARD
  9
$DIMAUNIT
 70
     0
  9
$DIMADEC
 70
     0
  9
$DIMALTRND
 40
0.0
  9
$DIMAZIN
 70
     0
  9
$DIMDSEP
 70
    46
  9
$DIMATFIT
 70
     3
  9
$DIMFRAC
 70
     0
  9
$DIMLDRBLK
  1

  9
$DIMLUNIT
 70
     2
  9
$DIMLWD
 70
    -2
  9
$DIMLWE
 70
    -2
  9
$DIMTMOVE
 70
     0
  9
$LUNITS
 70
     2
  9
$LUPREC
 70
     4
  9
$SKETCHINC
 40
0.1
  9
$FILLETRAD
 40
0.5
  9
$AUNITS
 70
     0
  9
$AUPREC
 70
     0
  9
$MENU
  1
.
  9
$ELEVATION
 40
0.0
  9
$PELEVATION
 40
0.0
  9
$THICKNESS
 40
0.0
  9
$LIMCHECK
 70
     0
  9
$CHAMFERA
 40
0.0
  9
$CHAMFERB
 40
0.0
  9
$CHAMFERC
 40
0.0
  9
$CHAMFERD
 40
0.0
  9
$SKPOLY
 70
     0
  9
$TDCREATE
 40
2447893.041666667
  9
$TDUCREATE
 40
0.0
  9
$TDUPDATE
 40
2458444.351012107
  9
$TDUUPDATE
 40
2458444.30934544
  9
$TDINDWG
 40
0.0007291435
  9
$TDUSRTIMER
 40
0.0002912269
  9
$USRTIMER
 70
     1
  9
$ANGBASE
 50
0.0
  9
$ANGDIR
 70
     0
  9
$PDMODE
 70
     3
  9
$PDSIZE
 40
0.3125
  9
$PLINEWID
 40
0.0
  9
$SPLFRAME
 70
     0
  9
$SPLINETYPE
 70
     6
  9
$SPLINESEGS
 70
     8
  9
$HANDSEED
  5
491
  9
$SURFTAB1
 70
     6
  9
$SURFTAB2
 70
     6
  9
$SURFTYPE
 70
     6
  9
$SURFU
 70
     6
  9
$SURFV
 70
     6
  9
$UCSBASE
  2

  9
$UCSNAME
  2

  9
$UCSORG
 10
0.0
 20
0.0
 30
0.0
  9
$UCSXDIR
 10
1.0
 20
0.0
 30
0.0
  9
$UCSYDIR
 10
0.0
 20
1.0
 30
0.0
  9
$UCSORTHOREF
  2

  9
$UCSORTHOVIEW
 70
     0
  9
$UCSORGTOP
 10
0.0
 20
0.0
 30
0.0
  9
$UCSORGBOTTOM
 10
0.0
 20
0.0
 30
0.0
  9
$UCSORGLEFT
 10
0.0
 20
0.0
 30
0.0
  9
$UCSORGRIGHT
 10
0.0
 20
0.0
 30
0.0
  9
$UCSORGFRONT
 10
0.0
 20
0.0
 30
0.0
  9
$UCSORGBACK
 10
0.0
 20
0.0
 30
0.0
  9
$PUCSBASE
  2

  9
$PUCSNAME
  2

  9
$PUCSORG
 10
0.0
 20
0.0
 30
0.0
  9
$PUCSXDIR
 10
1.0
 20
0.0
 30
0.0
  9
$PUCSYDIR
 10
0.0
 20
1.0
 30
0.0
  9
$PUCSORTHOREF
  2

  9
$PUCSORTHOVIEW
 70
     0
  9
$PUCSORGTOP
 10
0.0
 20
0.0
 30
0.0
  9
$PUCSORGBOTTOM
 10
0.0
 20
0.0
 30
0.0
  9
$PUCSORGLEFT
 10
0.0
 20
0.0
 30
0.0
  9
$PUCSORGRIGHT
 10
0.0
 20
0.0
 30
0.0
  9
$PUCSORGFRONT
 10
0.0
 20
0.0
 30
0.0
  9
$PUCSORGBACK
 10
0.0
 20
0.0
 30
0.0
  9
$USERI1
 70
     0
  9
$USERI2
 70
     0
  9
$USERI3
 70
     0
  9
$USERI4
 70
     0
  9
$USERI5
 70
     0
  9
$USERR1
 40
0.0
  9
$USERR2
 40
0.0
  9
$USERR3
 40
0.0
  9
$USERR4
 40
0.0
  9
$USERR5
 40
0.0
  9
$WORLDVIEW
 70
     1
  9
$SHADEDGE
 70
     3
  9
$SHADEDIF
 70
    70
  9
$TILEMODE
 70
     1
  9
$MAXACTVP
 70
    64
  9
$PINSBASE
 10
0.0
 20
0.0
 30
0.0
  9
$PLIMCHECK
 70
     0
  9
$PEXTMIN
 10
1.000000000000000E+20
 20
1.000000000000000E+20
 30
1.000000000000000E+20
  9
$PEXTMAX
 10
-1.000000000000000E+20
 20
-1.000000000000000E+20
 30
-1.000000000000000E+20
  9
$PLIMMIN
 10
0.0
 20
0.0
  9
$PLIMMAX
 10
420.0
 20
297.0
  9
$UNITMODE
 70
     0
  9
$VISRETAIN
 70
     1
  9
$PLINEGEN
 70
     0
  9
$PSLTSCALE
 70
     1
  9
$TREEDEPTH
 70
  3020
  9
$CMLSTYLE
  2
Standard
  9
$CMLJUST
 70
     0
  9
$CMLSCALE
 40
1.0
  9
$PROXYGRAPHICS
 70
     1
  9
$MEASUREMENT
 70
     1
  9
$CELWEIGHT
370
    -1
  9
$ENDCAPS
280
     0
  9
$JOINSTYLE
280
     0
  9
$LWDISPLAY
290
     0
  9
$INSUNITS
 70
     4
  9
$HYPERLINKBASE
  1

  9
$STYLESHEET
  1

  9
$XEDIT
290
     1
  9
$CEPSNTYPE
380
     0
  9
$PSTYLEMODE
290
     1
  9
$FINGERPRINTGUID
  2
{6A2DAB0A-A14A-4052-8569-AC01C81424A1}
  9
$VERSIONGUID
  2
{FAEB1C32-E019-11D5-929B-00C0DF256EC4}
  9
$EXTNAMES
290
     1
  9
$PSVPSCALE
 40
0.0
  9
$OLESTARTUP
290
     0
  0
ENDSEC
  0
SECTION
  2
CLASSES
  0
CLASS
  1
ACDBDICTIONARYWDFLT
  2
AcDbDictionaryWithDefault
  3
ObjectDBX Classes
 90
        0
280
     0
281
     0
  0
CLASS
  1
ACDBPLACEHOLDER
  2
AcDbPlaceHolder
  3
ObjectDBX Classes
 90
        0
280
     0
281
     0
  0
CLASS
  1
LAYOUT
  2
AcDbLayout
  3
ObjectDBX Classes
 90
        0
280
     0
281
     0
  0
CLASS
  1
TABLESTYLE
  2
AcDbTableStyle
  3
ObjectDBX Classes
 90
     4095
280
     0
281
     0
  0
CLASS
  1
ACAD_TABLE
  2
AcDbTable
  3
ObjectDBX Classes
 90
     1025
280
     0
281
     1
  0
CLASS
  1
SCALE
  2
AcDbScale
  3
ObjectDBX Classes
 90
     1153
280
     0
281
     0
  0
CLASS
  1
TABLEGEOMETRY
  2
AcDbTableGeometry
  3
ObjectDBX Classes
 90
     1152
280
     0
281
     0
  0
CLASS
  1
VISUALSTYLE
  2
AcDbVisualStyle
  3
ObjectDBX Classes
 90
     4095
280
     0
281
     0
  0
CLASS
  1
MATERIAL
  2
AcDbMaterial
  3
ObjectDBX Classes
 90
     1153
280
     0
281
     0
  0
CLASS
  1
SUN
  2
AcDbSun
  3
SCENEOE
 90
     1153
280
     0
281
     0
  0
CLASS
  1
RASTERVARIABLES
  2
AcDbRasterVariables
  3
ISM
 90
        0
280
     0
281
     0
  0
CLASS
  1
MLEADERSTYLE
  2
AcDbMLeaderStyle
  3
ACDB_MLEADERSTYLE_CLASS
 90
     4095
280
     0
281
     0
  0
ENDSEC
  0
SECTION
  2
TABLES
  0
TABLE
  2
VPORT
  5
8
330
0
100
AcDbSymbolTable
 70
     1
  0
VPORT
  5
1F4
330
8
100
AcDbSymbolTableRecord
100
AcDbViewportTableRecord
  2
*ACTIVE
 70
     0
 10
0.0
 20
0.0
 11
1.0
 21
1.0
 12
163.7953814431056
 22
174.5684124106305
 13
0.0
 23
0.0
 14
1.0
 24
1.0
 15
0.0
 25
0.0
 16
0.0
 26
0.0
 36
1.0
 17
0.0
 27
0.0
 37
0.0
 40
371.2500000000001
 41
1.929961089494163
 42
50.0
 43
0.0
 44
0.0
 50
0.0
 51
0.0
 71
    16
 72
   100
 73
     1
 74
     1
 75
     0
 76
     0
 77
     0
 78
     0
281
     0
 65
     1
110
0.0
120
0.0
130
0.0
111
1.0
121
0.0
131
0.0
112
0.0
122
1.0
132
0.0
 79
     0
146
0.0
  0
ENDTAB
  0
TABLE
  2
LTYPE
  5
5
330
0
100
AcDbSymbolTable
 70
     6
  0
LTYPE
  5
14
330
5
100
AcDbSymbolTableRecord
100
AcDbLinetypeTableRecord
  2
BYBLOCK
 70
     0
  3

 72
    65
 73
     0
 40
0.0
  0
LTYPE
  5
15
330
5
100
AcDbSymbolTableRecord
100
AcDbLinetypeTableRecord
  2
BYLAYER
 70
     0
  3

 72
    65
 73
     0
 40
0.0
  0
LTYPE
  5
16
330
5
100
AcDbSymbolTableRecord
100
AcDbLinetypeTableRecord
  2
CONTINUOUS
 70
     0
  3
Solid line
 72
    65
 73
     0
 40
0.0
  0
LTYPE
  5
1F5
330
5
100
AcDbSymbolTableRecord
100
AcDbLinetypeTableRecord
  2
CENTER
 70
     0
  3
____ _ ____ _ ____ _ ____ _ ____ _ ____ _ ____
 72
    65
 73
     4
 40
0.6
 49
0.375
 74
     0
 49
-0.075
 74
     0
 49
0.075
 74
     0
 49
-0.075
 74
     0
  0
LTYPE
  5
1F6
330
5
100
AcDbSymbolTableRecord
100
AcDbLinetypeTableRecord
  2
HIDDEN
 70
     0
  3
- - - - - - - - - - - - - - - - - - - -
 72
    65
 73
     2
 40
0.2
 49
0.1
 74
     0
 49
-0.1
 74
     0
  0
LTYPE
  5
1F7
330
5
100
AcDbSymbolTableRecord
100
AcDbLinetypeTableRecord
  2
PHANTOM
 70
     0
  3
_____ _ _ _____ _ _ _____ _ _ _____
 72
    65
 73
     6
 40
0.8
 49
0.45
 74
     0
 49
-0.05
 74
     0
 49
0.1
 74
     0
 49
-0.05
 74
     0
 49
0.1
 74
     0
 49
-0.05
 74
     0
  0
LTYPE
  5
1F8
330
5
100
AcDbSymbolTableRecord
100
AcDbLinetypeTableRecord
  2
DOT
 70
     0
  3
. . . . . . . . . . . . . . . . . . . .
 72
    65
 73
     2
 40
0.2
 49
0.1
 74
     0
 49
-0.1
 74
     0
  0
LTYPE
  5
1F9
330
5
100
AcDbSymbolTableRecord
100
AcDbLinetypeTableRecord
  2
DASHED
 70
     0
  3
- - - - - - - - - - - - - - - - - - - -
 72
    65
 73
     2
 40
0.2
 49
0.1
 74
     0
 49
-0.1
 74
     0
  0
ENDTAB
  0
TABLE
  2
LAYER
  5
2
330
0
100
AcDbSymbolTable
 70
    35
  0
LAYER
  5
10
330
2
100
AcDbSymbolTableRecord
100
AcDbLayerTableRecord
  2
0
 70
     0
 62
     7
  6
CONTINUOUS
370
    -3
390
F
  0
LAYER
  5
1FA
330
2
100
AcDbSymbolTableRecord
100
AcDbLayerTableRecord
  2
DEFAULT_1
 70
     0
 62
     7
  6
CENTER
370
    -3
390
F
  0
LAYER
  5
1FB
330
2
100
AcDbSymbolTableRecord
100
AcDbLayerTableRecord
  2
DEFAULT_2
 70
     0
 62
     8
  6
HIDDEN
370
    -3
390
F
  0
LAYER
  5
1FC
330
2
100
AcDbSymbolTableRecord
100
AcDbLayerTableRecord
  2
DEFAULT_3
 70
     0
 62
     7
  6
PHANTOM
370
    -3
390
F
  0
LAYER
  5
1FD
330
2
100
AcDbSymbolTableRecord
100
AcDbLayerTableRecord
  2
01_ALL_DTM_PLN
 70
     0
 62
     7
  6
CONTINUOUS
370
    -3
390
F
  0
LAYER
  5
1FE
330
2
100
AcDbSymbolTableRecord
100
AcDbLayerTableRecord
  2
01__ASM_ALL_DTM_PLN
 70
     0
 62
     7
  6
CONTINUOUS
370
    -3
390
F
  0
LAYER
  5
1FF
330
2
100
AcDbSymbolTableRecord
100
AcDbLayerTableRecord
  2
01__ASM_DEF_DTM_PLN
 70
     0
 62
     7
  6
CONTINUOUS
370
    -3
390
F
  0
LAYER
  5
200
330
2
100
AcDbSymbolTableRecord
100
AcDbLayerTableRecord
  2
01___PRT_ALL_DTM_PLN
 70
     0
 62
     7
  6
CONTINUOUS
370
    -3
390
F
  0
LAYER
  5
201
330
2
100
AcDbSymbolTableRecord
100
AcDbLayerTableRecord
  2
01___PRT_DEF_DTM_PLN
 70
     0
 62
     7
  6
CONTINUOUS
370
    -3
390
F
  0
LAYER
  5
202
330
2
100
AcDbSymbolTableRecord
100
AcDbLayerTableRecord
  2
02_ALL_AXES
 70
     0
 62
     7
  6
CONTINUOUS
370
    -3
390
F
  0
LAYER
  5
203
330
2
100
AcDbSymbolTableRecord
100
AcDbLayerTableRecord
  2
02__ASM_ALL_AXES
 70
     0
 62
     7
  6
CONTINUOUS
370
    -3
390
F
  0
LAYER
  5
204
330
2
100
AcDbSymbolTableRecord
100
AcDbLayerTableRecord
  2
02___PRT_ALL_AXES
 70
     0
 62
     7
  6
CONTINUOUS
370
    -3
390
F
  0
LAYER
  5
205
330
2
100
AcDbSymbolTableRecord
100
AcDbLayerTableRecord
  2
03_ALL_CURVES
 70
     0
 62
     7
  6
CONTINUOUS
370
    -3
390
F
  0
LAYER
  5
206
330
2
100
AcDbSymbolTableRecord
100
AcDbLayerTableRecord
  2
03__ASM_ALL_CURVES
 70
     0
 62
     7
  6
CONTINUOUS
370
    -3
390
F
  0
LAYER
  5
207
330
2
100
AcDbSymbolTableRecord
100
AcDbLayerTableRecord
  2
03___PRT_ALL_CURVES
 70
     0
 62
     7
  6
CONTINUOUS
370
    -3
390
F
  0
LAYER
  5
208
330
2
100
AcDbSymbolTableRecord
100
AcDbLayerTableRecord
  2
04_ALL_DTM_PNT
 70
     0
 62
     7
  6
CONTINUOUS
370
    -3
390
F
  0
LAYER
  5
209
330
2
100
AcDbSymbolTableRecord
100
AcDbLayerTableRecord
  2
04__ASM_ALL_DTM_PNT
 70
     0
 62
     7
  6
CONTINUOUS
370
    -3
390
F
  0
LAYER
  5
20A
330
2
100
AcDbSymbolTableRecord
100
AcDbLayerTableRecord
  2
04___PRT_ALL_DTM_PNT
 70
     0
 62
     7
  6
CONTINUOUS
370
    -3
390
F
  0
LAYER
  5
20B
330
2
100
AcDbSymbolTableRecord
100
AcDbLayerTableRecord
  2
05_ALL_DTM_CSYS
 70
     0
 62
     7
  6
CONTINUOUS
370
    -3
390
F
  0
LAYER
  5
20C
330
2
100
AcDbSymbolTableRecord
100
AcDbLayerTableRecord
  2
05__ASM_ALL_DTM_CSYS
 70
     0
 62
     7
  6
CONTINUOUS
370
    -3
390
F
  0
LAYER
  5
20D
330
2
100
AcDbSymbolTableRecord
100
AcDbLayerTableRecord
  2
05__ASM_DEF_DTM_CSYS
 70
     0
 62
     7
  6
CONTINUOUS
370
    -3
390
F
  0
LAYER
  5
20E
330
2
100
AcDbSymbolTableRecord
100
AcDbLayerTableRecord
  2
05___PRT_ALL_DTM_CSYS
 70
     0
 62
     7
  6
CONTINUOUS
370
    -3
390
F
  0
LAYER
  5
20F
330
2
100
AcDbSymbolTableRecord
100
AcDbLayerTableRecord
  2
05___PRT_DEF_DTM_CSYS
 70
     0
 62
     7
  6
CONTINUOUS
370
    -3
390
F
  0
LAYER
  5
210
330
2
100
AcDbSymbolTableRecord
100
AcDbLayerTableRecord
  2
06_ALL_SURFS
 70
     0
 62
     7
  6
CONTINUOUS
370
    -3
390
F
  0
LAYER
  5
211
330
2
100
AcDbSymbolTableRecord
100
AcDbLayerTableRecord
  2
06__ASM_ALL_SURFS
 70
     0
 62
     7
  6
CONTINUOUS
370
    -3
390
F
  0
LAYER
  5
212
330
2
100
AcDbSymbolTableRecord
100
AcDbLayerTableRecord
  2
06___PRT_ALL_SURFS
 70
     0
 62
     7
  6
CONTINUOUS
370
    -3
390
F
  0
LAYER
  5
213
330
2
100
AcDbSymbolTableRecord
100
AcDbLayerTableRecord
  2
07__ASM_ALL_SKELETONS
 70
     0
 62
     7
  6
CONTINUOUS
370
    -3
390
F
  0
LAYER
  5
214
330
2
100
AcDbSymbolTableRecord
100
AcDbLayerTableRecord
  2
1_ALL_PLANES
 70
     0
 62
     7
  6
CONTINUOUS
370
    -3
390
F
  0
LAYER
  5
215
330
2
100
AcDbSymbolTableRecord
100
AcDbLayerTableRecord
  2
2_ALL_CSYS
 70
     0
 62
     7
  6
CONTINUOUS
370
    -3
390
F
  0
LAYER
  5
216
330
2
100
AcDbSymbolTableRecord
100
AcDbLayerTableRecord
  2
3_ALL_AXES
 70
     0
 62
     7
  6
CONTINUOUS
370
    -3
390
F
  0
LAYER
  5
217
330
2
100
AcDbSymbolTableRecord
100
AcDbLayerTableRecord
  2
4_ALL_POINTS
 70
     0
 62
     7
  6
CONTINUOUS
370
    -3
390
F
  0
LAYER
  5
218
330
2
100
AcDbSymbolTableRecord
100
AcDbLayerTableRecord
  2
5_ALL_CURVES
 70
     0
 62
     7
  6
CONTINUOUS
370
    -3
390
F
  0
LAYER
  5
219
330
2
100
AcDbSymbolTableRecord
100
AcDbLayerTableRecord
  2
7_ALL_FEATURES
 70
     0
 62
     7
  6
CONTINUOUS
370
    -3
390
F
  0
LAYER
  5
21A
330
2
100
AcDbSymbolTableRecord
100
AcDbLayerTableRecord
  2
8_ALL_NOTES_BALLOONS_SYMBOLS_GT
 70
     0
 62
     7
  6
CONTINUOUS
370
    -3
390
F
  0
LAYER
  5
44C
330
2
100
AcDbSymbolTableRecord
100
AcDbLayerTableRecord
  2
Defpoints
 70
     0
 62
     7
  6
CONTINUOUS
290
     0
370
    -3
390
F
  0
ENDTAB
  0
TABLE
  2
STYLE
  5
3
330
0
100
AcDbSymbolTable
 70
     6
  0
STYLE
  5
11
330
3
100
AcDbSymbolTableRecord
100
AcDbTextStyleTableRecord
  2
STANDARD
 70
     0
 40
0.0
 41
0.85
 50
0.0
 71
     0
 42
0.2
  3
txt
  4

  0
STYLE
  5
21B
330
3
100
AcDbSymbolTableRecord
100
AcDbTextStyleTableRecord
  2
TEXTSTYLE_1
 70
     0
 40
0.0
 41
0.8
 50
0.0
 71
     0
 42
0.2
  3
gdt
  4

  0
STYLE
  5
21C
330
3
100
AcDbSymbolTableRecord
100
AcDbTextStyleTableRecord
  2
TEXTSTYLE_2
 70
     0
 40
0.0
 41
0.9
 50
0.0
 71
     0
 42
0.2
  3
txt
  4

  0
STYLE
  5
21D
330
3
100
AcDbSymbolTableRecord
100
AcDbTextStyleTableRecord
  2
TEXTSTYLE_3
 70
     0
 40
0.0
 41
0.9
 50
0.0
 71
     0
 42
0.2
  3
txt
  4

  0
STYLE
  5
21E
330
3
100
AcDbSymbolTableRecord
100
AcDbTextStyleTableRecord
  2
TEXTSTYLE_4
 70
     0
 40
0.0
 41
0.85
 50
0.0
 71
     0
 42
0.2
  3
gdt
  4

  0
STYLE
  5
21F
330
3
100
AcDbSymbolTableRecord
100
AcDbTextStyleTableRecord
  2
TEXTSTYLE_5
 70
     0
 40
0.0
 41
0.85
 50
0.0
 71
     0
 42
0.2
  3
txt
  4

  0
ENDTAB
  0
TABLE
  2
VIEW
  5
6
330
0
100
AcDbSymbolTable
 70
     0
  0
ENDTAB
  0
TABLE
  2
UCS
  5
7
330
0
100
AcDbSymbolTable
 70
     0
  0
ENDTAB
  0
TABLE
  2
APPID
  5
9
330
0
100
AcDbSymbolTable
 70
     1
  0
APPID
  5
220
330
9
100
AcDbSymbolTableRecord
100
AcDbRegAppTableRecord
  2
ACAD
 70
     0
  0
ENDTAB
  0
TABLE
  2
DIMSTYLE
  5
A
330
0
100
AcDbSymbolTable
 70
     3
100
AcDbDimStyleTable
  0
DIMSTYLE
105
228
330
A
100
AcDbSymbolTableRecord
100
AcDbDimStyleTableRecord
  2
STANDARD
 70
     0
 41
2.5
 47
0.01
 48
0.01
 71
     1
 73
     0
 74
     0
 77
     1
 78
     8
140
3.0
178
     0
271
     2
272
     2
284
     8
340
11
341
223
342
223
343
223
344
223
  0
DIMSTYLE
105
229
330
A
100
AcDbSymbolTableRecord
100
AcDbDimStyleTableRecord
  2
DIMSTYLE_1
 70
     0
 41
2.5
 47
0.3
 48
0.3
 73
     0
 74
     0
 77
     1
 78
     8
140
3.0
144
0.6666666667
178
     0
271
     2
272
     2
284
     8
340
11
341
223
342
223
343
223
344
223
  0
DIMSTYLE
105
22A
330
A
100
AcDbSymbolTableRecord
100
AcDbDimStyleTableRecord
  2
DIMSTYLE_2
 70
     0
 41
2.5
 47
0.3
 48
0.3
 73
     0
 74
     0
 77
     1
 78
     8
140
3.0
144
0.6666666667
178
     0
271
     0
272
     0
284
     8
340
11
341
223
342
223
343
223
344
223
  0
ENDTAB
  0
TABLE
  2
BLOCK_RECORD
  5
1
330
0
100
AcDbSymbolTable
 70
     5
  0
BLOCK_RECORD
  5
221
330
1
100
AcDbSymbolTableRecord
100
AcDbBlockTableRecord
  2
*Model_Space
340
403
  0
BLOCK_RECORD
  5
222
330
1
100
AcDbSymbolTableRecord
100
AcDbBlockTableRecord
  2
*Paper_Space
340
404
  0
BLOCK_RECORD
  5
223
330
1
100
AcDbSymbolTableRecord
100
AcDbBlockTableRecord
  2
_CLOSED
340
0
102
{BLKREFS
331
270
331
276
331
277
102
}
  0
BLOCK_RECORD
  5
224
330
1
100
AcDbSymbolTableRecord
100
AcDbBlockTableRecord
  2
*D1
340
0
  0
BLOCK_RECORD
  5
225
330
1
100
AcDbSymbolTableRecord
100
AcDbBlockTableRecord
  2
*D2
340
0
  0
BLOCK_RECORD
  5
226
330
1
100
AcDbSymbolTableRecord
100
AcDbBlockTableRecord
  2
LOGO2_BL0
340
0
102
{BLKREFS
331
29E
102
}
  0
BLOCK_RECORD
  5
227
330
1
100
AcDbSymbolTableRecord
100
AcDbBlockTableRecord
  2
*T4
340
0
102
{BLKREFS
331
29F
102
}
  0
ENDTAB
  0
ENDSEC
  0
SECTION
  2
BLOCKS
  0
BLOCK
  5
20
330
221
100
AcDbEntity
  8
0
100
AcDbBlockBegin
  2
*Model_Space
 70
     0
 10
0.0
 20
0.0
 30
0.0
  3
*Model_Space
  1
*Model_Space
  0
ENDBLK
  5
21
330
221
100
AcDbEntity
  8
0
100
AcDbBlockEnd
  0
BLOCK
  5
1C
330
222
100
AcDbEntity
 67
     1
  8
0
100
AcDbBlockBegin
  2
*Paper_Space
 70
     0
 10
0.0
 20
0.0
 30
0.0
  3
*Paper_Space
  1
*Paper_Space
  0
ENDBLK
  5
1D
330
222
100
AcDbEntity
 67
     1
  8
0
100
AcDbBlockEnd
  0
BLOCK
  5
267
330
223
100
AcDbEntity
  8
0
100
AcDbBlockBegin
  2
_CLOSED
 70
     0
 10
0.0
 20
0.0
 30
0.0
  3
_CLOSED
  1
_CLOSED
  0
LINE
  5
268
330
223
100
AcDbEntity
  8
0
  6
ByBlock
 62
     0
100
AcDbLine
 10
0.0
 20
0.0
 30
0.0
 11
-1.0
 21
0.2
 31
0.0
  0
LINE
  5
269
330
223
100
AcDbEntity
  8
0
  6
ByBlock
 62
     0
100
AcDbLine
 10
-1.0
 20
0.2
 30
0.0
 11
-1.0
 21
-0.2
 31
0.0
  0
LINE
  5
26A
330
223
100
AcDbEntity
  8
0
  6
ByBlock
 62
     0
100
AcDbLine
 10
-1.0
 20
-0.2
 30
0.0
 11
0.0
 21
0.0
 31
0.0
  0
LINE
  5
26B
330
223
100
AcDbEntity
  8
0
  6
ByBlock
 62
     0
100
AcDbLine
 10
-1.0
 20
0.0
 30
0.0
 11
0.0
 21
0.0
 31
0.0
  0
ENDBLK
  5
26C
330
223
100
AcDbEntity
  8
0
  6
ByBlock
 62
     0
100
AcDbBlockEnd
  0
BLOCK
  5
26D
330
224
100
AcDbEntity
  8
0
100
AcDbBlockBegin
  2
*D1
 70
     1
 10
0.0
 20
0.0
 30
0.0
  3
*D1
  1
*D1
  0
LINE
  5
26E
330
224
100
AcDbEntity
  8
0
  6
Continuous
 62
     0
370
    -2
100
AcDbLine
 10
94.73913413432862
 20
96.36352091280284
 30
0.0
 11
104.8278116930296
 21
106.7635309034483
 31
0.0
  0
MTEXT
  5
26F
330
224
100
AcDbEntity
  8
0
 62
     0
100
AcDbMText
 10
95.11168971287113
 20
103.9285752306589
 30
0.0
 40
3.0
 41
0.0
 71
     1
 72
     1
  1
\A1;%%c35
 11
0.6962816776791098
 21
0.7177686433164689
 31
0.0
 73
     1
 44
1.0
  0
INSERT
  5
270
330
224
100
AcDbEntity
  8
0
 62
     0
370
    -2
100
AcDbBlockReference
  2
_CLOSED
 10
92.99842994013085
 20
94.56909930451167
 30
0.0
 41
2.5
 42
2.5
 43
2.5
 50
225.8705614549561
  0
LINE
  5
44F
330
224
100
AcDbEntity
  8
0
  6
Continuous
 62
     0
100
AcDbLine
 10
74.63103590104949
 20
75.72767241744948
 30
0.0
 11
74.8110359010495
 21
75.72767241744948
 31
0.0
  0
LINE
  5
450
330
224
100
AcDbEntity
  8
0
  6
Continuous
 62
     0
100
AcDbLine
 10
74.72103590104949
 20
75.63767241744948
 30
0.0
 11
74.72103590104949
 21
75.81767241744949
 31
0.0
  0
POINT
  5
451
330
224
100
AcDbEntity
  8
Defpoints
 62
     0
100
AcDbPoint
 10
92.99842994013085
 20
94.56909930451167
 30
0.0
  0
POINT
  5
452
330
224
100
AcDbEntity
  8
Defpoints
 62
     0
100
AcDbPoint
 10
56.44364186196813
 20
56.8862455303873
 30
0.0
  0
ENDBLK
  5
271
330
224
100
AcDbEntity
  8
0
  6
ByBlock
 62
     0
100
AcDbBlockEnd
  0
BLOCK
  5
272
330
225
100
AcDbEntity
  8
0
100
AcDbBlockBegin
  2
*D2
 70
     1
 10
0.0
 20
0.0
 30
0.0
  3
*D2
  1
*D2
  0
LINE
  5
273
330
225
100
AcDbEntity
  8
0
  6
Continuous
 62
     0
370
    -2
100
AcDbLine
 10
106.0265480629
 20
257.8548434659
 30
0.0
 11
119.9092015374
 21
257.8548434659
 31
0.0
  0
LINE
  5
274
330
225
100
AcDbEntity
  8
0
  6
Continuous
 62
     0
370
    -2
100
AcDbLine
 10
105.5552753356
 20
179.1798434659
 30
0.0
 11
119.9092015374
 21
179.1798434659
 31
0.0
  0
LINE
  5
275
330
225
100
AcDbEntity
  8
0
  6
Continuous
 62
     0
370
    -2
100
AcDbLine
 10
119.7292015374
 20
255.3548434659
 30
0.0
 11
119.7292015374
 21
181.6798434659
 31
0.0
  0
INSERT
  5
276
330
225
100
AcDbEntity
  8
0
 62
     0
370
    -2
100
AcDbBlockReference
  2
_CLOSED
 10
119.7292015374
 20
257.8548434659
 30
0.0
 41
2.5
 42
2.5
 43
2.5
 50
89.99999999999999
  0
INSERT
  5
277
330
225
100
AcDbEntity
  8
0
 62
     0
370
    -2
100
AcDbBlockReference
  2
_CLOSED
 10
119.7292015374
 20
179.1798434659
 30
0.0
 41
2.5
 42
2.5
 43
2.5
 50
270.0
  0
MTEXT
  5
278
330
225
100
AcDbEntity
  8
0
 62
     0
100
AcDbMText
 10
114.7292015374
 20
218.5173434659
 30
0.0
 40
3.0
 41
0.0
 71
     2
 72
     1
  1
\A1;52
 11
1.806273239936702E-16
 21
1.0
 31
0.0
 73
     1
 44
1.0
  0
POINT
  5
279
330
225
100
AcDbEntity
  8
Defpoints
 62
     0
100
AcDbPoint
 10
105.9640480629
 20
257.8548434659
 30
0.0
  0
POINT
  5
44D
330
225
100
AcDbEntity
  8
Defpoints
 62
     0
100
AcDbPoint
 10
105.4927753356
 20
179.1798434659
 30
0.0
  0
POINT
  5
44E
330
225
100
AcDbEntity
  8
Defpoints
 62
     0
100
AcDbPoint
 10
119.7292015374
 20
179.1798434659
 30
0.0
  0
ENDBLK
  5
27A
330
225
100
AcDbEntity
  8
0
  6
ByBlock
 62
     0
100
AcDbBlockEnd
  0
BLOCK
  5
22B
330
226
100
AcDbEntity
  8
0
100
AcDbBlockBegin
  2
LOGO2_BL0
 70
     0
 10
333.1473869546
 20
37.5239270671
 30
0.0
  3
LOGO2_BL0
  1
LOGO2_BL0
  0
LINE
  5
22C
330
226
100
AcDbEntity
  8
0
  6
Continuous
 62
     7
100
AcDbLine
 10
324.8903121828
 20
40.7194184059
 30
0.0
 11
323.5859712535
 21
40.7194184059
 31
0.0
  0
LINE
  5
22D
330
226
100
AcDbEntity
  8
0
  6
Continuous
 62
     7
100
AcDbLine
 10
323.5859712535
 20
40.7194184059
 30
0.0
 11
323.5859712535
 21
30.260352346
 31
0.0
  0
LINE
  5
22E
330
226
100
AcDbEntity
  8
0
  6
Continuous
 62
     7
100
AcDbLine
 10
323.5859712535
 20
30.260352346
 30
0.0
 11
328.0670261417
 21
30.260352346
 31
0.0
  0
LINE
  5
22F
330
226
100
AcDbEntity
  8
0
  6
Continuous
 62
     7
100
AcDbLine
 10
328.0670261417
 20
30.260352346
 30
0.0
 11
328.0670261417
 21
31.4532066711
 31
0.0
  0
LINE
  5
230
330
226
100
AcDbEntity
  8
0
  6
Continuous
 62
     7
100
AcDbLine
 10
328.0670261417
 20
31.4532066711
 30
0.0
 11
324.8903121828
 21
31.4532066711
 31
0.0
  0
LINE
  5
231
330
226
100
AcDbEntity
  8
0
  6
Continuous
 62
     7
100
AcDbLine
 10
324.8903121828
 20
31.4532066711
 30
0.0
 11
324.8903121828
 21
40.7194184059
 31
0.0
  0
LINE
  5
232
330
226
100
AcDbEntity
  8
0
  6
Continuous
 62
     7
100
AcDbLine
 10
339.8266383991
 20
40.7194184059
 30
0.0
 11
338.522820881
 21
40.7194184059
 31
0.0
  0
LINE
  5
233
330
226
100
AcDbEntity
  8
0
  6
Continuous
 62
     7
100
AcDbLine
 10
338.522820881
 20
40.7194184059
 30
0.0
 11
338.522820881
 21
30.260352346
 31
0.0
  0
LINE
  5
234
330
226
100
AcDbEntity
  8
0
  6
Continuous
 62
     7
100
AcDbLine
 10
338.522820881
 20
30.260352346
 30
0.0
 11
343.0040066221
 21
30.260352346
 31
0.0
  0
LINE
  5
235
330
226
100
AcDbEntity
  8
0
  6
Continuous
 62
     7
100
AcDbLine
 10
343.0040066221
 20
30.260352346
 30
0.0
 11
343.0040066221
 21
31.4532066711
 31
0.0
  0
LINE
  5
236
330
226
100
AcDbEntity
  8
0
  6
Continuous
 62
     7
100
AcDbLine
 10
343.0040066221
 20
31.4532066711
 30
0.0
 11
339.8266383991
 21
31.4532066711
 31
0.0
  0
LINE
  5
237
330
226
100
AcDbEntity
  8
0
  6
Continuous
 62
     7
100
AcDbLine
 10
339.8266383991
 20
31.4532066711
 30
0.0
 11
339.8266383991
 21
40.7194184059
 31
0.0
  0
LWPOLYLINE
  5
238
330
226
100
AcDbEntity
  8
0
  6
Continuous
 62
     7
100
AcDbPolyline
 90
        2
 70
     0
 43
0.2
 10
321.9403661644
 20
26.9168010391
 10
321.9403661644
 20
25.0597377898
  0
LWPOLYLINE
  5
239
330
226
100
AcDbEntity
  8
0
  6
Continuous
 62
     7
100
AcDbPolyline
 90
        2
 70
     0
 43
0.2
 10
321.9403661644
 20
25.0597377898
 10
322.7360821748
 20
25.0597377898
  0
LWPOLYLINE
  5
23A
330
226
100
AcDbEntity
  8
0
  6
Continuous
 62
     7
100
AcDbPolyline
 90
        2
 70
     0
 43
0.2
 10
322.7360821748
 20
25.0597377898
 10
322.7360821748
 20
25.2717193614
  0
LWPOLYLINE
  5
23B
330
226
100
AcDbEntity
  8
0
  6
Continuous
 62
     7
100
AcDbPolyline
 90
        2
 70
     0
 43
0.2
 10
322.7360821748
 20
25.2717193614
 10
322.1719756593
 20
25.2717193614
  0
LWPOLYLINE
  5
23C
330
226
100
AcDbEntity
  8
0
  6
Continuous
 62
     7
100
AcDbPolyline
 90
        2
 70
     0
 43
0.2
 10
322.1719756593
 20
25.2717193614
 10
322.1719756593
 20
26.9168010391
  0
LWPOLYLINE
  5
23D
330
226
100
AcDbEntity
  8
0
  6
Continuous
 62
     7
100
AcDbPolyline
 90
        2
 70
     0
 43
0.2
 10
322.1719756593
 20
26.9168010391
 10
321.9403661644
 20
26.9168010391
  0
SPLINE
  5
23E
330
226
100
AcDbEntity
  8
0
  6
Continuous
 62
     7
100
AcDbSpline
 70
     3
 71
     3
 72
    35
 73
    31
 74
     0
 42
0.000000001
 43
0.0000001
 40
0.0
 40
0.0
 40
0.0
 40
0.0
 40
1.0
 40
1.0
 40
1.0
 40
2.0
 40
2.0
 40
2.0
 40
3.0
 40
3.0
 40
3.0
 40
4.0
 40
4.0
 40
4.0
 40
5.0
 40
5.0
 40
5.0
 40
6.0
 40
6.0
 40
6.0
 40
7.0
 40
7.0
 40
7.0
 40
8.0
 40
8.0
 40
8.0
 40
9.0
 40
9.0
 40
9.0
 40
10.0
 40
10.0
 40
10.0
 40
10.0
 10
324.1343754303
 20
26.2122894457
 30
0.0
 10
324.1343754303
 20
26.2122894457
 30
0.0
 10
324.1343754303
 20
25.5501741665
 30
0.0
 10
324.1343754303
 20
25.5501741665
 30
0.0
 10
324.1343754303
 20
25.2350805712
 30
0.0
 10
324.2822391191
 20
25.0204819432
 30
0.0
 10
324.6223256034
 20
25.0204819432
 30
0.0
 10
324.9618886764
 20
25.0204819432
 30
0.0
 10
325.1100140709
 20
25.2350805712
 30
0.0
 10
325.1100140709
 20
25.5501741665
 30
0.0
 10
325.1100140709
 20
25.5501741665
 30
0.0
 10
325.1100140709
 20
26.2122894457
 30
0.0
 10
325.1100140709
 20
26.2122894457
 30
0.0
 10
325.1100140709
 20
26.2122894457
 30
0.0
 10
324.887956832
 20
26.2122894457
 30
0.0
 10
324.887956832
 20
26.2122894457
 30
0.0
 10
324.887956832
 20
26.2122894457
 30
0.0
 10
324.887956832
 20
25.5752979083
 30
0.0
 10
324.887956832
 20
25.5752979083
 30
0.0
 10
324.887956832
 20
25.3894869011
 30
0.0
 10
324.8412423746
 20
25.2267059906
 30
0.0
 10
324.6223256034
 20
25.2267059906
 30
0.0
 10
324.402885421
 20
25.2267059906
 30
0.0
 10
324.3561709636
 20
25.3894869011
 30
0.0
 10
324.3561709636
 20
25.5752979083
 30
0.0
 10
324.3561709636
 20
25.5752979083
 30
0.0
 10
324.3561709636
 20
26.2122894457
 30
0.0
 10
324.3561709636
 20
26.2122894457
 30
0.0
 10
324.3561709636
 20
26.2122894457
 30
0.0
 10
324.1343754303
 20
26.2122894457
 30
0.0
 10
324.1343754303
 20
26.2122894457
 30
0.0
  0
SPLINE
  5
23F
330
226
100
AcDbEntity
  8
0
  6
Continuous
 62
     7
100
AcDbSpline
 70
     3
 71
     3
 72
    35
 73
    31
 74
     0
 42
0.000000001
 43
0.0000001
 40
0.0
 40
0.0
 40
0.0
 40
0.0
 40
1.0
 40
1.0
 40
1.0
 40
2.0
 40
2.0
 40
2.0
 40
3.0
 40
3.0
 40
3.0
 40
4.0
 40
4.0
 40
4.0
 40
5.0
 40
5.0
 40
5.0
 40
6.0
 40
6.0
 40
6.0
 40
7.0
 40
7.0
 40
7.0
 40
8.0
 40
8.0
 40
8.0
 40
9.0
 40
9.0
 40
9.0
 40
10.0
 40
10.0
 40
10.0
 40
10.0
 10
327.5331466281
 20
26.1709399539
 30
0.0
 10
327.4446901205
 20
26.2222342601
 30
0.0
 10
327.3312407238
 20
26.2473580019
 30
0.0
 10
327.2276052888
 20
26.2473580019
 30
0.0
 10
326.8727324356
 20
26.2473580019
 30
0.0
 10
326.5972872454
 20
25.9835587129
 30
0.0
 10
326.5972872454
 20
25.6260688032
 30
0.0
 10
326.5972872454
 20
25.2811407645
 30
0.0
 10
326.8757420505
 20
25.0210053545
 30
0.0
 10
327.2153051235
 20
25.0210053545
 30
0.0
 10
327.3312407238
 20
25.0210053545
 30
0.0
 10
327.4319973967
 20
25.0429886286
 30
0.0
 10
327.5331466281
 20
25.0968999912
 30
0.0
 10
327.5331466281
 20
25.0968999912
 30
0.0
 10
327.5331466281
 20
25.3795420867
 30
0.0
 10
327.5331466281
 20
25.3795420867
 30
0.0
 10
327.4492699692
 20
25.2863748774
 30
0.0
 10
327.345765387
 20
25.2272294019
 30
0.0
 10
327.2176604743
 20
25.2272294019
 30
0.0
 10
326.9839573343
 20
25.2272294019
 30
0.0
 10
326.8186902202
 20
25.3994317156
 30
0.0
 10
326.8186902202
 20
25.6360136177
 30
0.0
 10
326.8186902202
 20
25.8479951893
 30
0.0
 10
326.9864435379
 20
26.040087132
 30
0.0
 10
327.2032666639
 20
26.040087132
 30
0.0
 10
327.3360822782
 20
26.040087132
 30
0.0
 10
327.4446901205
 20
25.9861757693
 30
0.0
 10
327.5331466281
 20
25.8851573907
 30
0.0
 10
327.5331466281
 20
25.8851573907
 30
0.0
 10
327.5331466281
 20
26.1709399539
 30
0.0
 10
327.5331466281
 20
26.1709399539
 30
0.0
  0
SPLINE
  5
240
330
226
100
AcDbEntity
  8
0
  6
Continuous
 62
     7
100
AcDbSpline
 70
     3
 71
     3
 72
    32
 73
    28
 74
     0
 42
0.000000001
 43
0.0000001
 40
0.0
 40
0.0
 40
0.0
 40
0.0
 40
1.0
 40
1.0
 40
1.0
 40
2.0
 40
2.0
 40
2.0
 40
3.0
 40
3.0
 40
3.0
 40
4.0
 40
4.0
 40
4.0
 40
5.0
 40
5.0
 40
5.0
 40
6.0
 40
6.0
 40
6.0
 40
7.0
 40
7.0
 40
7.0
 40
8.0
 40
8.0
 40
8.0
 40
9.0
 40
9.0
 40
9.0
 40
9.0
 10
330.0650178804
 20
25.5993748276
 30
0.0
 10
330.0650178804
 20
25.5993748276
 30
0.0
 10
330.0650178804
 20
25.6333965613
 30
0.0
 10
330.0650178804
 20
25.6333965613
 30
0.0
 10
330.0650178804
 20
25.9757075435
 30
0.0
 10
329.8921613025
 20
26.2473580019
 30
0.0
 10
329.5255116954
 20
26.2473580019
 30
0.0
 10
329.153889681
 20
26.2473580019
 30
0.0
 10
328.9641530891
 20
25.9809416564
 30
0.0
 10
328.9641530891
 20
25.6260688032
 30
0.0
 10
328.9641530891
 20
25.2863748774
 30
0.0
 10
329.1782283059
 20
25.0204819432
 30
0.0
 10
329.5303532498
 20
25.0204819432
 30
0.0
 10
329.754373281
 20
25.0204819432
 30
0.0
 10
329.9565408909
 20
25.1361558378
 30
0.0
 10
330.0650178804
 20
25.3355755385
 30
0.0
 10
330.0650178804
 20
25.3355755385
 30
0.0
 10
329.8773749337
 20
25.4423514412
 30
0.0
 10
329.8773749337
 20
25.4423514412
 30
0.0
 10
329.7938908332
 20
25.3036474499
 30
0.0
 10
329.7026864163
 20
25.2178079987
 30
0.0
 10
329.5331011591
 20
25.2178079987
 30
0.0
 10
329.3211195875
 20
25.2178079987
 30
0.0
 10
329.1881731204
 20
25.4025721833
 30
0.0
 10
329.1858177696
 20
25.5993748276
 30
0.0
 10
329.1858177696
 20
25.5993748276
 30
0.0
 10
330.0650178804
 20
25.5993748276
 30
0.0
 10
330.0650178804
 20
25.5993748276
 30
0.0
  0
SPLINE
  5
241
330
226
100
AcDbEntity
  8
0
  6
Continuous
 62
     7
100
AcDbSpline
 70
     3
 71
     3
 72
    14
 73
    10
 74
     0
 42
0.000000001
 43
0.0000001
 40
0.0
 40
0.0
 40
0.0
 40
0.0
 40
1.0
 40
1.0
 40
1.0
 40
2.0
 40
2.0
 40
2.0
 40
3.0
 40
3.0
 40
3.0
 40
3.0
 10
329.1978562292
 20
25.7668664397
 30
0.0
 10
329.2254661746
 20
25.9317409954
 30
0.0
 10
329.3533093817
 20
26.054742648
 30
0.0
 10
329.5255116954
 20
26.054742648
 30
0.0
 10
329.7026864163
 20
26.054742648
 30
0.0
 10
329.816135813
 20
25.9390687534
 30
0.0
 10
329.8433531999
 20
25.7668664397
 30
0.0
 10
329.8433531999
 20
25.7668664397
 30
0.0
 10
329.1978562292
 20
25.7668664397
 30
0.0
 10
329.1978562292
 20
25.7668664397
 30
0.0
  0
SPLINE
  5
242
330
226
100
AcDbEntity
  8
0
  6
Continuous
 62
     7
100
AcDbSpline
 70
     3
 71
     3
 72
    20
 73
    16
 74
     0
 42
0.000000001
 43
0.0000001
 40
0.0
 40
0.0
 40
0.0
 40
0.0
 40
1.0
 40
1.0
 40
1.0
 40
2.0
 40
2.0
 40
2.0
 40
3.0
 40
3.0
 40
3.0
 40
4.0
 40
4.0
 40
4.0
 40
5.0
 40
5.0
 40
5.0
 40
5.0
 10
332.0890493306
 20
25.9762309548
 30
0.0
 10
332.0890493306
 20
25.9762309548
 30
0.0
 10
332.5001888972
 20
25.4737561185
 30
0.0
 10
332.5001888972
 20
25.4737561185
 30
0.0
 10
332.3841224441
 20
25.3580822239
 30
0.0
 10
332.2463344226
 20
25.2277528132
 30
0.0
 10
332.0743938145
 20
25.2277528132
 30
0.0
 10
331.8969573879
 20
25.2277528132
 30
0.0
 10
331.7294657758
 20
25.3921039576
 30
0.0
 10
331.7294657758
 20
25.5690169729
 30
0.0
 10
331.7294657758
 20
25.7469768107
 30
0.0
 10
331.9392228494
 20
25.8731189311
 30
0.0
 10
332.0668043508
 20
25.9610520275
 30
0.0
 10
332.0668043508
 20
25.9610520275
 30
0.0
 10
332.0890493306
 20
25.9762309548
 30
0.0
 10
332.0890493306
 20
25.9762309548
 30
0.0
  0
SPLINE
  5
243
330
226
100
AcDbEntity
  8
0
  6
Continuous
 62
     7
100
AcDbSpline
 70
     3
 71
     3
 72
    23
 73
    19
 74
     0
 42
0.000000001
 43
0.0000001
 40
0.0
 40
0.0
 40
0.0
 40
0.0
 40
1.0
 40
1.0
 40
1.0
 40
2.0
 40
2.0
 40
2.0
 40
3.0
 40
3.0
 40
3.0
 40
4.0
 40
4.0
 40
4.0
 40
5.0
 40
5.0
 40
5.0
 40
6.0
 40
6.0
 40
6.0
 40
6.0
 10
332.1383808444
 20
26.2672476309
 30
0.0
 10
332.1383808444
 20
26.2672476309
 30
0.0
 10
332.0767491653
 20
26.3457593241
 30
0.0
 10
332.0767491653
 20
26.3457593241
 30
0.0
 10
332.0228378026
 20
26.4143262028
 30
0.0
 10
331.9660476779
 20
26.4834164928
 30
0.0
 10
331.9660476779
 20
26.5771071133
 30
0.0
 10
331.9660476779
 20
26.6959214757
 30
0.0
 10
332.0619627964
 20
26.7733863463
 30
0.0
 10
332.1729259894
 20
26.7733863463
 30
0.0
 10
332.2961893477
 20
26.7733863463
 30
0.0
 10
332.3894874098
 20
26.7022024111
 30
0.0
 10
332.3894874098
 20
26.5718730004
 30
0.0
 10
332.3894874098
 20
26.4368328882
 30
0.0
 10
332.2613824971
 20
26.3604148401
 30
0.0
 10
332.1678227294
 20
26.2866138485
 30
0.0
 10
332.1678227294
 20
26.2866138485
 30
0.0
 10
332.1383808444
 20
26.2672476309
 30
0.0
 10
332.1383808444
 20
26.2672476309
 30
0.0
  0
SPLINE
  5
244
330
226
100
AcDbEntity
  8
0
  6
Continuous
 62
     7
100
AcDbSpline
 70
     3
 71
     3
 72
    50
 73
    46
 74
     0
 42
0.000000001
 43
0.0000001
 40
0.0
 40
0.0
 40
0.0
 40
0.0
 40
1.0
 40
1.0
 40
1.0
 40
2.0
 40
2.0
 40
2.0
 40
3.0
 40
3.0
 40
3.0
 40
4.0
 40
4.0
 40
4.0
 40
5.0
 40
5.0
 40
5.0
 40
6.0
 40
6.0
 40
6.0
 40
7.0
 40
7.0
 40
7.0
 40
8.0
 40
8.0
 40
8.0
 40
9.0
 40
9.0
 40
9.0
 40
10.0
 40
10.0
 40
10.0
 40
11.0
 40
11.0
 40
11.0
 40
12.0
 40
12.0
 40
12.0
 40
13.0
 40
13.0
 40
13.0
 40
14.0
 40
14.0
 40
14.0
 40
15.0
 40
15.0
 40
15.0
 40
15.0
 10
332.8405370871
 20
25.0602612011
 30
0.0
 10
332.8405370871
 20
25.0602612011
 30
0.0
 10
333.1259270918
 20
25.0602612011
 30
0.0
 10
333.1259270918
 20
25.0602612011
 30
0.0
 10
333.1259270918
 20
25.0602612011
 30
0.0
 10
332.793560924
 20
25.471139062
 30
0.0
 10
332.793560924
 20
25.471139062
 30
0.0
 10
332.793560924
 20
25.471139062
 30
0.0
 10
333.0200671588
 20
25.7370319963
 30
0.0
 10
333.0200671588
 20
25.7370319963
 30
0.0
 10
333.0200671588
 20
25.7370319963
 30
0.0
 10
332.8718109116
 20
25.8898680923
 30
0.0
 10
332.8718109116
 20
25.8898680923
 30
0.0
 10
332.8718109116
 20
25.8898680923
 30
0.0
 10
332.6559037553
 20
25.6386306742
 30
0.0
 10
332.6559037553
 20
25.6386306742
 30
0.0
 10
332.6559037553
 20
25.6386306742
 30
0.0
 10
332.2688411079
 20
26.1065603655
 30
0.0
 10
332.2688411079
 20
26.1065603655
 30
0.0
 10
332.4242942604
 20
26.2206640263
 30
0.0
 10
332.6065722414
 20
26.3604148401
 30
0.0
 10
332.6065722414
 20
26.5697793553
 30
0.0
 10
332.6065722414
 20
26.8136890154
 30
0.0
 10
332.4045354843
 20
26.9571037083
 30
0.0
 10
332.1780292495
 20
26.9571037083
 30
0.0
 10
331.9338578837
 20
26.9571037083
 30
0.0
 10
331.7494862575
 20
26.8063612574
 30
0.0
 10
331.7494862575
 20
26.5498897263
 30
0.0
 10
331.7494862575
 20
26.3923429287
 30
0.0
 10
331.8481492853
 20
26.25468576
 30
0.0
 10
331.953485807
 20
26.1437225669
 30
0.0
 10
331.953485807
 20
26.1437225669
 30
0.0
 10
331.8379427652
 20
26.0599767609
 30
0.0
 10
331.8379427652
 20
26.0599767609
 30
0.0
 10
331.660244633
 20
25.9317409954
 30
0.0
 10
331.5129043554
 20
25.8040286411
 30
0.0
 10
331.5129043554
 20
25.5669233277
 30
0.0
 10
331.5129043554
 20
25.2465956195
 30
0.0
 10
331.7714695316
 20
25.0204819432
 30
0.0
 10
332.0818524253
 20
25.0204819432
 30
0.0
 10
332.3007691965
 20
25.0204819432
 30
0.0
 10
332.4979643992
 20
25.145577241
 30
0.0
 10
332.6382386243
 20
25.3114986192
 30
0.0
 10
332.6382386243
 20
25.3114986192
 30
0.0
 10
332.8405370871
 20
25.0602612011
 30
0.0
 10
332.8405370871
 20
25.0602612011
 30
0.0
  0
LWPOLYLINE
  5
245
330
226
100
AcDbEntity
  8
0
  6
Continuous
 62
     7
100
AcDbPolyline
 90
        2
 70
     0
 43
0.2
 10
334.7759811768
 20
26.9168010391
 10
334.5446333876
 20
26.9168010391
  0
LWPOLYLINE
  5
246
330
226
100
AcDbEntity
  8
0
  6
Continuous
 62
     7
100
AcDbPolyline
 90
        2
 70
     0
 43
0.2
 10
334.5446333876
 20
26.9168010391
 10
334.5446333876
 20
25.0597377898
  0
LWPOLYLINE
  5
247
330
226
100
AcDbEntity
  8
0
  6
Continuous
 62
     7
100
AcDbPolyline
 90
        2
 70
     0
 43
0.2
 10
334.5446333876
 20
25.0597377898
 10
335.3399568395
 20
25.0597377898
  0
LWPOLYLINE
  5
248
330
226
100
AcDbEntity
  8
0
  6
Continuous
 62
     7
100
AcDbPolyline
 90
        2
 70
     0
 43
0.2
 10
335.3399568395
 20
25.0597377898
 10
335.3399568395
 20
25.2717193614
  0
LWPOLYLINE
  5
249
330
226
100
AcDbEntity
  8
0
  6
Continuous
 62
     7
100
AcDbPolyline
 90
        2
 70
     0
 43
0.2
 10
335.3399568395
 20
25.2717193614
 10
334.7759811768
 20
25.2717193614
  0
LWPOLYLINE
  5
24A
330
226
100
AcDbEntity
  8
0
  6
Continuous
 62
     7
100
AcDbPolyline
 90
        2
 70
     0
 43
0.2
 10
334.7759811768
 20
25.2717193614
 10
334.7759811768
 20
26.9168010391
  0
LWPOLYLINE
  5
24B
330
226
100
AcDbEntity
  8
0
  6
Continuous
 62
     7
100
AcDbPolyline
 90
        2
 70
     0
 43
0.2
 10
337.019060251
 20
26.2122894457
 10
336.7979189819
 20
26.2122894457
  0
LWPOLYLINE
  5
24C
330
226
100
AcDbEntity
  8
0
  6
Continuous
 62
     7
100
AcDbPolyline
 90
        2
 70
     0
 43
0.2
 10
336.7979189819
 20
26.2122894457
 10
336.7979189819
 20
25.0602612011
  0
LWPOLYLINE
  5
24D
330
226
100
AcDbEntity
  8
0
  6
Continuous
 62
     7
100
AcDbPolyline
 90
        2
 70
     0
 43
0.2
 10
336.7979189819
 20
25.0602612011
 10
337.019060251
 20
25.0602612011
  0
LWPOLYLINE
  5
24E
330
226
100
AcDbEntity
  8
0
  6
Continuous
 62
     7
100
AcDbPolyline
 90
        2
 70
     0
 43
0.2
 10
337.019060251
 20
25.0602612011
 10
337.019060251
 20
26.2122894457
  0
SPLINE
  5
24F
330
226
100
AcDbEntity
  8
0
  6
Continuous
 62
     7
100
AcDbSpline
 70
     3
 71
     3
 72
    17
 73
    13
 74
     0
 42
0.000000001
 43
0.0000001
 40
0.0
 40
0.0
 40
0.0
 40
0.0
 40
1.0
 40
1.0
 40
1.0
 40
2.0
 40
2.0
 40
2.0
 40
3.0
 40
3.0
 40
3.0
 40
4.0
 40
4.0
 40
4.0
 40
4.0
 10
336.9086204693
 20
26.894817765
 30
0.0
 10
336.8246129576
 20
26.894817765
 30
0.0
 10
336.7560460788
 20
26.825727475
 30
0.0
 10
336.7560460788
 20
26.7398880238
 30
0.0
 10
336.7560460788
 20
26.6556188065
 30
0.0
 10
336.8246129576
 20
26.5896689842
 30
0.0
 10
336.9086204693
 20
26.5896689842
 30
0.0
 10
336.9923662753
 20
26.5896689842
 30
0.0
 10
337.0611948597
 20
26.6556188065
 30
0.0
 10
337.0611948597
 20
26.7398880238
 30
0.0
 10
337.0611948597
 20
26.825727475
 30
0.0
 10
336.9923662753
 20
26.894817765
 30
0.0
 10
336.9086204693
 20
26.894817765
 30
0.0
  0
SPLINE
  5
250
330
226
100
AcDbEntity
  8
0
  6
Continuous
 62
     7
100
AcDbSpline
 70
     3
 71
     3
 72
    17
 73
    13
 74
     0
 42
0.000000001
 43
0.0000001
 40
0.0
 40
0.0
 40
0.0
 40
0.0
 40
1.0
 40
1.0
 40
1.0
 40
2.0
 40
2.0
 40
2.0
 40
3.0
 40
3.0
 40
3.0
 40
4.0
 40
4.0
 40
4.0
 40
4.0
 10
339.1493441926
 20
25.2178079987
 30
0.0
 10
338.915379347
 20
25.2178079987
 30
0.0
 10
338.7850499363
 20
25.4198447558
 30
0.0
 10
338.7850499363
 20
25.6360136177
 30
0.0
 10
338.7850499363
 20
25.8506122457
 30
0.0
 10
338.9208751655
 20
26.0495085351
 30
0.0
 10
339.1493441926
 20
26.0495085351
 30
0.0
 10
339.3888048568
 20
26.0495085351
 30
0.0
 10
339.5243683804
 20
25.8605570602
 30
0.0
 10
339.5243683804
 20
25.6360136177
 30
0.0
 10
339.5243683804
 20
25.4098999414
 30
0.0
 10
339.3911602076
 20
25.2178079987
 30
0.0
 10
339.1493441926
 20
25.2178079987
 30
0.0
  0
SPLINE
  5
251
330
226
100
AcDbEntity
  8
0
  6
Continuous
 62
     7
100
AcDbSpline
 70
     3
 71
     3
 72
    50
 73
    46
 74
     0
 42
0.000000001
 43
0.0000001
 40
0.0
 40
0.0
 40
0.0
 40
0.0
 40
1.0
 40
1.0
 40
1.0
 40
2.0
 40
2.0
 40
2.0
 40
3.0
 40
3.0
 40
3.0
 40
4.0
 40
4.0
 40
4.0
 40
5.0
 40
5.0
 40
5.0
 40
6.0
 40
6.0
 40
6.0
 40
7.0
 40
7.0
 40
7.0
 40
8.0
 40
8.0
 40
8.0
 40
9.0
 40
9.0
 40
9.0
 40
10.0
 40
10.0
 40
10.0
 40
11.0
 40
11.0
 40
11.0
 40
12.0
 40
12.0
 40
12.0
 40
13.0
 40
13.0
 40
13.0
 40
14.0
 40
14.0
 40
14.0
 40
15.0
 40
15.0
 40
15.0
 40
15.0
 10
339.7334711899
 20
26.2128128569
 30
0.0
 10
339.7334711899
 20
26.2128128569
 30
0.0
 10
339.5118065095
 20
26.2128128569
 30
0.0
 10
339.5118065095
 20
26.2128128569
 30
0.0
 10
339.5118065095
 20
26.2128128569
 30
0.0
 10
339.5118065095
 20
26.0154868014
 30
0.0
 10
339.5118065095
 20
26.0154868014
 30
0.0
 10
339.5118065095
 20
26.0154868014
 30
0.0
 10
339.5070958079
 20
26.0154868014
 30
0.0
 10
339.5070958079
 20
26.0154868014
 30
0.0
 10
339.4157605382
 20
26.158378083
 30
0.0
 10
339.2778416638
 20
26.2468345907
 30
0.0
 10
339.1051159388
 20
26.2468345907
 30
0.0
 10
338.772749771
 20
26.2468345907
 30
0.0
 10
338.5636469615
 20
25.9589583823
 30
0.0
 10
338.5636469615
 20
25.6433413757
 30
0.0
 10
338.5636469615
 20
25.3135922644
 30
0.0
 10
338.7607113114
 20
25.0204819432
 30
0.0
 10
339.1155841646
 20
25.0204819432
 30
0.0
 10
339.2778416638
 20
25.0204819432
 30
0.0
 10
339.4178541833
 20
25.1089384508
 30
0.0
 10
339.5070958079
 20
25.2397912728
 30
0.0
 10
339.5070958079
 20
25.2397912728
 30
0.0
 10
339.5118065095
 20
25.2397912728
 30
0.0
 10
339.5118065095
 20
25.2397912728
 30
0.0
 10
339.5118065095
 20
25.2397912728
 30
0.0
 10
339.5118065095
 20
25.0204819432
 30
0.0
 10
339.5118065095
 20
25.0204819432
 30
0.0
 10
339.5118065095
 20
24.7839000411
 30
0.0
 10
339.4552780904
 20
24.5970422113
 30
0.0
 10
339.1820573981
 20
24.5970422113
 30
0.0
 10
338.9797589354
 20
24.5970422113
 30
0.0
 10
338.8371293594
 20
24.7153331624
 30
0.0
 10
338.8371293594
 20
24.9215572098
 30
0.0
 10
338.8371293594
 20
24.9215572098
 30
0.0
 10
338.615464679
 20
24.9215572098
 30
0.0
 10
338.615464679
 20
24.9215572098
 30
0.0
 10
338.6204370862
 20
24.5970422113
 30
0.0
 10
338.8515231698
 20
24.4002395671
 30
0.0
 10
339.171850878
 20
24.4002395671
 30
0.0
 10
339.6198909404
 20
24.4002395671
 30
0.0
 10
339.7334711899
 20
24.6854987189
 30
0.0
 10
339.7334711899
 20
25.0822444751
 30
0.0
 10
339.7334711899
 20
25.0822444751
 30
0.0
 10
339.7334711899
 20
26.2128128569
 30
0.0
 10
339.7334711899
 20
26.2128128569
 30
0.0
  0
SPLINE
  5
252
330
226
100
AcDbEntity
  8
0
  6
Continuous
 62
     7
100
AcDbSpline
 70
     3
 71
     3
 72
    44
 73
    40
 74
     0
 42
0.000000001
 43
0.0000001
 40
0.0
 40
0.0
 40
0.0
 40
0.0
 40
1.0
 40
1.0
 40
1.0
 40
2.0
 40
2.0
 40
2.0
 40
3.0
 40
3.0
 40
3.0
 40
4.0
 40
4.0
 40
4.0
 40
5.0
 40
5.0
 40
5.0
 40
6.0
 40
6.0
 40
6.0
 40
7.0
 40
7.0
 40
7.0
 40
8.0
 40
8.0
 40
8.0
 40
9.0
 40
9.0
 40
9.0
 40
10.0
 40
10.0
 40
10.0
 40
11.0
 40
11.0
 40
11.0
 40
12.0
 40
12.0
 40
12.0
 40
13.0
 40
13.0
 40
13.0
 40
13.0
 10
341.3023965253
 20
27.1978729007
 30
0.0
 10
341.3023965253
 20
27.1978729007
 30
0.0
 10
341.3023965253
 20
25.0597377898
 30
0.0
 10
341.3023965253
 20
25.0597377898
 30
0.0
 10
341.3023965253
 20
25.0597377898
 30
0.0
 10
341.5237995001
 20
25.0597377898
 30
0.0
 10
341.5237995001
 20
25.0597377898
 30
0.0
 10
341.5237995001
 20
25.0597377898
 30
0.0
 10
341.5237995001
 20
25.5894300131
 30
0.0
 10
341.5237995001
 20
25.5894300131
 30
0.0
 10
341.5237995001
 20
25.7993179395
 30
0.0
 10
341.5237995001
 20
26.0500319464
 30
0.0
 10
341.8090586519
 20
26.0500319464
 30
0.0
 10
342.0359574452
 20
26.0500319464
 30
0.0
 10
342.0629131266
 20
25.9170854793
 30
0.0
 10
342.0629131266
 20
25.7208062464
 30
0.0
 10
342.0629131266
 20
25.7208062464
 30
0.0
 10
342.0629131266
 20
25.0597377898
 30
0.0
 10
342.0629131266
 20
25.0597377898
 30
0.0
 10
342.0629131266
 20
25.0597377898
 30
0.0
 10
342.2848395126
 20
25.0597377898
 30
0.0
 10
342.2848395126
 20
25.0597377898
 30
0.0
 10
342.2848395126
 20
25.0597377898
 30
0.0
 10
342.2848395126
 20
25.7469768107
 30
0.0
 10
342.2848395126
 20
25.7469768107
 30
0.0
 10
342.2848395126
 20
26.027525261
 30
0.0
 10
342.2008320009
 20
26.2473580019
 30
0.0
 10
341.8757935911
 20
26.2473580019
 30
0.0
 10
341.7360427773
 20
26.2473580019
 30
0.0
 10
341.5978621973
 20
26.1808847684
 30
0.0
 10
341.5285102016
 20
26.0578831157
 30
0.0
 10
341.5285102016
 20
26.0578831157
 30
0.0
 10
341.5237995001
 20
26.0578831157
 30
0.0
 10
341.5237995001
 20
26.0578831157
 30
0.0
 10
341.5237995001
 20
26.0578831157
 30
0.0
 10
341.5237995001
 20
27.1978729007
 30
0.0
 10
341.5237995001
 20
27.1978729007
 30
0.0
 10
341.5237995001
 20
27.1978729007
 30
0.0
 10
341.3023965253
 20
27.1978729007
 30
0.0
 10
341.3023965253
 20
27.1978729007
 30
0.0
  0
LWPOLYLINE
  5
253
330
226
100
AcDbEntity
  8
0
  6
Continuous
 62
     7
100
AcDbPolyline
 90
        2
 70
     0
 43
0.2
 10
344.1246301895
 20
26.005541987
 10
344.341060757
 20
26.005541987
  0
LWPOLYLINE
  5
254
330
226
100
AcDbEntity
  8
0
  6
Continuous
 62
     7
100
AcDbPolyline
 90
        2
 70
     0
 43
0.2
 10
344.341060757
 20
26.005541987
 10
344.341060757
 20
26.2122894457
  0
LWPOLYLINE
  5
255
330
226
100
AcDbEntity
  8
0
  6
Continuous
 62
     7
100
AcDbPolyline
 90
        2
 70
     0
 43
0.2
 10
344.341060757
 20
26.2122894457
 10
344.1246301895
 20
26.2122894457
  0
LWPOLYLINE
  5
256
330
226
100
AcDbEntity
  8
0
  6
Continuous
 62
     7
100
AcDbPolyline
 90
        2
 70
     0
 43
0.2
 10
344.1246301895
 20
26.2122894457
 10
344.1246301895
 20
26.65300175
  0
LWPOLYLINE
  5
257
330
226
100
AcDbEntity
  8
0
  6
Continuous
 62
     7
100
AcDbPolyline
 90
        2
 70
     0
 43
0.2
 10
344.1246301895
 20
26.65300175
 10
343.9029655091
 20
26.65300175
  0
LWPOLYLINE
  5
258
330
226
100
AcDbEntity
  8
0
  6
Continuous
 62
     7
100
AcDbPolyline
 90
        2
 70
     0
 43
0.2
 10
343.9029655091
 20
26.65300175
 10
343.9029655091
 20
26.2122894457
  0
LWPOLYLINE
  5
259
330
226
100
AcDbEntity
  8
0
  6
Continuous
 62
     7
100
AcDbPolyline
 90
        2
 70
     0
 43
0.2
 10
343.9029655091
 20
26.2122894457
 10
343.7823192072
 20
26.2122894457
  0
LWPOLYLINE
  5
25A
330
226
100
AcDbEntity
  8
0
  6
Continuous
 62
     7
100
AcDbPolyline
 90
        2
 70
     0
 43
0.2
 10
343.7823192072
 20
26.2122894457
 10
343.7823192072
 20
26.005541987
  0
LWPOLYLINE
  5
25B
330
226
100
AcDbEntity
  8
0
  6
Continuous
 62
     7
100
AcDbPolyline
 90
        2
 70
     0
 43
0.2
 10
343.7823192072
 20
26.005541987
 10
343.9029655091
 20
26.005541987
  0
LWPOLYLINE
  5
25C
330
226
100
AcDbEntity
  8
0
  6
Continuous
 62
     7
100
AcDbPolyline
 90
        2
 70
     0
 43
0.2
 10
343.9029655091
 20
26.005541987
 10
343.9029655091
 20
25.0597377898
  0
LWPOLYLINE
  5
25D
330
226
100
AcDbEntity
  8
0
  6
Continuous
 62
     7
100
AcDbPolyline
 90
        2
 70
     0
 43
0.2
 10
343.9029655091
 20
25.0597377898
 10
344.1246301895
 20
25.0597377898
  0
LWPOLYLINE
  5
25E
330
226
100
AcDbEntity
  8
0
  6
Continuous
 62
     7
100
AcDbPolyline
 90
        2
 70
     0
 43
0.2
 10
344.1246301895
 20
25.0597377898
 10
344.1246301895
 20
26.005541987
  0
SPLINE
  5
25F
330
226
100
AcDbEntity
  8
0
  6
Continuous
 62
     7
100
AcDbSpline
 70
     3
 71
     3
 72
    20
 73
    16
 74
     0
 42
0.000000001
 43
0.0000001
 40
0.0
 40
0.0
 40
0.0
 40
0.0
 40
1.0
 40
1.0
 40
1.0
 40
2.0
 40
2.0
 40
2.0
 40
3.0
 40
3.0
 40
3.0
 40
4.0
 40
4.0
 40
4.0
 40
5.0
 40
5.0
 40
5.0
 40
5.0
 10
331.9066404967
 20
35.4206642332
 30
0.0
 10
331.9066404967
 20
35.4206642332
 30
0.0
 10
334.2229971512
 20
32.5911028109
 30
0.0
 10
334.2229971512
 20
32.5911028109
 30
0.0
 10
333.5713500978
 20
31.9389323462
 30
0.0
 10
332.7944768938
 20
31.2030160755
 30
0.0
 10
331.8232872491
 20
31.2030160755
 30
0.0
 10
330.8247493647
 20
31.2030160755
 30
0.0
 10
329.8814313711
 20
32.1325945228
 30
0.0
 10
329.8814313711
 20
33.1317866713
 30
0.0
 10
329.8814313711
 20
34.1309788198
 30
0.0
 10
331.0602844442
 20
34.8375840585
 30
0.0
 10
331.7818069046
 20
35.3374418384
 30
0.0
 10
331.7818069046
 20
35.3374418384
 30
0.0
 10
331.9066404967
 20
35.4206642332
 30
0.0
 10
331.9066404967
 20
35.4206642332
 30
0.0
  0
SPLINE
  5
260
330
226
100
AcDbEntity
  8
0
  6
Continuous
 62
     7
100
AcDbSpline
 70
     3
 71
     3
 72
    23
 73
    19
 74
     0
 42
0.000000001
 43
0.0000001
 40
0.0
 40
0.0
 40
0.0
 40
0.0
 40
1.0
 40
1.0
 40
1.0
 40
2.0
 40
2.0
 40
2.0
 40
3.0
 40
3.0
 40
3.0
 40
4.0
 40
4.0
 40
4.0
 40
5.0
 40
5.0
 40
5.0
 40
6.0
 40
6.0
 40
6.0
 40
6.0
 10
332.1840484793
 20
37.0584181529
 30
0.0
 10
332.1840484793
 20
37.0584181529
 30
0.0
 10
331.8375502067
 20
37.5017475137
 30
0.0
 10
331.8375502067
 20
37.5017475137
 30
0.0
 10
331.5317471618
 20
37.8898569837
 30
0.0
 10
331.2128588347
 20
38.2783590121
 30
0.0
 10
331.2128588347
 20
38.8053033262
 30
0.0
 10
331.2128588347
 20
39.4714750428
 30
0.0
 10
331.7541969591
 20
39.9151969621
 30
0.0
 10
332.3781032143
 20
39.9151969621
 30
0.0
 10
333.0718848763
 20
39.9151969621
 30
0.0
 10
333.5990908961
 20
39.5129553874
 30
0.0
 10
333.5990908961
 20
38.7779550864
 30
0.0
 10
333.5990908961
 20
38.0146905758
 30
0.0
 10
332.8778301414
 20
37.58457735
 30
0.0
 10
332.3507549745
 20
37.1688579346
 30
0.0
 10
332.3507549745
 20
37.1688579346
 30
0.0
 10
332.1840484793
 20
37.0584181529
 30
0.0
 10
332.1840484793
 20
37.0584181529
 30
0.0
  0
SPLINE
  5
261
330
226
100
AcDbEntity
  8
0
  6
Continuous
 62
     7
100
AcDbSpline
 70
     3
 71
     3
 72
    50
 73
    46
 74
     0
 42
0.000000001
 43
0.0000001
 40
0.0
 40
0.0
 40
0.0
 40
0.0
 40
1.0
 40
1.0
 40
1.0
 40
2.0
 40
2.0
 40
2.0
 40
3.0
 40
3.0
 40
3.0
 40
4.0
 40
4.0
 40
4.0
 40
5.0
 40
5.0
 40
5.0
 40
6.0
 40
6.0
 40
6.0
 40
7.0
 40
7.0
 40
7.0
 40
8.0
 40
8.0
 40
8.0
 40
9.0
 40
9.0
 40
9.0
 40
10.0
 40
10.0
 40
10.0
 40
11.0
 40
11.0
 40
11.0
 40
12.0
 40
12.0
 40
12.0
 40
13.0
 40
13.0
 40
13.0
 40
14.0
 40
14.0
 40
14.0
 40
15.0
 40
15.0
 40
15.0
 40
15.0
 10
336.1376356422
 20
30.2598289348
 30
0.0
 10
336.1376356422
 20
30.2598289348
 30
0.0
 10
337.7468636468
 20
30.2598289348
 30
0.0
 10
337.7468636468
 20
30.2598289348
 30
0.0
 10
337.7468636468
 20
30.2598289348
 30
0.0
 10
335.8738363531
 20
32.5769707062
 30
0.0
 10
335.8738363531
 20
32.5769707062
 30
0.0
 10
335.8738363531
 20
32.5769707062
 30
0.0
 10
337.1501747786
 20
34.0744504008
 30
0.0
 10
337.1501747786
 20
34.0744504008
 30
0.0
 10
337.1501747786
 20
34.0744504008
 30
0.0
 10
336.3179508309
 20
34.9354619693
 30
0.0
 10
336.3179508309
 20
34.9354619693
 30
0.0
 10
336.3179508309
 20
34.9354619693
 30
0.0
 10
335.0973557076
 20
33.5201578469
 30
0.0
 10
335.0973557076
 20
33.5201578469
 30
0.0
 10
335.0973557076
 20
33.5201578469
 30
0.0
 10
332.9194413388
 20
36.1555336813
 30
0.0
 10
332.9194413388
 20
36.1555336813
 30
0.0
 10
333.7930147782
 20
36.7935720412
 30
0.0
 10
334.8196860194
 20
37.58457735
 30
0.0
 10
334.8196860194
 20
38.7634304231
 30
0.0
 10
334.8196860194
 20
40.1371233482
 30
0.0
 10
333.6817898795
 20
40.9416064976
 30
0.0
 10
332.4064982766
 20
40.9416064976
 30
0.0
 10
331.0330670573
 20
40.9416064976
 30
0.0
 10
329.9921328585
 20
40.0953812979
 30
0.0
 10
329.9921328585
 20
38.6527289358
 30
0.0
 10
329.9921328585
 20
37.7651542444
 30
0.0
 10
330.547472235
 20
36.9882810403
 30
0.0
 10
331.1436376918
 20
36.3638513739
 30
0.0
 10
331.1436376918
 20
36.3638513739
 30
0.0
 10
330.4917289328
 20
35.8922578035
 30
0.0
 10
330.4917289328
 20
35.8922578035
 30
0.0
 10
329.4931910484
 20
35.1709970488
 30
0.0
 10
328.6603128365
 20
34.4497362942
 30
0.0
 10
328.6603128365
 20
33.1181779778
 30
0.0
 10
328.6603128365
 20
31.3145026798
 30
0.0
 10
330.1173590091
 20
30.0379025487
 30
0.0
 10
331.8648984465
 20
30.0379025487
 30
0.0
 10
333.0997565274
 20
30.0379025487
 30
0.0
 10
334.2091267521
 20
30.7460780212
 30
0.0
 10
335.000001208
 20
31.6746096459
 30
0.0
 10
335.000001208
 20
31.6746096459
 30
0.0
 10
336.1376356422
 20
30.2598289348
 30
0.0
 10
336.1376356422
 20
30.2598289348
 30
0.0
  0
LINE
  5
262
330
226
100
AcDbEntity
  8
0
  6
Continuous
 62
     7
100
AcDbLine
 10
321.9404970172
 20
28.2337038394
 30
0.0
 11
344.3544077449
 21
28.2337038394
 31
0.0
  0
LINE
  5
263
330
226
100
AcDbEntity
  8
0
  6
Continuous
 62
     7
100
AcDbLine
 10
344.3544077449
 20
28.2337038394
 30
0.0
 11
344.3544077449
 21
50.6476145671
 31
0.0
  0
LINE
  5
264
330
226
100
AcDbEntity
  8
0
  6
Continuous
 62
     7
100
AcDbLine
 10
344.3544077449
 20
50.6476145671
 30
0.0
 11
321.9404970172
 21
50.6476145671
 31
0.0
  0
LINE
  5
265
330
226
100
AcDbEntity
  8
0
  6
Continuous
 62
     7
100
AcDbLine
 10
321.9404970172
 20
50.6476145671
 30
0.0
 11
321.9404970172
 21
28.2337038394
 31
0.0
  0
ENDBLK
  5
266
330
226
100
AcDbEntity
  8
0
  6
ByBlock
 62
     0
100
AcDbBlockEnd
  0
BLOCK
  5
27B
330
227
100
AcDbEntity
  8
0
100
AcDbBlockBegin
  2
*T4
 70
     1
 10
0.0
 20
0.0
 30
0.0
  3
*T4
  1
*T4
  0
MTEXT
  5
27C
330
227
100
AcDbEntity
  8
0
  6
Continuous
 62
     0
100
AcDbMText
 10
30.06
 20
-3.0
 30
0.0
 40
3.0
 41
39.88
 71
     4
 72
     5
  1
215_C_006
 73
     1
 44
1.0
  0
MTEXT
  5
27D
330
227
100
AcDbEntity
  8
0
  6
Continuous
 62
     0
100
AcDbMText
 10
70.06
 20
-0.06
 30
0.0
 40
3.5
 41
19.88
 71
     1
 72
     5
  1
Rev:00
 73
     1
 44
1.0
  0
MTEXT
  5
27E
330
227
100
AcDbEntity
  8
0
  6
Continuous
 62
     0
100
AcDbMText
 10
30.06
 20
-6.06
 30
0.0
 40
3.5
 41
39.88
 71
     1
 72
     5
  1
Scale:1:1
 73
     1
 44
1.0
  0
MTEXT
  5
27F
330
227
100
AcDbEntity
  8
0
  6
Continuous
 62
     0
100
AcDbMText
 10
70.06
 20
-9.0
 30
0.0
 40
3.5
 41
19.88
 71
     4
 72
     5
  1
A3
 73
     1
 44
1.0
  0
MTEXT
  5
280
330
227
100
AcDbEntity
  8
0
  6
Continuous
 62
     0
100
AcDbMText
 10
30.06
 20
-17.0
 30
0.0
 40
3.5
 41
59.88
 71
     4
 72
     5
  1
BRIGHT 1.2
 73
     1
 44
1.0
  0
MTEXT
  5
281
330
227
100
AcDbEntity
  8
0
  6
Continuous
 62
     0
100
AcDbMText
 10
30.06
 20
-24.5
 30
0.0
 40
2.5
 41
59.88
 71
     4
 72
     5
  1
DATE:17/02/2014
 73
     1
 44
1.0
  0
MTEXT
  5
282
330
227
100
AcDbEntity
  8
0
  6
Continuous
 62
     0
100
AcDbMText
 10
0.06
 20
-27.06
 30
0.0
 40
1.85
 41
89.88
 71
     1
 72
     5
  1
Any integral or partial reproductions are prohibited \Pwithout prior authorisation of L & L Luce & Light s.r.l., \Pin accordance with the law in force. \PAll rights reserved.
 73
     1
 44
1.0
  0
LINE
  5
283
330
227
100
AcDbEntity
  8
0
  6
Continuous
 62
     0
370
    -2
100
AcDbLine
 10
0.0
 20
0.0
 30
0.0
 11
10.0
 21
0.0
 31
0.0
  0
LINE
  5
284
330
227
100
AcDbEntity
  8
0
  6
Continuous
 62
     0
370
    -2
100
AcDbLine
 10
10.0
 20
0.0
 30
0.0
 11
20.0
 21
0.0
 31
0.0
  0
LINE
  5
285
330
227
100
AcDbEntity
  8
0
  6
Continuous
 62
     0
370
    -2
100
AcDbLine
 10
20.0
 20
0.0
 30
0.0
 11
30.0
 21
0.0
 31
0.0
  0
LINE
  5
286
330
227
100
AcDbEntity
  8
0
  6
Continuous
 62
     0
370
    -2
100
AcDbLine
 10
0.0
 20
0.0
 30
0.0
 11
0.0
 21
-6.0
 31
0.0
  0
LINE
  5
287
330
227
100
AcDbEntity
  8
0
  6
Continuous
 62
     0
370
    -2
100
AcDbLine
 10
0.0
 20
-6.0
 30
0.0
 11
0.0
 21
-12.0
 31
0.0
  0
LINE
  5
288
330
227
100
AcDbEntity
  8
0
  6
Continuous
 62
     0
370
    -2
100
AcDbLine
 10
0.0
 20
-12.0
 30
0.0
 11
0.0
 21
-22.0
 31
0.0
  0
LINE
  5
289
330
227
100
AcDbEntity
  8
0
  6
Continuous
 62
     0
370
    -2
100
AcDbLine
 10
0.0
 20
-22.0
 30
0.0
 11
0.0
 21
-27.0
 31
0.0
  0
LINE
  5
28A
330
227
100
AcDbEntity
  8
0
  6
Continuous
 62
     0
370
    -2
100
AcDbLine
 10
30.0
 20
0.0
 30
0.0
 11
70.0
 21
0.0
 31
0.0
  0
LINE
  5
28B
330
227
100
AcDbEntity
  8
0
  6
Continuous
 62
     0
370
    -2
100
AcDbLine
 10
30.0
 20
0.0
 30
0.0
 11
30.0
 21
-6.0
 31
0.0
  0
LINE
  5
28C
330
227
100
AcDbEntity
  8
0
  6
Continuous
 62
     0
370
    -2
100
AcDbLine
 10
70.0
 20
0.0
 30
0.0
 11
90.0
 21
0.0
 31
0.0
  0
LINE
  5
453
330
227
100
AcDbEntity
  8
0
  6
Continuous
 62
     0
370
    -2
100
AcDbLine
 10
70.0
 20
0.0
 30
0.0
 11
70.0
 21
-6.0
 31
0.0
  0
LINE
  5
454
330
227
100
AcDbEntity
  8
0
  6
Continuous
 62
     0
370
    -2
100
AcDbLine
 10
90.0
 20
0.0
 30
0.0
 11
90.0
 21
-6.0
 31
0.0
  0
LINE
  5
455
330
227
100
AcDbEntity
  8
0
  6
Continuous
 62
     0
370
    -2
100
AcDbLine
 10
30.0
 20
-6.0
 30
0.0
 11
70.0
 21
-6.0
 31
0.0
  0
LINE
  5
456
330
227
100
AcDbEntity
  8
0
  6
Continuous
 62
     0
370
    -2
100
AcDbLine
 10
30.0
 20
-6.0
 30
0.0
 11
30.0
 21
-12.0
 31
0.0
  0
LINE
  5
457
330
227
100
AcDbEntity
  8
0
  6
Continuous
 62
     0
370
    -2
100
AcDbLine
 10
70.0
 20
-6.0
 30
0.0
 11
90.0
 21
-6.0
 31
0.0
  0
LINE
  5
458
330
227
100
AcDbEntity
  8
0
  6
Continuous
 62
     0
370
    -2
100
AcDbLine
 10
70.0
 20
-6.0
 30
0.0
 11
70.0
 21
-12.0
 31
0.0
  0
LINE
  5
459
330
227
100
AcDbEntity
  8
0
  6
Continuous
 62
     0
370
    -2
100
AcDbLine
 10
90.0
 20
-6.0
 30
0.0
 11
90.0
 21
-12.0
 31
0.0
  0
LINE
  5
45A
330
227
100
AcDbEntity
  8
0
  6
Continuous
 62
     0
370
    -2
100
AcDbLine
 10
30.0
 20
-12.0
 30
0.0
 11
70.0
 21
-12.0
 31
0.0
  0
LINE
  5
45B
330
227
100
AcDbEntity
  8
0
  6
Continuous
 62
     0
370
    -2
100
AcDbLine
 10
70.0
 20
-12.0
 30
0.0
 11
90.0
 21
-12.0
 31
0.0
  0
LINE
  5
45C
330
227
100
AcDbEntity
  8
0
  6
Continuous
 62
     0
370
    -2
100
AcDbLine
 10
30.0
 20
-12.0
 30
0.0
 11
30.0
 21
-22.0
 31
0.0
  0
LINE
  5
45D
330
227
100
AcDbEntity
  8
0
  6
Continuous
 62
     0
370
    -2
100
AcDbLine
 10
90.0
 20
-12.0
 30
0.0
 11
90.0
 21
-22.0
 31
0.0
  0
LINE
  5
45E
330
227
100
AcDbEntity
  8
0
  6
Continuous
 62
     0
370
    -2
100
AcDbLine
 10
30.0
 20
-22.0
 30
0.0
 11
70.0
 21
-22.0
 31
0.0
  0
LINE
  5
45F
330
227
100
AcDbEntity
  8
0
  6
Continuous
 62
     0
370
    -2
100
AcDbLine
 10
70.0
 20
-22.0
 30
0.0
 11
90.0
 21
-22.0
 31
0.0
  0
LINE
  5
460
330
227
100
AcDbEntity
  8
0
  6
Continuous
 62
     0
370
    -2
100
AcDbLine
 10
30.0
 20
-22.0
 30
0.0
 11
30.0
 21
-27.0
 31
0.0
  0
LINE
  5
461
330
227
100
AcDbEntity
  8
0
  6
Continuous
 62
     0
370
    -2
100
AcDbLine
 10
90.0
 20
-22.0
 30
0.0
 11
90.0
 21
-27.0
 31
0.0
  0
LINE
  5
462
330
227
100
AcDbEntity
  8
0
  6
Continuous
 62
     0
370
    -2
100
AcDbLine
 10
0.0
 20
-27.0
 30
0.0
 11
10.0
 21
-27.0
 31
0.0
  0
LINE
  5
463
330
227
100
AcDbEntity
  8
0
  6
Continuous
 62
     0
370
    -2
100
AcDbLine
 10
10.0
 20
-27.0
 30
0.0
 11
20.0
 21
-27.0
 31
0.0
  0
LINE
  5
464
330
227
100
AcDbEntity
  8
0
  6
Continuous
 62
     0
370
    -2
100
AcDbLine
 10
20.0
 20
-27.0
 30
0.0
 11
30.0
 21
-27.0
 31
0.0
  0
LINE
  5
465
330
227
100
AcDbEntity
  8
0
  6
Continuous
 62
     0
370
    -2
100
AcDbLine
 10
30.0
 20
-27.0
 30
0.0
 11
70.0
 21
-27.0
 31
0.0
  0
LINE
  5
466
330
227
100
AcDbEntity
  8
0
  6
Continuous
 62
     0
370
    -2
100
AcDbLine
 10
70.0
 20
-27.0
 30
0.0
 11
90.0
 21
-27.0
 31
0.0
  0
LINE
  5
467
330
227
100
AcDbEntity
  8
0
  6
Continuous
 62
     0
370
    -2
100
AcDbLine
 10
0.0
 20
-27.0
 30
0.0
 11
0.0
 21
-40.0
 31
0.0
  0
LINE
  5
468
330
227
100
AcDbEntity
  8
0
  6
Continuous
 62
     0
370
    -2
100
AcDbLine
 10
90.0
 20
-27.0
 30
0.0
 11
90.0
 21
-40.0
 31
0.0
  0
LINE
  5
469
330
227
100
AcDbEntity
  8
0
  6
Continuous
 62
     0
370
    -2
100
AcDbLine
 10
0.0
 20
-40.0
 30
0.0
 11
10.0
 21
-40.0
 31
0.0
  0
LINE
  5
46A
330
227
100
AcDbEntity
  8
0
  6
Continuous
 62
     0
370
    -2
100
AcDbLine
 10
10.0
 20
-40.0
 30
0.0
 11
20.0
 21
-40.0
 31
0.0
  0
LINE
  5
46B
330
227
100
AcDbEntity
  8
0
  6
Continuous
 62
     0
370
    -2
100
AcDbLine
 10
20.0
 20
-40.0
 30
0.0
 11
30.0
 21
-40.0
 31
0.0
  0
LINE
  5
46C
330
227
100
AcDbEntity
  8
0
  6
Continuous
 62
     0
370
    -2
100
AcDbLine
 10
30.0
 20
-40.0
 30
0.0
 11
70.0
 21
-40.0
 31
0.0
  0
LINE
  5
46D
330
227
100
AcDbEntity
  8
0
  6
Continuous
 62
     0
370
    -2
100
AcDbLine
 10
70.0
 20
-40.0
 30
0.0
 11
90.0
 21
-40.0
 31
0.0
  0
ENDBLK
  5
28D
330
227
100
AcDbEntity
  8
0
100
AcDbBlockEnd
  0
ENDSEC
  0
SECTION
  2
ENTITIES
  0
MTEXT
  5
28E
330
221
100
AcDbEntity
  8
0
  6
Continuous
 62
     2
100
AcDbMText
 10
1.6467220993
 20
53.595027386
 30
0.0
 40
4.0
 41
2.2857142857
 71
     1
 72
     1
  1
1
  7
TEXTSTYLE_2
 73
     1
 44
0.9
  0
MTEXT
  5
28F
330
221
100
AcDbEntity
  8
0
  6
Continuous
 62
     2
100
AcDbMText
 10
1.6467220993
 20
153.595027386
 30
0.0
 40
4.0
 41
3.1428571429
 71
     1
 72
     1
  1
2
  7
TEXTSTYLE_2
 73
     1
 44
0.9
  0
MTEXT
  5
290
330
221
100
AcDbEntity
  8
0
  6
Continuous
 62
     2
100
AcDbMText
 10
1.6467220993
 20
253.595027386
 30
0.0
 40
4.0
 41
2.8571428571
 71
     1
 72
     1
  1
3
  7
TEXTSTYLE_2
 73
     1
 44
0.9
  0
MTEXT
  5
291
330
221
100
AcDbEntity
  8
0
  6
Continuous
 62
     2
100
AcDbMText
 10
414.6467220993
 20
60.6268709614
 30
0.0
 40
4.0
 41
2.2857142857
 71
     1
 72
     1
  1
1
  7
TEXTSTYLE_2
 73
     1
 44
0.9
  0
MTEXT
  5
292
330
221
100
AcDbEntity
  8
0
  6
Continuous
 62
     2
100
AcDbMText
 10
414.6467220993
 20
160.6268709614
 30
0.0
 40
4.0
 41
3.1428571429
 71
     1
 72
     1
  1
2
  7
TEXTSTYLE_2
 73
     1
 44
0.9
  0
MTEXT
  5
293
330
221
100
AcDbEntity
  8
0
  6
Continuous
 62
     2
100
AcDbMText
 10
414.6467220993
 20
260.6268709614
 30
0.0
 40
4.0
 41
2.8571428571
 71
     1
 72
     1
  1
3
  7
TEXTSTYLE_2
 73
     1
 44
0.9
  0
MTEXT
  5
294
330
221
100
AcDbEntity
  8
0
  6
Continuous
 62
     2
100
AcDbMText
 10
362.154890719
 20
5.35876025
 30
0.0
 40
4.0
 41
3.6
 71
     1
 72
     1
  1
A
  7
TEXTSTYLE_3
 73
     1
 44
0.9
  0
MTEXT
  5
295
330
221
100
AcDbEntity
  8
0
  6
Continuous
 62
     2
100
AcDbMText
 10
262.154890719
 20
5.35876025
 30
0.0
 40
4.0
 41
3.6
 71
     1
 72
     1
  1
B
  7
TEXTSTYLE_3
 73
     1
 44
0.9
  0
MTEXT
  5
296
330
221
100
AcDbEntity
  8
0
  6
Continuous
 62
     2
100
AcDbMText
 10
162.154890719
 20
5.35876025
 30
0.0
 40
4.0
 41
3.6
 71
     1
 72
     1
  1
C
  7
TEXTSTYLE_3
 73
     1
 44
0.9
  0
MTEXT
  5
297
330
221
100
AcDbEntity
  8
0
  6
Continuous
 62
     2
100
AcDbMText
 10
55.7978688212
 20
5.5353441916
 30
0.0
 40
4.0
 41
3.6
 71
     1
 72
     1
  1
D
  7
TEXTSTYLE_3
 73
     1
 44
0.9
  0
MTEXT
  5
298
330
221
100
AcDbEntity
  8
0
  6
Continuous
 62
     2
100
AcDbMText
 10
362.154890719
 20
295.35876025
 30
0.0
 40
4.0
 41
3.6
 71
     1
 72
     1
  1
A
  7
TEXTSTYLE_3
 73
     1
 44
0.9
  0
MTEXT
  5
299
330
221
100
AcDbEntity
  8
0
  6
Continuous
 62
     2
100
AcDbMText
 10
262.154890719
 20
295.35876025
 30
0.0
 40
4.0
 41
3.6
 71
     1
 72
     1
  1
B
  7
TEXTSTYLE_3
 73
     1
 44
0.9
  0
MTEXT
  5
29A
330
221
100
AcDbEntity
  8
0
  6
Continuous
 62
     2
100
AcDbMText
 10
162.154890719
 20
295.35876025
 30
0.0
 40
4.0
 41
3.6
 71
     1
 72
     1
  1
C
  7
TEXTSTYLE_3
 73
     1
 44
0.9
  0
MTEXT
  5
29B
330
221
100
AcDbEntity
  8
0
  6
Continuous
 62
     2
100
AcDbMText
 10
53.9878834197
 20
295.579490177
 30
0.0
 40
4.0
 41
3.6
 71
     1
 72
     1
  1
D
  7
TEXTSTYLE_3
 73
     1
 44
0.9
  0
INSERT
  5
29E
330
221
100
AcDbEntity
  8
0
  6
Continuous
 62
     2
100
AcDbBlockReference
  2
LOGO2_BL0
 10
333.1473869546
 20
37.5239270671
 30
0.0
  0
INSERT
  5
29F
330
221
100
AcDbEntity
  8
0
  6
Continuous
 62
     2
100
AcDbBlockReference
  2
*T4
 10
319.3213399098
 20
51.0239270671
 30
0.0
  0
LINE
  5
2A2
330
221
100
AcDbEntity
  8
0
  6
Continuous
 62
     7
100
AcDbLine
 10
0.0
 20
0.0
 30
0.0
 11
0.0
 21
297.0
 31
0.0
  0
LWPOLYLINE
  5
2A3
330
221
100
AcDbEntity
  8
0
  6
Continuous
 62
     7
100
AcDbPolyline
 90
        2
 70
     0
 43
0.1000000003
 10
7.0536312849
 20
0.0
 10
7.0536312849
 20
297.0
  0
LWPOLYLINE
  5
2A4
330
221
100
AcDbEntity
  8
0
  6
Continuous
 62
     7
100
AcDbPolyline
 90
        2
 70
     0
 43
0.4999999952
 10
10.0536312849
 20
10.0318435754
 10
10.0536312849
 20
287.0
  0
LINE
  5
2A5
330
221
100
AcDbEntity
  8
0
  6
Continuous
 62
     7
100
AcDbLine
 10
0.0
 20
0.0
 30
0.0
 11
420.0
 21
0.0
 31
0.0
  0
LWPOLYLINE
  5
2A6
330
221
100
AcDbEntity
  8
0
  6
Continuous
 62
     7
100
AcDbPolyline
 90
        2
 70
     0
 43
0.1000000003
 10
0.0
 20
7.0318435754
 10
420.0
 20
7.0318435754
  0
LWPOLYLINE
  5
2A7
330
221
100
AcDbEntity
  8
0
  6
Continuous
 62
     7
100
AcDbPolyline
 90
        2
 70
     0
 43
0.4999999952
 10
10.0536312849
 20
10.0318435754
 10
410.0
 20
10.0318435754
  0
LINE
  5
2A8
330
221
100
AcDbEntity
  8
0
  6
Continuous
 62
     7
100
AcDbLine
 10
113.0
 20
297.0
 30
0.0
 11
113.0
 21
290.0
 31
0.0
  0
LINE
  5
2A9
330
221
100
AcDbEntity
  8
0
  6
Continuous
 62
     7
100
AcDbLine
 10
113.0
 20
7.0
 30
0.0
 11
113.0
 21
0.0
 31
0.0
  0
LWPOLYLINE
  5
2AA
330
221
100
AcDbEntity
  8
0
  6
Continuous
 62
     7
100
AcDbPolyline
 90
        2
 70
     0
 43
0.1000000003
 10
123.0
 20
10.0
 10
123.0
 20
0.0
  0
LWPOLYLINE
  5
2AB
330
221
100
AcDbEntity
  8
0
  6
Continuous
 62
     7
100
AcDbPolyline
 90
        2
 70
     0
 43
0.1000000003
 10
123.0
 20
287.0
 10
123.0
 20
297.0
  0
LINE
  5
2AC
330
221
100
AcDbEntity
  8
0
  6
Continuous
 62
     7
100
AcDbLine
 10
0.0
 20
99.9681564246
 30
0.0
 11
7.0
 21
99.9681564246
 31
0.0
  0
LINE
  5
2AD
330
221
100
AcDbEntity
  8
0
  6
Continuous
 62
     7
100
AcDbLine
 10
413.0
 20
107.0
 30
0.0
 11
420.0
 21
107.0
 31
0.0
  0
LWPOLYLINE
  5
2AE
330
221
100
AcDbEntity
  8
0
  6
Continuous
 62
     7
100
AcDbPolyline
 90
        2
 70
     0
 43
0.1000000003
 10
210.0
 20
10.0
 10
210.0
 20
0.0
  0
LWPOLYLINE
  5
2AF
330
221
100
AcDbEntity
  8
0
  6
Continuous
 62
     7
100
AcDbPolyline
 90
        2
 70
     0
 43
0.1000000003
 10
210.0
 20
287.0
 10
210.0
 20
297.0
  0
LWPOLYLINE
  5
2B0
330
221
100
AcDbEntity
  8
0
  6
Continuous
 62
     7
100
AcDbPolyline
 90
        2
 70
     0
 43
0.1000000003
 10
10.0
 20
148.5
 10
0.0
 20
148.5
  0
LWPOLYLINE
  5
2B1
330
221
100
AcDbEntity
  8
0
  6
Continuous
 62
     7
100
AcDbPolyline
 90
        2
 70
     0
 43
0.1000000003
 10
410.0
 20
148.5
 10
420.0
 20
148.5
  0
LINE
  5
2B2
330
221
100
AcDbEntity
  8
0
  6
Continuous
 62
     7
100
AcDbLine
 10
0.0
 20
199.9681564246
 30
0.0
 11
7.0
 21
199.9681564246
 31
0.0
  0
LWPOLYLINE
  5
2B3
330
221
100
AcDbEntity
  8
0
  6
Continuous
 62
     7
100
AcDbPolyline
 90
        2
 70
     0
 43
0.1000000003
 10
10.0
 20
202.9681564246
 10
0.0
 20
202.9681564246
  0
LWPOLYLINE
  5
2B4
330
221
100
AcDbEntity
  8
0
  6
Continuous
 62
     7
100
AcDbPolyline
 90
        2
 70
     0
 43
0.1000000003
 10
410.0
 20
210.0
 10
420.0
 20
210.0
  0
LINE
  5
2B5
330
221
100
AcDbEntity
  8
0
  6
Continuous
 62
     7
100
AcDbLine
 10
313.0
 20
297.0
 30
0.0
 11
313.0
 21
290.0
 31
0.0
  0
LINE
  5
2B6
330
221
100
AcDbEntity
  8
0
  6
Continuous
 62
     7
100
AcDbLine
 10
313.0
 20
7.0
 30
0.0
 11
313.0
 21
0.0
 31
0.0
  0
LWPOLYLINE
  5
2B7
330
221
100
AcDbEntity
  8
0
  6
Continuous
 62
     7
100
AcDbPolyline
 90
        2
 70
     0
 43
0.4999999952
 10
10.0536312849
 20
287.0
 10
410.0
 20
287.0
  0
LWPOLYLINE
  5
2B8
330
221
100
AcDbEntity
  8
0
  6
Continuous
 62
     7
100
AcDbPolyline
 90
        2
 70
     0
 43
0.1000000003
 10
0.0
 20
290.0
 10
420.0
 20
290.0
  0
LINE
  5
2B9
330
221
100
AcDbEntity
  8
0
  6
Continuous
 62
     7
100
AcDbLine
 10
0.0
 20
297.0
 30
0.0
 11
420.0
 21
297.0
 31
0.0
  0
LWPOLYLINE
  5
2BA
330
221
100
AcDbEntity
  8
0
  6
Continuous
 62
     7
100
AcDbPolyline
 90
        2
 70
     0
 43
0.4999999952
 10
410.0
 20
10.0318435754
 10
410.0
 20
287.0
  0
LWPOLYLINE
  5
2BB
330
221
100
AcDbEntity
  8
0
  6
Continuous
 62
     7
100
AcDbPolyline
 90
        2
 70
     0
 43
0.1000000003
 10
413.0
 20
0.0
 10
413.0
 20
297.0
  0
LINE
  5
2BC
330
221
100
AcDbEntity
  8
0
  6
Continuous
 62
     7
100
AcDbLine
 10
420.0
 20
0.0
 30
0.0
 11
420.0
 21
297.0
 31
0.0
  0
LINE
  5
2BD
330
221
100
AcDbEntity
  8
7_ALL_FEATURES
  6
Continuous
 62
     7
100
AcDbLine
 10
81.66151165245594
 20
220.6031083411214
 30
0.0
 11
81.76151165245594
 21
220.7031083411214
 31
0.0
  0
LINE
  5
2BE
330
221
100
AcDbEntity
  8
02___PRT_ALL_AXES
  6
Continuous
 62
     7
100
AcDbLine
 10
89.27959222572261
 20
168.2531083411214
 30
0.0
 11
96.27959222572261
 21
168.2531083411214
 31
0.0
  0
LINE
  5
2BF
330
221
100
AcDbEntity
  8
7_ALL_FEATURES
  6
Continuous
 62
     7
100
AcDbLine
 10
89.27959222572261
 20
168.2531083411214
 30
0.0
 11
96.27959222572261
 21
168.2531083411214
 31
0.0
  0
LINE
  5
2C0
330
221
100
AcDbEntity
  8
02___PRT_ALL_AXES
  6
Continuous
 62
     9
100
AcDbLine
 10
99.70779545605595
 20
171.7531083411214
 30
0.0
 11
97.10971924465593
 21
171.7531083411214
 31
0.0
  0
LINE
  5
2C1
330
221
100
AcDbEntity
  8
02___PRT_ALL_AXES
  6
Continuous
 62
     9
100
AcDbLine
 10
85.85138899545595
 20
171.7531083411214
 30
0.0
 11
88.44946520685593
 21
171.7531083411214
 31
0.0
  0
LINE
  5
2C2
330
221
100
AcDbEntity
  8
02___PRT_ALL_AXES
  6
Continuous
 62
     9
100
AcDbLine
 10
90.18151601438927
 20
171.7531083411214
 30
0.0
 11
95.37766843712261
 21
171.7531083411214
 31
0.0
  0
LINE
  5
2C3
330
221
100
AcDbEntity
  8
02___PRT_ALL_AXES
  6
Continuous
 62
     7
100
AcDbLine
 10
99.70779545605595
 20
172.2531083411214
 30
0.0
 11
97.10971924465593
 21
172.2531083411214
 31
0.0
  0
LINE
  5
2C4
330
221
100
AcDbEntity
  8
02___PRT_ALL_AXES
  6
Continuous
 62
     7
100
AcDbLine
 10
85.85138899545595
 20
172.2531083411214
 30
0.0
 11
88.44946520685593
 21
172.2531083411214
 31
0.0
  0
LINE
  5
2C5
330
221
100
AcDbEntity
  8
02___PRT_ALL_AXES
  6
Continuous
 62
     7
100
AcDbLine
 10
90.18151601438927
 20
172.2531083411214
 30
0.0
 11
95.37766843712261
 21
172.2531083411214
 31
0.0
  0
LINE
  5
2C6
330
221
100
AcDbEntity
  8
02___PRT_ALL_AXES
  6
Continuous
 62
     7
100
AcDbLine
 10
73.91151165245594
 20
219.5531083411215
 30
0.0
 11
73.91151165245594
 21
218.8031083411214
 31
0.0
  0
LINE
  5
2C7
330
221
100
AcDbEntity
  8
7_ALL_FEATURES
  6
Continuous
 62
     7
100
AcDbLine
 10
74.16151165245594
 20
204.2531083411214
 30
0.0
 11
74.16151165245594
 21
203.2531083411214
 31
0.0
  0
LINE
  5
2C8
330
221
100
AcDbEntity
  8
7_ALL_FEATURES
  6
Continuous
 62
     7
100
AcDbLine
 10
74.2642086575226
 20
203.2531083411214
 30
0.0
 11
74.2642086575226
 21
200.2531083411214
 31
0.0
  0
LINE
  5
2C9
330
221
100
AcDbEntity
  8
02___PRT_ALL_AXES
  6
Continuous
 62
     7
100
AcDbLine
 10
99.70779545605595
 20
177.7531083411214
 30
0.0
 11
85.85138899545595
 21
177.7531083411214
 31
0.0
  0
LINE
  5
2CA
330
221
100
AcDbEntity
  8
02___PRT_ALL_AXES
  6
Continuous
 62
     7
100
AcDbLine
 10
75.41151165245594
 20
204.2531083411214
 30
0.0
 11
75.41151165245594
 21
212.2531083411214
 31
0.0
  0
LINE
  5
2CB
330
221
100
AcDbEntity
  8
7_ALL_FEATURES
  6
Continuous
 62
     7
100
AcDbLine
 10
79.4115115875226
 20
184.2531082761214
 30
0.0
 11
77.91151157945595
 21
185.7531082680548
 31
0.0
  0
LINE
  5
2CC
330
221
100
AcDbEntity
  8
7_ALL_FEATURES
  6
Continuous
 62
     7
100
AcDbLine
 10
77.91151165245594
 20
199.2531083411214
 30
0.0
 11
77.91151165245594
 21
185.7531083411214
 31
0.0
  0
LINE
  5
2CD
330
221
100
AcDbEntity
  8
02___PRT_ALL_AXES
  6
Continuous
 62
     7
100
AcDbLine
 10
77.91151165245594
 20
185.7531083411214
 30
0.0
 11
77.91151165245594
 21
199.2531083411214
 31
0.0
  0
LINE
  5
2CE
330
221
100
AcDbEntity
  8
02___PRT_ALL_AXES
  6
Continuous
 62
     7
100
AcDbLine
 10
78.41151165245594
 20
218.8031083411214
 30
0.0
 11
78.41151165245594
 21
212.2531083411214
 31
0.0
  0
LINE
  5
2CF
330
221
100
AcDbEntity
  8
02___PRT_ALL_AXES
  6
Continuous
 62
     7
100
AcDbLine
 10
99.70779545605595
 20
180.7531083411214
 30
0.0
 11
85.85138899545595
 21
180.7531083411214
 31
0.0
  0
LINE
  5
2D0
330
221
100
AcDbEntity
  8
7_ALL_FEATURES
  6
Continuous
 62
     7
100
AcDbLine
 10
81.66151165245594
 20
220.6031083411214
 30
0.0
 11
81.66151165245594
 21
220.3031083411215
 31
0.0
  0
LINE
  5
2D1
330
221
100
AcDbEntity
  8
02___PRT_ALL_AXES
  6
Continuous
 62
     7
100
AcDbLine
 10
81.66151165245594
 20
220.3031083411215
 30
0.0
 11
81.66151165245594
 21
220.6031083411214
 31
0.0
  0
LINE
  5
2D2
330
221
100
AcDbEntity
  8
7_ALL_FEATURES
  6
Continuous
 62
     7
100
AcDbLine
 10
82.83786015498927
 20
203.2531083411214
 30
0.0
 11
82.83786015498927
 21
200.2531083411214
 31
0.0
  0
LINE
  5
2D3
330
221
100
AcDbEntity
  8
02___PRT_ALL_AXES
  6
Continuous
 62
     7
100
AcDbLine
 10
103.4115116524559
 20
184.2531083411214
 30
0.0
 11
79.41151165245594
 21
184.2531083411214
 31
0.0
  0
LINE
  5
2D4
330
221
100
AcDbEntity
  8
0
  6
Continuous
 62
     7
100
AcDbLine
 10
78.41151165245594
 20
185.2531082003881
 30
0.0
 11
104.4115116524559
 21
185.2531082003881
 31
0.0
  0
LINE
  5
2D5
330
221
100
AcDbEntity
  8
7_ALL_FEATURES
  6
Continuous
 62
     7
100
AcDbLine
 10
104.9115116524559
 20
185.7531083411214
 30
0.0
 11
77.91151165245594
 21
185.7531083411214
 31
0.0
  0
LINE
  5
2D6
330
221
100
AcDbEntity
  8
02___PRT_ALL_AXES
  6
Continuous
 62
     7
100
AcDbLine
 10
85.85138899545595
 20
184.2531083411214
 30
0.0
 11
85.85138899545595
 21
180.7531083411214
 31
0.0
  0
LINE
  5
2D7
330
221
100
AcDbEntity
  8
02___PRT_ALL_AXES
  6
Continuous
 62
     7
100
AcDbLine
 10
85.85138899545595
 20
171.0479462395215
 30
0.0
 11
85.85138899545595
 21
177.7531083411214
 31
0.0
  0
LINE
  5
2D8
330
221
100
AcDbEntity
  8
02___PRT_ALL_AXES
  6
Continuous
 62
     7
100
AcDbLine
 10
86.77959222572261
 20
177.7531083411214
 30
0.0
 11
86.77959222572261
 21
180.7531083411214
 31
0.0
  0
LINE
  5
2D9
330
221
100
AcDbEntity
  8
7_ALL_FEATURES
  6
Continuous
 62
     7
100
AcDbLine
 10
87.50766739325594
 20
212.2531083411214
 30
0.0
 11
87.50766739325594
 21
217.8031083411214
 31
0.0
  0
LINE
  5
2DA
330
221
100
AcDbEntity
  8
02___PRT_ALL_AXES
  6
Continuous
 62
     7
100
AcDbLine
 10
88.44946520685593
 20
171.7531083411214
 30
0.0
 11
88.44946520685593
 21
172.2531083411214
 31
0.0
  0
LINE
  5
2DB
330
221
100
AcDbEntity
  8
7_ALL_FEATURES
  6
Continuous
 62
     7
100
AcDbLine
 10
76.2642086575226
 20
199.2531083411214
 30
0.0
 11
74.2642086575226
 21
200.2531083411214
 31
0.0
  0
LINE
  5
2DC
330
221
100
AcDbEntity
  8
02___PRT_ALL_AXES
  6
Continuous
 62
     7
100
AcDbLine
 10
90.18151601438927
 20
171.7531083411214
 30
0.0
 11
90.18151601438927
 21
172.2531083411214
 31
0.0
  0
LINE
  5
2DD
330
221
100
AcDbEntity
  8
02___PRT_ALL_AXES
  6
Continuous
 62
     7
100
AcDbLine
 10
92.77959222572261
 20
184.2531083411214
 30
0.0
 11
92.77959222572261
 21
180.7531083411214
 31
0.0
  0
LINE
  5
2DE
330
221
100
AcDbEntity
  8
02___PRT_ALL_AXES
  6
Continuous
 62
     7
100
AcDbLine
 10
92.77959222572261
 20
177.7531083411214
 30
0.0
 11
92.77959222572261
 21
173.2531083411214
 31
0.0
  0
LINE
  5
2DF
330
221
100
AcDbEntity
  8
7_ALL_FEATURES
  6
Continuous
 62
     7
100
AcDbLine
 10
95.31535591165594
 20
212.2531083411214
 30
0.0
 11
95.31535591165594
 21
217.8031083411214
 31
0.0
  0
LINE
  5
2E0
330
221
100
AcDbEntity
  8
02___PRT_ALL_AXES
  6
Continuous
 62
     7
100
AcDbLine
 10
95.37766843712261
 20
171.7531083411214
 30
0.0
 11
95.37766843712261
 21
172.2531083411214
 31
0.0
  0
LINE
  5
2E1
330
221
100
AcDbEntity
  8
7_ALL_FEATURES
  6
Continuous
 62
     7
100
AcDbLine
 10
106.5588146473893
 20
199.2531083411214
 30
0.0
 11
108.5588146473893
 21
200.2531083411214
 31
0.0
  0
LINE
  5
2E2
330
221
100
AcDbEntity
  8
02___PRT_ALL_AXES
  6
Continuous
 62
     7
100
AcDbLine
 10
97.10971924465593
 20
171.7531083411214
 30
0.0
 11
97.10971924465593
 21
172.2531083411214
 31
0.0
  0
LINE
  5
2E3
330
221
100
AcDbEntity
  8
7_ALL_FEATURES
  6
Continuous
 62
     7
100
AcDbLine
 10
76.26431108338927
 20
199.2531083411214
 30
0.0
 11
106.5587122215226
 21
199.2531083411214
 31
0.0
  0
LINE
  5
2E4
330
221
100
AcDbEntity
  8
02___PRT_ALL_AXES
  6
Continuous
 62
     7
100
AcDbLine
 10
98.77959222572261
 20
177.7531083411214
 30
0.0
 11
98.77959222572261
 21
180.7531083411214
 31
0.0
  0
LINE
  5
2E5
330
221
100
AcDbEntity
  8
02___PRT_ALL_AXES
  6
Continuous
 62
     7
100
AcDbLine
 10
99.70779545605595
 20
184.2531083411214
 30
0.0
 11
99.70779545605595
 21
180.7531083411214
 31
0.0
  0
LINE
  5
2E6
330
221
100
AcDbEntity
  8
02___PRT_ALL_AXES
  6
Continuous
 62
     7
100
AcDbLine
 10
99.70779545605595
 20
171.0479462395215
 30
0.0
 11
99.70779545605595
 21
177.7531083411214
 31
0.0
  0
LINE
  5
2E7
330
221
100
AcDbEntity
  8
7_ALL_FEATURES
  6
Continuous
 62
     7
100
AcDbLine
 10
99.98516314992261
 20
203.2531083411214
 30
0.0
 11
99.98516314992261
 21
200.2531083411214
 31
0.0
  0
LINE
  5
2E8
330
221
100
AcDbEntity
  8
7_ALL_FEATURES
  6
Continuous
 62
     7
100
AcDbLine
 10
101.1615116524559
 20
220.6031083411214
 30
0.0
 11
101.1615116524559
 21
220.3031083411215
 31
0.0
  0
LINE
  5
2E9
330
221
100
AcDbEntity
  8
02___PRT_ALL_AXES
  6
Continuous
 62
     7
100
AcDbLine
 10
101.1615116524559
 20
220.3031083411215
 30
0.0
 11
101.1615116524559
 21
220.6031083411214
 31
0.0
  0
LINE
  5
2EA
330
221
100
AcDbEntity
  8
7_ALL_FEATURES
  6
Continuous
 62
     7
100
AcDbLine
 10
74.16151165245594
 20
203.2531083411214
 30
0.0
 11
108.6615116524559
 21
203.2531083411214
 31
0.0
  0
LINE
  5
2EB
330
221
100
AcDbEntity
  8
7_ALL_FEATURES
  6
Continuous
 62
     7
100
AcDbLine
 10
74.16151165245594
 20
204.2531083411214
 30
0.0
 11
108.6615116524559
 21
204.2531083411214
 31
0.0
  0
LINE
  5
2EC
330
221
100
AcDbEntity
  8
02___PRT_ALL_AXES
  6
Continuous
 62
     7
100
AcDbLine
 10
104.4115116524559
 20
218.8031083411214
 30
0.0
 11
104.4115116524559
 21
212.2531083411214
 31
0.0
  0
LINE
  5
2ED
330
221
100
AcDbEntity
  8
7_ALL_FEATURES
  6
Continuous
 62
     7
100
AcDbLine
 10
104.9115116524559
 20
199.2531083411214
 30
0.0
 11
104.9115116524559
 21
185.7531083411214
 31
0.0
  0
LINE
  5
2EE
330
221
100
AcDbEntity
  8
02___PRT_ALL_AXES
  6
Continuous
 62
     7
100
AcDbLine
 10
104.9115116524559
 20
185.7531083411214
 30
0.0
 11
104.9115116524559
 21
199.2531083411214
 31
0.0
  0
LINE
  5
2EF
330
221
100
AcDbEntity
  8
02___PRT_ALL_AXES
  6
Continuous
 62
     7
100
AcDbLine
 10
107.4115116524559
 20
204.2531083411214
 30
0.0
 11
107.4115116524559
 21
212.2531083411214
 31
0.0
  0
LINE
  5
2F0
330
221
100
AcDbEntity
  8
7_ALL_FEATURES
  6
Continuous
 62
     7
100
AcDbLine
 10
103.4115117173226
 20
184.2531082761214
 30
0.0
 11
104.9115117254559
 21
185.7531082679881
 31
0.0
  0
LINE
  5
2F1
330
221
100
AcDbEntity
  8
7_ALL_FEATURES
  6
Continuous
 62
     7
100
AcDbLine
 10
108.5588146473893
 20
203.2531083411214
 30
0.0
 11
108.5588146473893
 21
200.2531083411214
 31
0.0
  0
LINE
  5
2F2
330
221
100
AcDbEntity
  8
7_ALL_FEATURES
  6
Continuous
 62
     7
100
AcDbLine
 10
108.6615116524559
 20
204.2531083411214
 30
0.0
 11
108.6615116524559
 21
203.2531083411214
 31
0.0
  0
LINE
  5
2F3
330
221
100
AcDbEntity
  8
02___PRT_ALL_AXES
  6
Continuous
 62
     7
100
AcDbLine
 10
108.9115116524559
 20
219.5531083411215
 30
0.0
 11
108.9115116524559
 21
218.8031083411214
 31
0.0
  0
LINE
  5
2F4
330
221
100
AcDbEntity
  8
02___PRT_ALL_AXES
  6
Continuous
 62
     7
100
AcDbLine
 10
75.41151165245594
 20
212.2531083411214
 30
0.0
 11
107.4115116524559
 21
212.2531083411214
 31
0.0
  0
LINE
  5
2F5
330
221
100
AcDbEntity
  8
7_ALL_FEATURES
  6
Continuous
 62
     7
100
AcDbLine
 10
95.31535591165594
 20
217.8031083411214
 30
0.0
 11
87.50766739325594
 21
217.8031083411214
 31
0.0
  0
LINE
  5
2F6
330
221
100
AcDbEntity
  8
02___PRT_ALL_AXES
  6
Continuous
 62
     7
100
AcDbLine
 10
73.91151165245594
 20
218.8031083411214
 30
0.0
 11
108.9115116524559
 21
218.8031083411214
 31
0.0
  0
LINE
  5
2F7
330
221
100
AcDbEntity
  8
02___PRT_ALL_AXES
  6
Continuous
 62
     7
100
AcDbLine
 10
73.91151165245594
 20
219.5531083411215
 30
0.0
 11
108.9115116524559
 21
219.5531083411215
 31
0.0
  0
LINE
  5
2F8
330
221
100
AcDbEntity
  8
7_ALL_FEATURES
  6
Continuous
 62
     7
100
AcDbLine
 10
101.1615116524559
 20
220.6031083411214
 30
0.0
 11
101.0615116524559
 21
220.7031083411214
 31
0.0
  0
LINE
  5
2F9
330
221
100
AcDbEntity
  8
7_ALL_FEATURES
  6
Continuous
 62
     7
100
AcDbLine
 10
79.31736804438927
 20
220.2902705763881
 30
0.0
 11
73.91151165245594
 21
219.5531083411215
 31
0.0
  0
LINE
  5
2FA
330
221
100
AcDbEntity
  8
02___PRT_ALL_AXES
  6
Continuous
 62
     7
100
AcDbLine
 10
73.91151165245594
 20
219.5531083411215
 30
0.0
 11
79.31736804438927
 21
220.2902705763881
 31
0.0
  0
LINE
  5
2FB
330
221
100
AcDbEntity
  8
7_ALL_FEATURES
  6
Continuous
 62
     7
100
AcDbLine
 10
79.31736804438927
 20
220.2902705763881
 30
0.0
 11
79.50652653098928
 21
220.3031083411215
 31
0.0
  0
LINE
  5
2FC
330
221
100
AcDbEntity
  8
7_ALL_FEATURES
  6
Continuous
 62
     9
100
AcDbLine
 10
103.5056552605226
 20
220.2902705763881
 30
0.0
 11
79.31736804438927
 21
220.2902705763881
 31
0.0
  0
LINE
  5
2FD
330
221
100
AcDbEntity
  8
7_ALL_FEATURES
  6
Continuous
 62
     7
100
AcDbLine
 10
103.3164967739226
 20
220.3031083411215
 30
0.0
 11
79.50652653098928
 21
220.3031083411215
 31
0.0
  0
LINE
  5
2FE
330
221
100
AcDbEntity
  8
7_ALL_FEATURES
  6
Continuous
 62
     7
100
AcDbLine
 10
101.1615116524559
 20
220.6031083411214
 30
0.0
 11
81.66151165245594
 21
220.6031083411214
 31
0.0
  0
LINE
  5
2FF
330
221
100
AcDbEntity
  8
7_ALL_FEATURES
  6
Continuous
 62
     7
100
AcDbLine
 10
101.0615116524559
 20
220.7031083411214
 30
0.0
 11
81.76151165245594
 21
220.7031083411214
 31
0.0
  0
LINE
  5
300
330
221
100
AcDbEntity
  8
7_ALL_FEATURES
  6
Continuous
 62
     7
100
AcDbLine
 10
103.5056552605226
 20
220.2902705763881
 30
0.0
 11
103.3164967739226
 21
220.3031083411215
 31
0.0
  0
LINE
  5
301
330
221
100
AcDbEntity
  8
02___PRT_ALL_AXES
  6
Continuous
 62
     7
100
AcDbLine
 10
108.9115116524559
 20
219.5531083411215
 30
0.0
 11
103.5056552605226
 21
220.2902705763881
 31
0.0
  0
LINE
  5
302
330
221
100
AcDbEntity
  8
7_ALL_FEATURES
  6
Continuous
 62
     7
100
AcDbLine
 10
103.5056552605226
 20
220.2902705763881
 30
0.0
 11
108.9115116524559
 21
219.5531083411215
 31
0.0
  0
LINE
  5
303
330
221
100
AcDbEntity
  8
7_ALL_FEATURES
  6
Continuous
 62
     7
100
AcDbLine
 10
166.3455764612559
 20
220.6031083411214
 30
0.0
 11
166.4455764612559
 21
220.7031083411214
 31
0.0
  0
LINE
  5
304
330
221
100
AcDbEntity
  8
02___PRT_ALL_AXES
  6
Continuous
 62
     7
100
AcDbLine
 10
176.3543469444559
 20
168.2531083411214
 30
0.0
 11
183.3543469444559
 21
168.2531083411214
 31
0.0
  0
LINE
  5
305
330
221
100
AcDbEntity
  8
7_ALL_FEATURES
  6
Continuous
 62
     7
100
AcDbLine
 10
176.3543469444559
 20
168.2531083411214
 30
0.0
 11
183.3543469444559
 21
168.2531083411214
 31
0.0
  0
LINE
  5
306
330
221
100
AcDbEntity
  8
02___PRT_ALL_AXES
  6
Continuous
 62
     9
100
AcDbLine
 10
172.8543469444559
 20
171.7531083411214
 30
0.0
 11
173.3543469444559
 21
171.7531083411214
 31
0.0
  0
LINE
  5
307
330
221
100
AcDbEntity
  8
02___PRT_ALL_AXES
  6
Continuous
 62
     9
100
AcDbLine
 10
174.3543469444559
 20
171.7531083411214
 30
0.0
 11
178.8543469444559
 21
171.7531083411214
 31
0.0
  0
LINE
  5
308
330
221
100
AcDbEntity
  8
02___PRT_ALL_AXES
  6
Continuous
 62
     9
100
AcDbLine
 10
180.8543469444559
 20
171.7531083411214
 30
0.0
 11
185.3543469444559
 21
171.7531083411214
 31
0.0
  0
LINE
  5
309
330
221
100
AcDbEntity
  8
02___PRT_ALL_AXES
  6
Continuous
 62
     9
100
AcDbLine
 10
186.3543469444559
 20
171.7531083411214
 30
0.0
 11
186.8543469444559
 21
171.7531083411214
 31
0.0
  0
LINE
  5
30A
330
221
100
AcDbEntity
  8
02___PRT_ALL_AXES
  6
Continuous
 62
     7
100
AcDbLine
 10
172.8543469444559
 20
172.2531083411214
 30
0.0
 11
173.3543469444559
 21
172.2531083411214
 31
0.0
  0
LINE
  5
30B
330
221
100
AcDbEntity
  8
02___PRT_ALL_AXES
  6
Continuous
 62
     7
100
AcDbLine
 10
174.3543469444559
 20
172.2531083411214
 30
0.0
 11
178.8543469444559
 21
172.2531083411214
 31
0.0
  0
LINE
  5
30C
330
221
100
AcDbEntity
  8
02___PRT_ALL_AXES
  6
Continuous
 62
     7
100
AcDbLine
 10
180.8543469444559
 20
172.2531083411214
 30
0.0
 11
185.3543469444559
 21
172.2531083411214
 31
0.0
  0
LINE
  5
30D
330
221
100
AcDbEntity
  8
02___PRT_ALL_AXES
  6
Continuous
 62
     7
100
AcDbLine
 10
186.3543469444559
 20
172.2531083411214
 30
0.0
 11
186.8543469444559
 21
172.2531083411214
 31
0.0
  0
LINE
  5
30E
330
221
100
AcDbEntity
  8
02___PRT_ALL_AXES
  6
Continuous
 62
     7
100
AcDbLine
 10
158.5955764612559
 20
218.8031083411214
 30
0.0
 11
158.5955764612559
 21
219.5531083411215
 31
0.0
  0
LINE
  5
30F
330
221
100
AcDbEntity
  8
7_ALL_FEATURES
  6
Continuous
 62
     7
100
AcDbLine
 10
158.8455764612559
 20
203.2531083411214
 30
0.0
 11
158.8455764612559
 21
204.2531083411214
 31
0.0
  0
LINE
  5
310
330
221
100
AcDbEntity
  8
02___PRT_ALL_AXES
  6
Continuous
 62
     7
100
AcDbLine
 10
187.8543469444559
 20
177.7531083411214
 30
0.0
 11
171.8543469444559
 21
177.7531083411214
 31
0.0
  0
LINE
  5
311
330
221
100
AcDbEntity
  8
02___PRT_ALL_AXES
  6
Continuous
 62
     7
100
AcDbLine
 10
172.8543469444559
 20
172.2531083411214
 30
0.0
 11
171.8543469444559
 21
173.2531083411214
 31
0.0
  0
LINE
  5
312
330
221
100
AcDbEntity
  8
02___PRT_ALL_AXES
  6
Continuous
 62
     7
100
AcDbLine
 10
160.0955764612559
 20
204.2531083411214
 30
0.0
 11
160.0955764612559
 21
212.2531083411214
 31
0.0
  0
LINE
  5
313
330
221
100
AcDbEntity
  8
7_ALL_FEATURES
  6
Continuous
 62
     7
100
AcDbLine
 10
161.245576461256
 20
199.2531083411214
 30
0.0
 11
161.245576461256
 21
203.2531083411214
 31
0.0
  0
LINE
  5
314
330
221
100
AcDbEntity
  8
7_ALL_FEATURES
  6
Continuous
 62
     7
100
AcDbLine
 10
164.0955763313893
 20
184.2531083411214
 30
0.0
 11
162.5955763801226
 21
185.7531082761881
 31
0.0
  0
LINE
  5
315
330
221
100
AcDbEntity
  8
02___PRT_ALL_AXES
  6
Continuous
 62
     7
100
AcDbLine
 10
162.5955764612559
 20
185.7531083573881
 30
0.0
 11
162.5955764612559
 21
199.2531083411214
 31
0.0
  0
LINE
  5
316
330
221
100
AcDbEntity
  8
02___PRT_ALL_AXES
  6
Continuous
 62
     7
100
AcDbLine
 10
163.0955764612559
 20
217.8031083411214
 30
0.0
 11
163.0955764612559
 21
218.8031083411214
 31
0.0
  0
LINE
  5
317
330
221
100
AcDbEntity
  8
7_ALL_FEATURES
  6
Continuous
 62
     7
100
AcDbLine
 10
163.6955764612559
 20
212.2531083411214
 30
0.0
 11
163.6955764612559
 21
217.8031083411214
 31
0.0
  0
LINE
  5
318
330
221
100
AcDbEntity
  8
02___PRT_ALL_AXES
  6
Continuous
 62
     7
100
AcDbLine
 10
187.8543469444559
 20
180.7531083411214
 30
0.0
 11
171.8543469444559
 21
180.7531083411214
 31
0.0
  0
LINE
  5
319
330
221
100
AcDbEntity
  8
02___PRT_ALL_AXES
  6
Continuous
 62
     7
100
AcDbLine
 10
188.0955148557892
 20
184.2531083411214
 30
0.0
 11
164.0956380667893
 21
184.2531083411214
 31
0.0
  0
LINE
  5
31A
330
221
100
AcDbEntity
  8
02___PRT_ALL_AXES
  6
Continuous
 62
     7
100
AcDbLine
 10
166.3455764612559
 20
220.3031083411215
 30
0.0
 11
166.3455764612559
 21
220.6031083411214
 31
0.0
  0
LINE
  5
31B
330
221
100
AcDbEntity
  8
0
  6
Continuous
 62
     7
100
AcDbLine
 10
163.0955764612559
 20
185.2531082003881
 30
0.0
 11
189.0955764612559
 21
185.2531082003881
 31
0.0
  0
LINE
  5
31C
330
221
100
AcDbEntity
  8
7_ALL_FEATURES
  6
Continuous
 62
     7
100
AcDbLine
 10
189.5955764612559
 20
185.7531083573881
 30
0.0
 11
162.5955764612559
 21
185.7531083573881
 31
0.0
  0
LINE
  5
31D
330
221
100
AcDbEntity
  8
02___PRT_ALL_AXES
  6
Continuous
 62
     7
100
AcDbLine
 10
171.8543469444559
 20
184.2531083411214
 30
0.0
 11
171.8543469444559
 21
180.7531083411214
 31
0.0
  0
LINE
  5
31E
330
221
100
AcDbEntity
  8
02___PRT_ALL_AXES
  6
Continuous
 62
     7
100
AcDbLine
 10
171.8543469444559
 20
177.7531083411214
 30
0.0
 11
171.8543469444559
 21
173.2531083411214
 31
0.0
  0
LINE
  5
31F
330
221
100
AcDbEntity
  8
02___PRT_ALL_AXES
  6
Continuous
 62
     7
100
AcDbLine
 10
172.8543469444559
 20
171.7531083411214
 30
0.0
 11
172.8543469444559
 21
172.2531083411214
 31
0.0
  0
LINE
  5
320
330
221
100
AcDbEntity
  8
02___PRT_ALL_AXES
  6
Continuous
 62
     7
100
AcDbLine
 10
173.3543469444559
 20
171.7531083411214
 30
0.0
 11
173.3543469444559
 21
172.2531083411214
 31
0.0
  0
LINE
  5
321
330
221
100
AcDbEntity
  8
02___PRT_ALL_AXES
  6
Continuous
 62
     7
100
AcDbLine
 10
173.8543469444559
 20
180.7531083411214
 30
0.0
 11
173.8543469444559
 21
177.7531083411214
 31
0.0
  0
LINE
  5
322
330
221
100
AcDbEntity
  8
02___PRT_ALL_AXES
  6
Continuous
 62
     7
100
AcDbLine
 10
174.3543469444559
 20
171.7531083411214
 30
0.0
 11
174.3543469444559
 21
172.2531083411214
 31
0.0
  0
LINE
  5
323
330
221
100
AcDbEntity
  8
02___PRT_ALL_AXES
  6
Continuous
 62
     7
100
AcDbLine
 10
175.8543469444559
 20
184.2531083411214
 30
0.0
 11
175.8543469444559
 21
180.7531083411214
 31
0.0
  0
LINE
  5
324
330
221
100
AcDbEntity
  8
02___PRT_ALL_AXES
  6
Continuous
 62
     7
100
AcDbLine
 10
175.8543469444559
 20
177.7531083411214
 30
0.0
 11
175.8543469444559
 21
173.2531083411214
 31
0.0
  0
LINE
  5
325
330
221
100
AcDbEntity
  8
7_ALL_FEATURES
  6
Continuous
 62
     7
100
AcDbLine
 10
176.0955764612559
 20
203.2531083411214
 30
0.0
 11
176.0955764612559
 21
200.2531083411214
 31
0.0
  0
LINE
  5
326
330
221
100
AcDbEntity
  8
02___PRT_ALL_AXES
  6
Continuous
 62
     7
100
AcDbLine
 10
178.8543469444559
 20
171.7531083411214
 30
0.0
 11
178.8543469444559
 21
172.2531083411214
 31
0.0
  0
LINE
  5
327
330
221
100
AcDbEntity
  8
02___PRT_ALL_AXES
  6
Continuous
 62
     7
100
AcDbLine
 10
180.8543469444559
 20
171.7531083411214
 30
0.0
 11
180.8543469444559
 21
172.2531083411214
 31
0.0
  0
LINE
  5
328
330
221
100
AcDbEntity
  8
7_ALL_FEATURES
  6
Continuous
 62
     7
100
AcDbLine
 10
161.245576461256
 20
199.2531083411214
 30
0.0
 11
190.9455764612559
 21
199.2531083411214
 31
0.0
  0
LINE
  5
329
330
221
100
AcDbEntity
  8
02___PRT_ALL_AXES
  6
Continuous
 62
     7
100
AcDbLine
 10
183.8543469444559
 20
184.2531083411214
 30
0.0
 11
183.8543469444559
 21
180.7531083411214
 31
0.0
  0
LINE
  5
32A
330
221
100
AcDbEntity
  8
02___PRT_ALL_AXES
  6
Continuous
 62
     7
100
AcDbLine
 10
183.8543469444559
 20
177.7531083411214
 30
0.0
 11
183.8543469444559
 21
173.2531083411214
 31
0.0
  0
LINE
  5
32B
330
221
100
AcDbEntity
  8
02___PRT_ALL_AXES
  6
Continuous
 62
     7
100
AcDbLine
 10
185.3543469444559
 20
171.7531083411214
 30
0.0
 11
185.3543469444559
 21
172.2531083411214
 31
0.0
  0
LINE
  5
32C
330
221
100
AcDbEntity
  8
02___PRT_ALL_AXES
  6
Continuous
 62
     7
100
AcDbLine
 10
185.8455764612559
 20
220.3031083411215
 30
0.0
 11
185.8455764612559
 21
220.6031083411214
 31
0.0
  0
LINE
  5
32D
330
221
100
AcDbEntity
  8
02___PRT_ALL_AXES
  6
Continuous
 62
     7
100
AcDbLine
 10
185.8543469444559
 20
180.7531083411214
 30
0.0
 11
185.8543469444559
 21
177.7531083411214
 31
0.0
  0
LINE
  5
32E
330
221
100
AcDbEntity
  8
02___PRT_ALL_AXES
  6
Continuous
 62
     7
100
AcDbLine
 10
186.3543469444559
 20
171.7531083411214
 30
0.0
 11
186.3543469444559
 21
172.2531083411214
 31
0.0
  0
LINE
  5
32F
330
221
100
AcDbEntity
  8
02___PRT_ALL_AXES
  6
Continuous
 62
     7
100
AcDbLine
 10
186.8543469444559
 20
171.7531083411214
 30
0.0
 11
186.8543469444559
 21
172.2531083411214
 31
0.0
  0
LINE
  5
330
330
221
100
AcDbEntity
  8
7_ALL_FEATURES
  6
Continuous
 62
     7
100
AcDbLine
 10
158.8457169732559
 20
203.2531083411214
 30
0.0
 11
193.3454359493226
 21
203.2531083411214
 31
0.0
  0
LINE
  5
331
330
221
100
AcDbEntity
  8
7_ALL_FEATURES
  6
Continuous
 62
     7
100
AcDbLine
 10
158.8457169732559
 20
204.2531083411214
 30
0.0
 11
193.3454359493226
 21
204.2531083411214
 31
0.0
  0
LINE
  5
332
330
221
100
AcDbEntity
  8
02___PRT_ALL_AXES
  6
Continuous
 62
     7
100
AcDbLine
 10
187.8543469444559
 20
184.2531083411214
 30
0.0
 11
187.8543469444559
 21
180.7531083411214
 31
0.0
  0
LINE
  5
333
330
221
100
AcDbEntity
  8
02___PRT_ALL_AXES
  6
Continuous
 62
     7
100
AcDbLine
 10
187.8543469444559
 20
177.7531083411214
 30
0.0
 11
187.8543469444559
 21
173.2531083411214
 31
0.0
  0
LINE
  5
334
330
221
100
AcDbEntity
  8
7_ALL_FEATURES
  6
Continuous
 62
     7
100
AcDbLine
 10
188.495576461256
 20
212.2531083411214
 30
0.0
 11
188.495576461256
 21
217.8031083411214
 31
0.0
  0
LINE
  5
335
330
221
100
AcDbEntity
  8
02___PRT_ALL_AXES
  6
Continuous
 62
     7
100
AcDbLine
 10
189.0955764612559
 20
217.8031083411214
 30
0.0
 11
189.0955764612559
 21
218.8031083411214
 31
0.0
  0
LINE
  5
336
330
221
100
AcDbEntity
  8
02___PRT_ALL_AXES
  6
Continuous
 62
     7
100
AcDbLine
 10
189.5955764612559
 20
185.7531083573881
 30
0.0
 11
189.5955764612559
 21
199.2531083411214
 31
0.0
  0
LINE
  5
337
330
221
100
AcDbEntity
  8
7_ALL_FEATURES
  6
Continuous
 62
     7
100
AcDbLine
 10
190.9455764612559
 20
203.2531083411214
 30
0.0
 11
190.9455764612559
 21
199.2531083411214
 31
0.0
  0
LINE
  5
338
330
221
100
AcDbEntity
  8
02___PRT_ALL_AXES
  6
Continuous
 62
     7
100
AcDbLine
 10
192.0955764612559
 20
204.2531083411214
 30
0.0
 11
192.0955764612559
 21
212.2531083411214
 31
0.0
  0
LINE
  5
339
330
221
100
AcDbEntity
  8
7_ALL_FEATURES
  6
Continuous
 62
     7
100
AcDbLine
 10
188.0955765911893
 20
184.2531083411214
 30
0.0
 11
189.5955765424559
 21
185.7531082761881
 31
0.0
  0
LINE
  5
33A
330
221
100
AcDbEntity
  8
7_ALL_FEATURES
  6
Continuous
 62
     7
100
AcDbLine
 10
193.3455764612559
 20
203.2531083411214
 30
0.0
 11
193.3455764612559
 21
204.2531083411214
 31
0.0
  0
LINE
  5
33B
330
221
100
AcDbEntity
  8
02___PRT_ALL_AXES
  6
Continuous
 62
     7
100
AcDbLine
 10
193.5955764612559
 20
218.8031083411214
 30
0.0
 11
193.5955764612559
 21
219.5531083411215
 31
0.0
  0
LINE
  5
33C
330
221
100
AcDbEntity
  8
02___PRT_ALL_AXES
  6
Continuous
 62
     7
100
AcDbLine
 10
160.0955764612559
 20
212.2531083411214
 30
0.0
 11
192.0955764612559
 21
212.2531083411214
 31
0.0
  0
LINE
  5
33D
330
221
100
AcDbEntity
  8
02___PRT_ALL_AXES
  6
Continuous
 62
     7
100
AcDbLine
 10
186.8543469444559
 20
172.2531083411214
 30
0.0
 11
187.8543469444559
 21
173.2531083411214
 31
0.0
  0
LINE
  5
33E
330
221
100
AcDbEntity
  8
7_ALL_FEATURES
  6
Continuous
 62
     7
100
AcDbLine
 10
189.0955083911226
 20
217.8031083411214
 30
0.0
 11
188.495576461256
 21
217.8031083411214
 31
0.0
  0
LINE
  5
33F
330
221
100
AcDbEntity
  8
7_ALL_FEATURES
  6
Continuous
 62
     7
100
AcDbLine
 10
163.6955764612559
 20
217.8031083411214
 30
0.0
 11
163.0956445314559
 21
217.8031083411214
 31
0.0
  0
LINE
  5
340
330
221
100
AcDbEntity
  8
02___PRT_ALL_AXES
  6
Continuous
 62
     7
100
AcDbLine
 10
158.5956101252559
 20
218.8031083411214
 30
0.0
 11
193.5955427973226
 21
218.8031083411214
 31
0.0
  0
LINE
  5
341
330
221
100
AcDbEntity
  8
02___PRT_ALL_AXES
  6
Continuous
 62
     7
100
AcDbLine
 10
158.5955764612559
 20
219.5531083411215
 30
0.0
 11
193.5955764612559
 21
219.5531083411215
 31
0.0
  0
LINE
  5
342
330
221
100
AcDbEntity
  8
7_ALL_FEATURES
  6
Continuous
 62
     7
100
AcDbLine
 10
185.8455764612559
 20
220.6031083411214
 30
0.0
 11
185.745576461256
 21
220.7031083411214
 31
0.0
  0
LINE
  5
343
330
221
100
AcDbEntity
  8
02___PRT_ALL_AXES
  6
Continuous
 62
     7
100
AcDbLine
 10
158.5955764612559
 20
219.5531083411215
 30
0.0
 11
164.0014328531893
 21
220.2902705763881
 31
0.0
  0
LINE
  5
344
330
221
100
AcDbEntity
  8
7_ALL_FEATURES
  6
Continuous
 62
     7
100
AcDbLine
 10
164.0014328531893
 20
220.2902705763881
 30
0.0
 11
164.1905913398559
 21
220.3031083411215
 31
0.0
  0
LINE
  5
345
330
221
100
AcDbEntity
  8
7_ALL_FEATURES
  6
Continuous
 62
     9
100
AcDbLine
 10
188.1897200693893
 20
220.2902705763881
 30
0.0
 11
164.0014328531893
 21
220.2902705763881
 31
0.0
  0
LINE
  5
346
330
221
100
AcDbEntity
  8
7_ALL_FEATURES
  6
Continuous
 62
     7
100
AcDbLine
 10
188.0004235130559
 20
220.3031083411215
 30
0.0
 11
164.1907294094559
 21
220.3031083411215
 31
0.0
  0
LINE
  5
347
330
221
100
AcDbEntity
  8
7_ALL_FEATURES
  6
Continuous
 62
     7
100
AcDbLine
 10
166.3455764612559
 20
220.6031083411214
 30
0.0
 11
185.8455764612559
 21
220.6031083411214
 31
0.0
  0
LINE
  5
348
330
221
100
AcDbEntity
  8
7_ALL_FEATURES
  6
Continuous
 62
     7
100
AcDbLine
 10
166.4456895321892
 20
220.7031083411214
 30
0.0
 11
185.7454633903893
 21
220.7031083411214
 31
0.0
  0
LINE
  5
349
330
221
100
AcDbEntity
  8
7_ALL_FEATURES
  6
Continuous
 62
     7
100
AcDbLine
 10
188.1897200693893
 20
220.2902705763881
 30
0.0
 11
188.0005615827226
 21
220.3031083411215
 31
0.0
  0
LINE
  5
34A
330
221
100
AcDbEntity
  8
02___PRT_ALL_AXES
  6
Continuous
 62
     7
100
AcDbLine
 10
193.5955764612559
 20
219.5531083411215
 30
0.0
 11
188.1897200693893
 21
220.2902705763881
 31
0.0
  0
LINE
  5
34B
330
221
100
AcDbEntity
  8
02___PRT_ALL_AXES
  6
Continuous
 62
     7
100
AcDbLine
 10
352.5532664575
 20
95.8791460636
 30
0.0
 11
340.6021276388
 21
94.8190483711
 31
0.0
  0
LINE
  5
34C
330
221
100
AcDbEntity
  8
02___PRT_ALL_AXES
  6
Continuous
 62
     7
100
AcDbLine
 10
352.1547589229
 20
100.0255556756
 30
0.0
 11
340.2036201042
 21
98.9654579831
 31
0.0
  0
LINE
  5
34D
330
221
100
AcDbEntity
  8
02___PRT_ALL_AXES
  6
Continuous
 62
     7
100
AcDbLine
 10
310.1772664688
 20
154.5600465488
 30
0.0
 11
310.0776395851
 21
155.5966489517
 31
0.0
  0
LINE
  5
34E
330
221
100
AcDbEntity
  8
7_ALL_FEATURES
  6
Continuous
 62
     7
100
AcDbLine
 10
312.6161438349
 20
133.1036989817
 30
0.0
 11
312.48330799
 21
134.485835519
 31
0.0
  0
LINE
  5
34F
330
221
100
AcDbEntity
  8
02___PRT_ALL_AXES
  6
Continuous
 62
     7
100
AcDbLine
 10
340.6021276388
 20
94.8190483711
 30
0.0
 11
334.4512489564
 21
98.2212605905
 31
0.0
  0
LINE
  5
350
330
221
100
AcDbEntity
  8
02___PRT_ALL_AXES
  6
Continuous
 62
     7
100
AcDbLine
 10
325.5231809398
 20
104.5359750851
 30
0.0
 11
324.8092977334
 21
104.9767098192
 31
0.0
  0
LINE
  5
351
330
221
100
AcDbEntity
  8
7_ALL_FEATURES
  6
Continuous
 62
     7
100
AcDbLine
 10
323.4022818665
 20
106.0113617316
 30
0.0
 11
322.6006160592
 21
106.5063512987
 31
0.0
  0
LINE
  5
352
330
221
100
AcDbEntity
  8
7_ALL_FEATURES
  6
Continuous
 62
     7
100
AcDbLine
 10
324.8100184363
 20
104.976344826
 30
0.0
 11
322.599967027
 21
106.5067825536
 31
0.0
  0
LINE
  5
353
330
221
100
AcDbEntity
  8
02___PRT_ALL_AXES
  6
Continuous
 62
     7
100
AcDbLine
 10
314.3497078813
 20
134.6652134602
 30
0.0
 11
313.2870211223
 21
145.7223057587
 31
0.0
  0
LINE
  5
354
330
221
100
AcDbEntity
  8
7_ALL_FEATURES
  6
Continuous
 62
     7
100
AcDbLine
 10
316.4153744248
 20
128.6382951101
 30
0.0
 11
316.8036136627
 21
124.5987255472
 31
0.0
  0
LINE
  5
355
330
221
100
AcDbEntity
  8
02___PRT_ALL_AXES
  6
Continuous
 62
     7
100
AcDbLine
 10
340.2036201042
 20
98.9654579831
 30
0.0
 11
334.0527414217
 21
102.3676702024
 31
0.0
  0
LINE
  5
356
330
221
100
AcDbEntity
  8
02___PRT_ALL_AXES
  6
Continuous
 62
     7
100
AcDbLine
 10
320.5399707671
 20
109.4544436841
 30
0.0
 11
319.1667418217
 21
123.7426796739
 31
0.0
  0
LINE
  5
357
330
221
100
AcDbEntity
  8
02___PRT_ALL_AXES
  6
Continuous
 62
     7
100
AcDbLine
 10
317.9589928365
 20
144.1487148383
 30
0.0
 11
317.530812277
 21
148.60386771
 31
0.0
  0
LINE
  5
358
330
221
100
AcDbEntity
  8
02___PRT_ALL_AXES
  6
Continuous
 62
     7
100
AcDbLine
 10
321.6293935344
 20
156.9161126674
 30
0.0
 11
321.509841274
 21
158.160035551
 31
0.0
  0
LINE
  5
359
330
221
100
AcDbEntity
  8
02___PRT_ALL_AXES
  6
Continuous
 62
     7
100
AcDbLine
 10
355.172889445
 20
102.1007497498
 30
0.0
 11
358.3535265938
 21
100.3414559755
 31
0.0
  0
LINE
  5
35A
330
221
100
AcDbEntity
  8
02___PRT_ALL_AXES
  6
Continuous
 62
     7
100
AcDbLine
 10
334.045639586
 20
102.4415637115
 30
0.0
 11
334.0527414217
 21
102.3676702024
 31
0.0
  0
LINE
  5
35B
330
221
100
AcDbEntity
  8
02___PRT_ALL_AXES
  6
Continuous
 62
     7
100
AcDbLine
 10
334.4512489564
 20
98.2212605905
 30
0.0
 11
335.0490102583
 21
92.0016461726
 31
0.0
  0
LINE
  5
35C
330
221
100
AcDbEntity
  8
02___PRT_ALL_AXES
  6
Continuous
 62
     7
100
AcDbLine
 10
336.7475634531
 20
89.9840225887
 30
0.0
 11
336.7444047023
 21
90.016888905
 31
0.0
  0
LINE
  5
35D
330
221
100
AcDbEntity
  8
02___PRT_ALL_AXES
  6
Continuous
 62
     7
100
AcDbLine
 10
337.5548435315
 20
88.6526117843
 30
0.0
 11
337.4884256091
 21
89.343680053
 31
0.0
  0
LINE
  5
35E
330
221
100
AcDbEntity
  8
7_ALL_FEATURES
  6
Continuous
 62
     7
100
AcDbLine
 10
332.0384425937
 20
121.2626301547
 30
0.0
 11
324.2357030791
 21
122.272181138
 31
0.0
  0
LINE
  5
35F
330
221
100
AcDbEntity
  8
02___PRT_ALL_AXES
  6
Continuous
 62
     7
100
AcDbLine
 10
337.4436682968
 20
98.4203441655
 30
0.0
 11
337.2333785705
 21
100.6083764281
 31
0.0
  0
LINE
  5
360
330
221
100
AcDbEntity
  8
02___PRT_ALL_AXES
  6
Continuous
 62
     7
100
AcDbLine
 10
339.0925632022
 20
87.8020587295
 30
0.0
 11
339.0261452797
 21
88.4931269982
 31
0.0
  0
LINE
  5
361
330
221
100
AcDbEntity
  8
02___PRT_ALL_AXES
  6
Continuous
 62
     7
100
AcDbLine
 10
339.8711098295
 20
102.4251762545
 30
0.0
 11
340.2036201042
 21
98.9654579831
 31
0.0
  0
LINE
  5
362
330
221
100
AcDbEntity
  8
02___PRT_ALL_AXES
  6
Continuous
 62
     7
100
AcDbLine
 10
340.6021276388
 20
94.8190483711
 30
0.0
 11
341.1998889407
 21
88.5994339532
 31
0.0
  0
LINE
  5
363
330
221
100
AcDbEntity
  8
7_ALL_FEATURES
  6
Continuous
 62
     7
100
AcDbLine
 10
338.809989552
 20
125.808928438
 30
0.0
 11
339.2048603203
 21
121.7003588202
 31
0.0
  0
LINE
  5
364
330
221
100
AcDbEntity
  8
02___PRT_ALL_AXES
  6
Continuous
 62
     7
100
AcDbLine
 10
345.8808197651
 20
86.9237657819
 30
0.0
 11
345.8144018426
 21
87.6148340506
 31
0.0
  0
LINE
  5
365
330
221
100
AcDbEntity
  8
7_ALL_FEATURES
  6
Continuous
 62
     7
100
AcDbLine
 10
341.7352441459
 20
140.9222215969
 30
0.0
 11
341.0866651729
 21
147.6705860675
 31
0.0
  0
LINE
  5
366
330
221
100
AcDbEntity
  8
7_ALL_FEATURES
  6
Continuous
 62
     7
100
AcDbLine
 10
354.1471782724
 20
124.9254082749
 30
0.0
 11
346.4955702648
 21
122.5450157011
 31
0.0
  0
LINE
  5
367
330
221
100
AcDbEntity
  8
02___PRT_ALL_AXES
  6
Continuous
 62
     7
100
AcDbLine
 10
348.8686044698
 20
87.188790205
 30
0.0
 11
348.8021865473
 21
87.8798584737
 31
0.0
  0
LINE
  5
368
330
221
100
AcDbEntity
  8
02___PRT_ALL_AXES
  6
Continuous
 62
     7
100
AcDbLine
 10
351.69865988
 20
104.7711960734
 30
0.0
 11
352.1547589229
 21
100.0255556756
 31
0.0
  0
LINE
  5
369
330
221
100
AcDbEntity
  8
02___PRT_ALL_AXES
  6
Continuous
 62
     7
100
AcDbLine
 10
352.5532664575
 20
95.8791460636
 30
0.0
 11
353.1510277594
 21
89.6595316457
 31
0.0
  0
LINE
  5
36A
330
221
100
AcDbEntity
  8
02___PRT_ALL_AXES
  6
Continuous
 62
     7
100
AcDbLine
 10
355.5253790779
 20
89.2596930567
 30
0.0
 11
355.4589611554
 21
89.9507613253
 31
0.0
  0
LINE
  5
36B
330
221
100
AcDbEntity
  8
02___PRT_ALL_AXES
  6
Continuous
 62
     7
100
AcDbLine
 10
355.3611072533
 20
100.1423724005
 30
0.0
 11
355.1508079871
 21
102.330503923
 31
0.0
  0
LINE
  5
36C
330
221
100
AcDbEntity
  8
7_ALL_FEATURES
  6
Continuous
 62
     7
100
AcDbLine
 10
351.7481691591
 20
143.9244845414
 30
0.0
 11
351.1552616689
 21
150.0935957943
 31
0.0
  0
LINE
  5
36D
330
221
100
AcDbEntity
  8
02___PRT_ALL_AXES
  6
Continuous
 62
     7
100
AcDbLine
 10
356.9754441119
 20
90.3752705346
 30
0.0
 11
356.9090261895
 21
91.0663388033
 31
0.0
  0
LINE
  5
36E
330
221
100
AcDbEntity
  8
02___PRT_ALL_AXES
  6
Continuous
 62
     7
100
AcDbLine
 10
350.7452318387
 20
159.7144085493
 30
0.0
 11
350.6256795783
 21
160.9583314328
 31
0.0
  0
LINE
  5
36F
330
221
100
AcDbEntity
  8
02___PRT_ALL_AXES
  6
Continuous
 62
     7
100
AcDbLine
 10
357.5978430463
 20
108.2042270709
 30
0.0
 11
357.9550190591
 21
104.4878655874
 31
0.0
  0
LINE
  5
370
330
221
100
AcDbEntity
  8
02___PRT_ALL_AXES
  6
Continuous
 62
     7
100
AcDbLine
 10
358.3535265938
 20
100.3414559755
 30
0.0
 11
358.9512878957
 21
94.1218415575
 31
0.0
  0
LINE
  5
371
330
221
100
AcDbEntity
  8
02___PRT_ALL_AXES
  6
Continuous
 62
     7
100
AcDbLine
 10
334.4512489564
 20
98.2212605905
 30
0.0
 11
337.2554600283
 21
100.3786222549
 31
0.0
  0
LINE
  5
372
330
221
100
AcDbEntity
  8
02___PRT_ALL_AXES
  6
Continuous
 62
     7
100
AcDbLine
 10
356.7801105754
 20
147.8797760141
 30
0.0
 11
356.3534647813
 21
152.318959889
 31
0.0
  0
LINE
  5
373
330
221
100
AcDbEntity
  8
02___PRT_ALL_AXES
  6
Continuous
 62
     7
100
AcDbLine
 10
360.8542084191
 20
113.3290072127
 30
0.0
 11
359.4853704582
 21
127.5715556837
 31
0.0
  0
LINE
  5
374
330
221
100
AcDbEntity
  8
7_ALL_FEATURES
  6
Continuous
 62
     7
100
AcDbLine
 10
360.7810185949
 20
132.6046925527
 30
0.0
 11
361.1722165271
 21
128.5343382305
 31
0.0
  0
LINE
  5
375
330
221
100
AcDbEntity
  8
02___PRT_ALL_AXES
  6
Continuous
 62
     7
100
AcDbLine
 10
362.1295450985
 20
139.2572887534
 30
0.0
 11
361.0668583395
 21
150.314381052
 31
0.0
  0
LINE
  5
376
330
221
100
AcDbEntity
  8
7_ALL_FEATURES
  6
Continuous
 62
     7
100
AcDbLine
 10
361.0522017371
 20
132.8237482659
 30
0.0
 11
361.1636729
 21
130.3234029834
 31
0.0
  0
LINE
  5
377
330
221
100
AcDbEntity
  8
7_ALL_FEATURES
  6
Continuous
 62
     7
100
AcDbLine
 10
357.5152168632
 20
108.1196107693
 30
0.0
 11
359.3933223351
 21
110.0429519324
 31
0.0
  0
LINE
  5
378
330
221
100
AcDbEntity
  8
7_ALL_FEATURES
  6
Continuous
 62
     7
100
AcDbLine
 10
364.1287808347
 20
138.0545301573
 30
0.0
 11
363.9959449898
 21
139.4366666946
 31
0.0
  0
LINE
  5
379
330
221
100
AcDbEntity
  8
02___PRT_ALL_AXES
  6
Continuous
 62
     7
100
AcDbLine
 10
362.4364634251
 20
159.5826289008
 30
0.0
 11
362.3368365414
 21
160.6192313037
 31
0.0
  0
LINE
  5
37A
330
221
100
AcDbEntity
  8
02___PRT_ALL_AXES
  6
Continuous
 62
     7
100
AcDbLine
 10
357.9550190591
 20
104.4878655874
 30
0.0
 11
352.1547589229
 21
100.0255556756
 31
0.0
  0
LINE
  5
37B
330
221
100
AcDbEntity
  8
02___PRT_ALL_AXES
  6
Continuous
 62
     7
100
AcDbLine
 10
358.3535265938
 20
100.3414559755
 30
0.0
 11
352.5532664575
 21
95.8791460636
 31
0.0
  0
LINE
  5
37C
330
221
100
AcDbEntity
  8
7_ALL_FEATURES
  6
Continuous
 62
     7
100
AcDbLine
 10
348.4170616434
 20
163.543360638
 30
0.0
 11
348.9916987227
 21
163.1883202335
 31
0.0
  0
CIRCLE
  5
37D
330
221
100
AcDbEntity
  8
02___PRT_ALL_AXES
  6
Continuous
 62
     7
100
AcDbCircle
 10
91.41151165245594
 20
99.28499430878811
 30
0.0
 40
17.5
  0
CIRCLE
  5
37E
330
221
100
AcDbEntity
  8
7_ALL_FEATURES
  6
Continuous
 62
     9
100
AcDbCircle
 10
91.41151165245594
 20
99.28499430878811
 30
0.0
 40
12.09414360806667
  0
CIRCLE
  5
37F
330
221
100
AcDbEntity
  8
7_ALL_FEATURES
  6
Continuous
 62
     9
100
AcDbCircle
 10
91.41151165245594
 20
99.28499430878811
 30
0.0
 40
11.90498512146667
  0
CIRCLE
  5
380
330
221
100
AcDbEntity
  8
02___PRT_ALL_AXES
  6
Continuous
 62
     7
100
AcDbCircle
 10
91.41151165245594
 20
99.28499430878811
 30
0.0
 40
10.0
  0
CIRCLE
  5
381
330
221
100
AcDbEntity
  8
7_ALL_FEATURES
  6
Continuous
 62
     7
100
AcDbCircle
 10
91.41151165245594
 20
99.28499430878811
 30
0.0
 40
9.75
  0
CIRCLE
  5
382
330
221
100
AcDbEntity
  8
7_ALL_FEATURES
  6
Continuous
 62
     7
100
AcDbCircle
 10
91.41151165245594
 20
99.28499430878811
 30
0.0
 40
9.649999999999999
  0
ARC
  5
383
330
221
100
AcDbEntity
  8
02___PRT_ALL_AXES
  6
Continuous
 62
     7
100
AcDbCircle
 10
96.27959222572261
 20
171.7531083411214
 30
0.0
 40
3.5
100
AcDbArc
 50
270.0
 51
348.4316348940999
  0
ARC
  5
384
330
221
100
AcDbEntity
  8
02___PRT_ALL_AXES
  6
Continuous
 62
     7
100
AcDbCircle
 10
89.27959222572261
 20
171.7531083411214
 30
0.0
 40
3.5
100
AcDbArc
 50
191.5683651059
 51
270.0
  0
ARC
  5
385
330
221
100
AcDbEntity
  8
02___PRT_ALL_AXES
  6
Continuous
 62
     7
100
AcDbCircle
 10
183.3543469444559
 20
171.7531083411214
 30
0.0
 40
3.5
100
AcDbArc
 50
270.0
 51
0.0
  0
ARC
  5
386
330
221
100
AcDbEntity
  8
02___PRT_ALL_AXES
  6
Continuous
 62
     7
100
AcDbCircle
 10
176.3543469444559
 20
171.7531083411214
 30
0.0
 40
3.5
100
AcDbArc
 50
180.0
 51
270.0
  0
ARC
  5
387
330
221
100
AcDbEntity
  8
7_ALL_FEATURES
  6
Continuous
 62
     7
100
AcDbCircle
 10
176.3543469444559
 20
171.7531083411214
 30
0.0
 40
3.5
100
AcDbArc
 50
180.0
 51
270.0
  0
ARC
  5
388
330
221
100
AcDbEntity
  8
7_ALL_FEATURES
  6
Continuous
 62
     7
100
AcDbCircle
 10
183.3543469444559
 20
171.7531083411214
 30
0.0
 40
3.5
100
AcDbArc
 50
270.0
 51
0.0
  0
ARC
  5
389
330
221
100
AcDbEntity
  8
02___PRT_ALL_AXES
  6
Continuous
 62
     7
100
AcDbCircle
 10
337.8338190825
 20
188.8617628892
 30
0.0
 40
40.9997094257
100
AcDbArc
 50
290.4658466049
 51
291.3860245731
  0
ARC
  5
38A
330
221
100
AcDbEntity
  8
7_ALL_FEATURES
  6
Continuous
 62
     7
100
AcDbCircle
 10
322.974706511
 20
140.8196188634
 30
0.0
 40
13.8451742573
100
AcDbArc
 50
241.0525471582
 51
241.4469519278
  0
ARC
  5
38B
330
221
100
AcDbEntity
  8
7_ALL_FEATURES
  6
Continuous
 62
     7
100
AcDbCircle
 10
345.7604418798
 20
158.523530031
 30
0.0
 40
5.674688647
100
AcDbArc
 50
53.4532365273
 51
55.2894107358
  0
ARC
  5
38C
330
221
100
AcDbEntity
  8
7_ALL_FEATURES
  6
Continuous
 62
     7
100
AcDbCircle
 10
326.7437317072
 20
156.7021330522
 30
0.0
 40
5.6664233971
100
AcDbArc
 50
135.6777279647
 51
137.4898001558
  0
ARC
  5
38D
330
221
100
AcDbEntity
  8
7_ALL_FEATURES
  6
Continuous
 62
     7
100
AcDbCircle
 10
326.5246975162
 20
156.9052015345
 30
0.0
 40
5.367743334
100
AcDbArc
 50
137.5078101649
 51
137.8399637147
  0
SPLINE
  5
38E
330
221
100
AcDbEntity
  8
7_ALL_FEATURES
  6
Continuous
 62
     7
100
AcDbSpline
210
0.0
220
0.0
230
1.0
 70
     8
 71
     3
 72
     9
 73
     5
 74
     0
 42
0.000000001
 43
0.0000001
 40
0.0
 40
0.0
 40
0.0
 40
0.0
 40
0.5087258232
 40
1.0
 40
1.0
 40
1.0
 40
1.0
 10
74.2642086575226
 20
200.2531083411214
 30
0.0
 10
74.7152746385226
 20
200.0275753505881
 30
0.0
 10
75.6235636595226
 20
199.6251789932548
 30
0.0
 10
76.58004985212261
 20
199.3473103435215
 30
0.0
 10
77.05785926412261
 20
199.2531083411214
 30
0.0
  0
SPLINE
  5
38F
330
221
100
AcDbEntity
  8
7_ALL_FEATURES
  6
Continuous
 62
     7
100
AcDbSpline
210
0.0
220
0.0
230
1.0
 70
     8
 71
     3
 72
     9
 73
     5
 74
     0
 42
0.000000001
 43
0.0000001
 40
0.0
 40
0.0
 40
0.0
 40
0.0
 40
0.5087258232
 40
1.0
 40
1.0
 40
1.0
 40
1.0
 10
99.98516314992261
 20
200.2531083411214
 30
0.0
 10
100.4362291309226
 20
200.0275753505881
 30
0.0
 10
101.3445181519226
 20
199.6251789932548
 30
0.0
 10
102.3010043445226
 20
199.3473103435215
 30
0.0
 10
102.7788137565226
 20
199.2531083411214
 30
0.0
  0
SPLINE
  5
390
330
221
100
AcDbEntity
  8
7_ALL_FEATURES
  6
Continuous
 62
     7
100
AcDbSpline
210
0.0
220
0.0
230
1.0
 70
     8
 71
     3
 72
     9
 73
     5
 74
     0
 42
0.000000001
 43
0.0000001
 40
0.0
 40
0.0
 40
0.0
 40
0.0
 40
0.4912745816
 40
1.0
 40
1.0
 40
1.0
 40
1.0
 10
105.7651640407893
 20
199.2531083411214
 30
0.0
 10
106.2429738495893
 20
199.3473104217881
 30
0.0
 10
107.1994601278559
 20
199.6251788551214
 30
0.0
 10
108.1077490223226
 20
200.0275755285881
 30
0.0
 10
108.5588146473893
 20
200.2531083411214
 30
0.0
  0
SPLINE
  5
391
330
221
100
AcDbEntity
  8
7_ALL_FEATURES
  6
Continuous
 62
     7
100
AcDbSpline
210
0.0
220
0.0
230
1.0
 70
     8
 71
     3
 72
     9
 73
     5
 74
     0
 42
0.000000001
 43
0.0000001
 40
0.0
 40
0.0
 40
0.0
 40
0.0
 40
0.5000162709
 40
1.0
 40
1.0
 40
1.0
 40
1.0
 10
82.83786015498927
 20
200.2531083411214
 30
0.0
 10
83.7562785389226
 20
200.0235037451214
 30
0.0
 10
85.60662587205594
 20
199.6160525399214
 30
0.0
 10
87.48310508965594
 20
199.3459733889881
 30
0.0
 10
88.42516136818926
 20
199.2531083411214
 30
0.0
  0
SPLINE
  5
392
330
221
100
AcDbEntity
  8
7_ALL_FEATURES
  6
Continuous
 62
     7
100
AcDbSpline
210
0.0
220
0.0
230
1.0
 70
     8
 71
     3
 72
     9
 73
     5
 74
     0
 42
0.000000001
 43
0.0000001
 40
0.0
 40
0.0
 40
0.0
 40
0.0
 40
0.4912745816
 40
1.0
 40
1.0
 40
1.0
 40
1.0
 10
80.04420954838928
 20
199.2531083411214
 30
0.0
 10
80.52201935718927
 20
199.3473104217881
 30
0.0
 10
81.47850563552261
 20
199.6251788551214
 30
0.0
 10
82.38679452992261
 20
200.0275755285881
 30
0.0
 10
82.83786015498927
 20
200.2531083411214
 30
0.0
  0
SPLINE
  5
393
330
221
100
AcDbEntity
  8
7_ALL_FEATURES
  6
Continuous
 62
     7
100
AcDbSpline
210
0.0
220
0.0
230
1.0
 70
     8
 71
     3
 72
     9
 73
     5
 74
     0
 42
0.000000001
 43
0.0000001
 40
0.0
 40
0.0
 40
0.0
 40
0.0
 40
0.4999841479
 40
1.0
 40
1.0
 40
1.0
 40
1.0
 10
94.3978619367226
 20
199.2531083411214
 30
0.0
 10
95.33991900618928
 20
199.3459734669881
 30
0.0
 10
97.21639827218928
 20
199.6160523748548
 30
0.0
 10
99.0667455333226
 20
200.0235039369881
 30
0.0
 10
99.98516314992261
 20
200.2531083411214
 30
0.0
  0
SPLINE
  5
394
330
221
100
AcDbEntity
  8
02___PRT_ALL_AXES
  6
Continuous
 62
     7
100
AcDbSpline
210
0.0
220
0.0
230
1.0
 70
     8
 71
     3
 72
    11
 73
     7
 74
     0
 42
0.000000001
 43
0.0000001
 40
0.0
 40
0.0
 40
0.0
 40
0.0
 40
0.2528641712
 40
0.5038317346
 40
0.7528115376
 40
1.0
 40
1.0
 40
1.0
 40
1.0
 10
92.77959222572261
 20
173.2531083411214
 30
0.0
 10
92.98383852265594
 20
173.1351866865881
 30
0.0
 10
93.39766578625594
 20
172.9117758088548
 30
0.0
 10
94.03857731072262
 20
172.6231868066548
 30
0.0
 10
94.69793624298927
 20
172.3944974133215
 30
0.0
 10
95.15019292478928
 20
172.2906320691881
 30
0.0
 10
95.37766843712261
 20
172.2531083411214
 30
0.0
  0
SPLINE
  5
395
330
221
100
AcDbEntity
  8
02___PRT_ALL_AXES
  6
Continuous
 62
     7
100
AcDbSpline
210
0.0
220
0.0
230
1.0
 70
     8
 71
     3
 72
    11
 73
     7
 74
     0
 42
0.000000001
 43
0.0000001
 40
0.0
 40
0.0
 40
0.0
 40
0.0
 40
0.2528641712
 40
0.5038317346
 40
0.7528115376
 40
1.0
 40
1.0
 40
1.0
 40
1.0
 10
85.85138899545595
 20
173.2531083411214
 30
0.0
 10
86.05563529238927
 20
173.1351866865881
 30
0.0
 10
86.4694625559226
 20
172.9117758088548
 30
0.0
 10
87.11037408045594
 20
172.6231868066548
 30
0.0
 10
87.76973301272261
 20
172.3944974133215
 30
0.0
 10
88.2219896945226
 20
172.2906320691881
 30
0.0
 10
88.44946520685593
 20
172.2531083411214
 30
0.0
  0
SPLINE
  5
396
330
221
100
AcDbEntity
  8
02___PRT_ALL_AXES
  6
Continuous
 62
     7
100
AcDbSpline
210
0.0
220
0.0
230
1.0
 70
     8
 71
     3
 72
    11
 73
     7
 74
     0
 42
0.000000001
 43
0.0000001
 40
0.0
 40
0.0
 40
0.0
 40
0.0
 40
0.2471884812
 40
0.4961682871
 40
0.7471358372
 40
1.0
 40
1.0
 40
1.0
 40
1.0
 10
90.18151601438927
 20
172.2531083411214
 30
0.0
 10
90.40899154398927
 20
172.2906320720548
 30
0.0
 10
90.86124824525595
 20
172.3944974223881
 30
0.0
 10
91.5206071823226
 20
172.6231868257215
 30
0.0
 10
92.16151868878927
 20
172.9117758244548
 30
0.0
 10
92.57534593558927
 20
173.1351866905214
 30
0.0
 10
92.77959222572261
 20
173.2531083411214
 30
0.0
  0
SPLINE
  5
397
330
221
100
AcDbEntity
  8
02___PRT_ALL_AXES
  6
Continuous
 62
     7
100
AcDbSpline
210
0.0
220
0.0
230
1.0
 70
     8
 71
     3
 72
    19
 73
    15
 74
     0
 42
0.000000001
 43
0.0000001
 40
0.0
 40
0.0
 40
0.0
 40
0.0
 40
0.067939647
 40
0.1343369129
 40
0.1986396402
 40
0.2610648807
 40
0.3817414899
 40
0.5000607139
 40
0.6183763092
 40
0.739024176
 40
0.8014382043
 40
0.865725454
 40
0.9320917545
 40
1.0
 40
1.0
 40
1.0
 40
1.0
 10
88.44946520685593
 20
171.7531083411214
 30
0.0
 10
88.44946520685593
 20
171.6972226905881
 30
0.0
 10
88.46585204365594
 20
171.5860777257881
 30
0.0
 10
88.53402682398928
 20
171.4356178385215
 30
0.0
 10
88.63343985878927
 20
171.3099310748548
 30
0.0
 10
88.79088374038928
 20
171.1791892413215
 30
0.0
 10
89.02087495498927
 20
171.0745489363881
 30
0.0
 10
89.31564017598927
 20
171.0345704519881
 30
0.0
 10
89.61036889965594
 20
171.0746348767215
 30
0.0
 10
89.84029971252261
 20
171.1793142798548
 30
0.0
 10
89.9976788017226
 20
171.3100641679214
 30
0.0
 10
90.09702172765594
 20
171.4357451585881
 30
0.0
 10
90.16514273578927
 20
171.5861555499881
 30
0.0
 10
90.18151601438927
 20
171.6972485207881
 30
0.0
 10
90.18151601438927
 20
171.7531083411214
 30
0.0
  0
SPLINE
  5
398
330
221
100
AcDbEntity
  8
02___PRT_ALL_AXES
  6
Continuous
 62
     7
100
AcDbSpline
210
0.0
220
0.0
230
1.0
 70
     8
 71
     3
 72
    11
 73
     7
 74
     0
 42
0.000000001
 43
0.0000001
 40
0.0
 40
0.0
 40
0.0
 40
0.0
 40
0.2471884812
 40
0.4961682871
 40
0.7471358372
 40
1.0
 40
1.0
 40
1.0
 40
1.0
 10
97.10971924465593
 20
172.2531083411214
 30
0.0
 10
97.33719477425595
 20
172.2906320720548
 30
0.0
 10
97.78945147552261
 20
172.3944974223881
 30
0.0
 10
98.44881041258927
 20
172.6231868257215
 30
0.0
 10
99.08972191905593
 20
172.9117758244548
 30
0.0
 10
99.50354916585594
 20
173.1351866905214
 30
0.0
 10
99.70779545605595
 20
173.2531083411214
 30
0.0
  0
SPLINE
  5
399
330
221
100
AcDbEntity
  8
02___PRT_ALL_AXES
  6
Continuous
 62
     7
100
AcDbSpline
210
0.0
220
0.0
230
1.0
 70
     8
 71
     3
 72
    19
 73
    15
 74
     0
 42
0.000000001
 43
0.0000001
 40
0.0
 40
0.0
 40
0.0
 40
0.0
 40
0.0679313718
 40
0.134330414
 40
0.1986328954
 40
0.2610542132
 40
0.3817238737
 40
0.5000536105
 40
0.6183773004
 40
0.7390372629
 40
0.8014553941
 40
0.8657396837
 40
0.9320963707
 40
1.0
 40
1.0
 40
1.0
 40
1.0
 10
95.37766843712261
 20
171.7531083411214
 30
0.0
 10
95.37766843712261
 20
171.6972294896548
 30
0.0
 10
95.39405417785593
 20
171.5860904777215
 30
0.0
 10
95.46221947945594
 20
171.4356324015214
 30
0.0
 10
95.56162904205594
 20
171.3099449148548
 30
0.0
 10
95.71906336965594
 20
171.1792065647881
 30
0.0
 10
95.94904803572261
 20
171.0745534191215
 30
0.0
 10
96.24382370578928
 20
171.0345697121881
 30
0.0
 10
96.53857805272261
 20
171.0746335268548
 30
0.0
 10
96.76852764492261
 20
171.1793243093881
 30
0.0
 10
96.92590864958927
 20
171.3100899197881
 30
0.0
 10
97.02523738238928
 20
171.4357728101214
 30
0.0
 10
97.09334957125594
 20
171.5861707971881
 30
0.0
 10
97.10971924465593
 20
171.6972523099881
 30
0.0
 10
97.10971924465593
 20
171.7531083411214
 30
0.0
  0
SPLINE
  5
39A
330
221
100
AcDbEntity
  8
7_ALL_FEATURES
  6
Continuous
 62
     7
100
AcDbSpline
210
0.0
220
0.0
230
1.0
 70
     8
 71
     3
 72
     9
 73
     5
 74
     0
 42
0.000000001
 43
0.0000001
 40
0.0
 40
0.0
 40
0.0
 40
0.0
 40
0.4989342551
 40
1.0
 40
1.0
 40
1.0
 40
1.0
 10
171.2568316720559
 20
199.2531083411214
 30
0.0
 10
172.0740239909892
 20
199.3461267877881
 30
0.0
 10
173.702963268056
 20
199.6171398743881
 30
0.0
 10
175.3019977221226
 20
200.0240218917881
 30
0.0
 10
176.0955764612559
 20
200.2531083411214
 30
0.0
  0
SPLINE
  5
39B
330
221
100
AcDbEntity
  8
7_ALL_FEATURES
  6
Continuous
 62
     7
100
AcDbSpline
210
0.0
220
0.0
230
1.0
 70
     8
 71
     3
 72
     9
 73
     5
 74
     0
 42
0.000000001
 43
0.0000001
 40
0.0
 40
0.0
 40
0.0
 40
0.0
 40
0.5010661619
 40
1.0
 40
1.0
 40
1.0
 40
1.0
 10
176.0955764612559
 20
200.2531083411214
 30
0.0
 10
176.8891558589226
 20
200.0240217017214
 30
0.0
 10
178.488190394856
 20
199.6171400360548
 30
0.0
 10
180.1171296167893
 20
199.3461267097881
 30
0.0
 10
180.9343212505226
 20
199.2531083411214
 30
0.0
  0
SPLINE
  5
39C
330
221
100
AcDbEntity
  8
7_ALL_FEATURES
  6
Continuous
 62
     7
100
AcDbSpline
210
0.0
220
0.0
230
1.0
 70
     8
 71
     3
 72
     9
 73
     5
 74
     0
 42
0.000000001
 43
0.0000001
 40
0.0
 40
0.0
 40
0.0
 40
0.0
 40
0.5010661619
 40
1.0
 40
1.0
 40
1.0
 40
1.0
 10
161.245576461256
 20
200.2531083411214
 30
0.0
 10
162.0391558589226
 20
200.0240217017214
 30
0.0
 10
163.6381903948559
 20
199.6171400360548
 30
0.0
 10
165.2671296167892
 20
199.3461267097881
 30
0.0
 10
166.0843212505226
 20
199.2531083411214
 30
0.0
  0
SPLINE
  5
39D
330
221
100
AcDbEntity
  8
7_ALL_FEATURES
  6
Continuous
 62
     7
100
AcDbSpline
210
0.0
220
0.0
230
1.0
 70
     8
 71
     3
 72
     9
 73
     5
 74
     0
 42
0.000000001
 43
0.0000001
 40
0.0
 40
0.0
 40
0.0
 40
0.0
 40
0.4989342551
 40
1.0
 40
1.0
 40
1.0
 40
1.0
 10
186.1068316720559
 20
199.2531083411214
 30
0.0
 10
186.9240239909893
 20
199.3461267877881
 30
0.0
 10
188.5529632680559
 20
199.6171398743881
 30
0.0
 10
190.1519977221226
 20
200.0240218917881
 30
0.0
 10
190.9455764612559
 20
200.2531083411214
 30
0.0
  0
SPLINE
  5
39E
330
221
100
AcDbEntity
  8
02___PRT_ALL_AXES
  6
Continuous
 62
     7
100
AcDbSpline
210
0.0
220
0.0
230
1.0
 70
     8
 71
     3
 72
    20
 73
    16
 74
     0
 42
0.000000001
 43
0.0000001
 40
0.0
 40
0.0
 40
0.0
 40
0.0
 40
0.1682137895
 40
0.2403238102
 40
0.303496996
 40
0.3592400191
 40
0.4093817795
 40
0.4557855263
 40
0.5003228983
 40
0.5448629749
 40
0.5912692525
 40
0.6965871816
 40
0.7597574691
 40
0.8318591079
 40
1.0
 40
1.0
 40
1.0
 40
1.0
 10
185.3543469444559
 20
171.7531083411214
 30
0.0
 10
185.3543469444559
 20
171.6464980087881
 30
0.0
 10
185.3785774455893
 20
171.4921304884548
 30
0.0
 10
185.4572701930559
 20
171.3158177661215
 30
0.0
 10
185.5258176417226
 20
171.2151569914548
 30
0.0
 10
185.6022735523226
 20
171.1391152993881
 30
0.0
 10
185.6837933193226
 20
171.0860775005215
 30
0.0
 10
185.7683808129893
 20
171.0547699777881
 30
0.0
 10
185.8544342639226
 20
171.0444108395214
 30
0.0
 10
185.9404969635226
 20
171.0548129872548
 30
0.0
 10
186.0580975897893
 20
171.0983630800548
 30
0.0
 10
186.1655110167226
 20
171.1893565337215
 30
0.0
 10
186.251426223456
 20
171.3159027743214
 30
0.0
 10
186.3301850917226
 20
171.4922692630548
 30
0.0
 10
186.3543469444559
 20
171.6465442096548
 30
0.0
 10
186.3543469444559
 20
171.7531083411214
 30
0.0
  0
SPLINE
  5
39F
330
221
100
AcDbEntity
  8
02___PRT_ALL_AXES
  6
Continuous
 62
     7
100
AcDbSpline
210
0.0
220
0.0
230
1.0
 70
     8
 71
     3
 72
    11
 73
     7
 74
     0
 42
0.000000001
 43
0.0000001
 40
0.0
 40
0.0
 40
0.0
 40
0.0
 40
0.2699449571
 40
0.5270499909
 40
0.7701654741
 40
1.0
 40
1.0
 40
1.0
 40
1.0
 10
171.8543469444559
 20
173.2531083411214
 30
0.0
 10
171.9701729093226
 20
173.1372823761881
 30
0.0
 10
172.2037075239893
 20
172.9182820647881
 30
0.0
 10
172.5722181253226
 20
172.6295234191881
 30
0.0
 10
172.9522188959893
 20
172.3993364190548
 30
0.0
 10
173.2202493211893
 20
172.2914219477881
 30
0.0
 10
173.3543469444559
 20
172.2531083411214
 30
0.0
  0
SPLINE
  5
3A0
330
221
100
AcDbEntity
  8
02___PRT_ALL_AXES
  6
Continuous
 62
     7
100
AcDbSpline
210
0.0
220
0.0
230
1.0
 70
     8
 71
     3
 72
    11
 73
     7
 74
     0
 42
0.000000001
 43
0.0000001
 40
0.0
 40
0.0
 40
0.0
 40
0.0
 40
0.2500103617
 40
0.5000189242
 40
0.7500124732
 40
1.0
 40
1.0
 40
1.0
 40
1.0
 10
175.8543469444559
 20
173.2531083411214
 30
0.0
 10
176.0910196221226
 20
173.1347720022548
 30
0.0
 10
176.5707871345226
 20
172.9105872667881
 30
0.0
 10
177.3110778516559
 20
172.6221502688548
 30
0.0
 10
178.0722951212559
 20
172.3937998657215
 30
0.0
 10
178.5924222172559
 20
172.2905261593214
 30
0.0
 10
178.8543469444559
 20
172.2531083411214
 30
0.0
  0
SPLINE
  5
3A1
330
221
100
AcDbEntity
  8
02___PRT_ALL_AXES
  6
Continuous
 62
     7
100
AcDbSpline
210
0.0
220
0.0
230
1.0
 70
     8
 71
     3
 72
    11
 73
     7
 74
     0
 42
0.000000001
 43
0.0000001
 40
0.0
 40
0.0
 40
0.0
 40
0.0
 40
0.2499875457
 40
0.4999810974
 40
0.7499896465
 40
1.0
 40
1.0
 40
1.0
 40
1.0
 10
180.8543469444559
 20
172.2531083411214
 30
0.0
 10
181.1162716913893
 20
172.2905261621215
 30
0.0
 10
181.6363988096559
 20
172.3937998747215
 30
0.0
 10
182.3976160853226
 20
172.6221502879214
 30
0.0
 10
183.1379067819226
 20
172.9105872825214
 30
0.0
 10
183.6176742745226
 20
173.1347720061881
 30
0.0
 10
183.8543469444559
 20
173.2531083411214
 30
0.0
  0
SPLINE
  5
3A2
330
221
100
AcDbEntity
  8
02___PRT_ALL_AXES
  6
Continuous
 62
     7
100
AcDbSpline
210
0.0
220
0.0
230
1.0
 70
     8
 71
     3
 72
    19
 73
    15
 74
     0
 42
0.000000001
 43
0.0000001
 40
0.0
 40
0.0
 40
0.0
 40
0.0
 40
0.062499569
 40
0.1250450196
 40
0.1876243679
 40
0.2502137548
 40
0.3750836247
 40
0.5000591496
 40
0.6250261711
 40
0.7498800617
 40
0.8124624827
 40
0.8750225901
 40
0.9375286272
 40
1.0
 40
1.0
 40
1.0
 40
1.0
 10
178.8543469444559
 20
171.7531083411214
 30
0.0
 10
178.8543469444559
 20
171.6970347293881
 30
0.0
 10
178.8738560594559
 20
171.5840456355214
 30
0.0
 10
178.9536400295893
 20
171.4333232522548
 30
0.0
 10
179.0686994841226
 20
171.3082735433881
 30
0.0
 10
179.2521431837893
 20
171.1771076773215
 30
0.0
 10
179.5175431211226
 20
171.0739769260548
 30
0.0
 10
179.854500832256
 20
171.0347205035214
 30
0.0
 10
180.1914326653226
 20
171.0740582155881
 30
0.0
 10
180.4567868521226
 20
171.1772265333881
 30
0.0
 10
180.6401684793226
 20
171.3084176896548
 30
0.0
 10
180.7551392493226
 20
171.4334677188548
 30
0.0
 10
180.834857025056
 20
171.5841318221881
 30
0.0
 10
180.8543469444559
 20
171.6970600265215
 30
0.0
 10
180.8543469444559
 20
171.7531083411214
 30
0.0
  0
SPLINE
  5
3A3
330
221
100
AcDbEntity
  8
02___PRT_ALL_AXES
  6
Continuous
 62
     7
100
AcDbSpline
210
0.0
220
0.0
230
1.0
 70
     8
 71
     3
 72
    11
 73
     7
 74
     0
 42
0.000000001
 43
0.0000001
 40
0.0
 40
0.0
 40
0.0
 40
0.0
 40
0.2699449571
 40
0.5270499909
 40
0.7701654741
 40
1.0
 40
1.0
 40
1.0
 40
1.0
 10
183.8543469444559
 20
173.2531083411214
 30
0.0
 10
183.9701729093226
 20
173.1372823761881
 30
0.0
 10
184.2037075239893
 20
172.9182820647881
 30
0.0
 10
184.5722181253226
 20
172.6295234191881
 30
0.0
 10
184.9522188959893
 20
172.3993364190548
 30
0.0
 10
185.2202493211893
 20
172.2914219477881
 30
0.0
 10
185.3543469444559
 20
172.2531083411214
 30
0.0
  0
SPLINE
  5
3A4
330
221
100
AcDbEntity
  8
02___PRT_ALL_AXES
  6
Continuous
 62
     7
100
AcDbSpline
210
0.0
220
0.0
230
1.0
 70
     8
 71
     3
 72
    11
 73
     7
 74
     0
 42
0.000000001
 43
0.0000001
 40
0.0
 40
0.0
 40
0.0
 40
0.0
 40
0.2298345438
 40
0.4729500311
 40
0.7300550521
 40
1.0
 40
1.0
 40
1.0
 40
1.0
 10
174.3543469444559
 20
172.2531083411214
 30
0.0
 10
174.4884445781226
 20
172.2914219507215
 30
0.0
 10
174.7564750152559
 20
172.3993364289215
 30
0.0
 10
175.136475786856
 20
172.6295234379881
 30
0.0
 10
175.5049863772559
 20
172.9182820793214
 30
0.0
 10
175.7385209834559
 20
173.1372823801881
 30
0.0
 10
175.8543469444559
 20
173.2531083411214
 30
0.0
  0
SPLINE
  5
3A5
330
221
100
AcDbEntity
  8
02___PRT_ALL_AXES
  6
Continuous
 62
     7
100
AcDbSpline
210
0.0
220
0.0
230
1.0
 70
     8
 71
     3
 72
    19
 73
    15
 74
     0
 42
0.000000001
 43
0.0000001
 40
0.0
 40
0.0
 40
0.0
 40
0.0
 40
0.1683000113
 40
0.2404505744
 40
0.3036556532
 40
0.4090388234
 40
0.4554737865
 40
0.5000393211
 40
0.5446067335
 40
0.591042408
 40
0.696430429
 40
0.7596418824
 40
0.8317824151
 40
1.0
 40
1.0
 40
1.0
 40
1.0
 10
173.3543469444559
 20
171.7531083411214
 30
0.0
 10
173.3543469444559
 20
171.6465026659214
 30
0.0
 10
173.3785198091892
 20
171.4921762393215
 30
0.0
 10
173.4573368855893
 20
171.3157825163215
 30
0.0
 10
173.5432846389226
 20
171.1892496525215
 30
0.0
 10
173.6507215095893
 20
171.0982619960548
 30
0.0
 10
173.7683570707892
 20
171.0547842946548
 30
0.0
 10
173.8544248809226
 20
171.0444082154548
 30
0.0
 10
173.9404921665226
 20
171.0548113031215
 30
0.0
 10
174.0581042096559
 20
171.0983643130548
 30
0.0
 10
174.165526998456
 20
171.1893694485215
 30
0.0
 10
174.2514412233226
 20
171.3159290679881
 30
0.0
 10
174.3301873475226
 20
171.4922925853215
 30
0.0
 10
174.3543469444559
 20
171.6465548769881
 30
0.0
 10
174.3543469444559
 20
171.7531083411214
 30
0.0
  0
SPLINE
  5
3A6
330
221
100
AcDbEntity
  8
02___PRT_ALL_AXES
  6
Continuous
 62
     7
100
AcDbSpline
210
0.0
220
0.0
230
1.0
 70
     8
 71
     3
 72
    11
 73
     7
 74
     0
 42
0.000000001
 43
0.0000001
 40
0.0
 40
0.0
 40
0.0
 40
0.0
 40
0.2298345438
 40
0.4729500311
 40
0.7300550521
 40
1.0
 40
1.0
 40
1.0
 40
1.0
 10
186.3543469444559
 20
172.2531083411214
 30
0.0
 10
186.4884445781226
 20
172.2914219507215
 30
0.0
 10
186.7564750152559
 20
172.3993364289215
 30
0.0
 10
187.136475786856
 20
172.6295234379881
 30
0.0
 10
187.5049863772559
 20
172.9182820793214
 30
0.0
 10
187.7385209834559
 20
173.1372823801881
 30
0.0
 10
187.8543469444559
 20
173.2531083411214
 30
0.0
  0
SPLINE
  5
3A7
330
221
100
AcDbEntity
  8
0
  6
Continuous
 62
     2
100
AcDbSpline
 70
     0
 71
     3
 72
   330
 73
   326
 74
     0
 42
0.000000001
 43
0.0000001
 40
0.0
 40
0.0
 40
0.0
 40
0.0
 40
0.015625
 40
0.03125
 40
0.046875
 40
0.0546875
 40
0.0625
 40
0.0703125
 40
0.07421875
 40
0.078125
 40
0.080078125
 40
0.08203125
 40
0.083984375
 40
0.0859375
 40
0.0869140625
 40
0.087890625
 40
0.0888671875
 40
0.0893554688
 40
0.08984375
 40
0.0903320312
 40
0.0905761719
 40
0.0908203125
 40
0.0913085938
 40
0.091796875
 40
0.0922851562
 40
0.0927734375
 40
0.09375
 40
0.0947265625
 40
0.095703125
 40
0.09765625
 40
0.1015625
 40
0.10546875
 40
0.109375
 40
0.11328125
 40
0.1171875
 40
0.125
 40
0.1328125
 40
0.140625
 40
0.1484375
 40
0.15625
 40
0.16015625
 40
0.1640625
 40
0.16796875
 40
0.171875
 40
0.173828125
 40
0.17578125
 40
0.177734375
 40
0.1787109375
 40
0.1796875
 40
0.1801757812
 40
0.1806640625
 40
0.1811523438
 40
0.1813964844
 40
0.181640625
 40
0.1817626953
 40
0.1818237305
 40
0.1818847656
 40
0.1820068359
 40
0.1821289062
 40
0.1826171875
 40
0.18359375
 40
0.1845703125
 40
0.185546875
 40
0.1875
 40
0.189453125
 40
0.19140625
 40
0.1953125
 40
0.203125
 40
0.2109375
 40
0.21875
 40
0.2265625
 40
0.234375
 40
0.2421875
 40
0.25
 40
0.25390625
 40
0.2578125
 40
0.26171875
 40
0.265625
 40
0.267578125
 40
0.26953125
 40
0.2705078125
 40
0.271484375
 40
0.2719726562
 40
0.2724609375
 40
0.2725830078
 40
0.2727050781
 40
0.2729492188
 40
0.2734375
 40
0.2744140625
 40
0.275390625
 40
0.2763671875
 40
0.27734375
 40
0.279296875
 40
0.28125
 40
0.28515625
 40
0.2890625
 40
0.29296875
 40
0.296875
 40
0.3046875
 40
0.3125
 40
0.3203125
 40
0.328125
 40
0.3359375
 40
0.34375
 40
0.34765625
 40
0.3515625
 40
0.353515625
 40
0.35546875
 40
0.357421875
 40
0.359375
 40
0.3603515625
 40
0.361328125
 40
0.3623046875
 40
0.3627929688
 40
0.36328125
 40
0.3635253906
 40
0.3636474609
 40
0.3637695312
 40
0.3640136719
 40
0.3642578125
 40
0.3647460938
 40
0.365234375
 40
0.3671875
 40
0.369140625
 40
0.37109375
 40
0.375
 40
0.37890625
 40
0.3828125
 40
0.38671875
 40
0.390625
 40
0.3984375
 40
0.40625
 40
0.4140625
 40
0.421875
 40
0.4296875
 40
0.43359375
 40
0.4375
 40
0.44140625
 40
0.4453125
 40
0.447265625
 40
0.44921875
 40
0.451171875
 40
0.453125
 40
0.4536132812
 40
0.4541015625
 40
0.4543457031
 40
0.4545898438
 40
0.4548339844
 40
0.455078125
 40
0.4555664062
 40
0.4560546875
 40
0.45703125
 40
0.4580078125
 40
0.458984375
 40
0.4609375
 40
0.46484375
 40
0.46875
 40
0.4765625
 40
0.484375
 40
0.4921875
 40
0.5
 40
0.5078125
 40
0.515625
 40
0.5234375
 40
0.53125
 40
0.53515625
 40
0.5390625
 40
0.541015625
 40
0.5419921875
 40
0.54296875
 40
0.5439453125
 40
0.5444335938
 40
0.544921875
 40
0.5451660156
 40
0.5454101562
 40
0.5456542969
 40
0.5458984375
 40
0.5463867188
 40
0.546875
 40
0.5478515625
 40
0.548828125
 40
0.55078125
 40
0.552734375
 40
0.5546875
 40
0.55859375
 40
0.5625
 40
0.56640625
 40
0.5703125
 40
0.578125
 40
0.5859375
 40
0.59375
 40
0.6015625
 40
0.609375
 40
0.61328125
 40
0.6171875
 40
0.62109375
 40
0.625
 40
0.62890625
 40
0.630859375
 40
0.6328125
 40
0.634765625
 40
0.6352539062
 40
0.6357421875
 40
0.6359863281
 40
0.6362304688
 40
0.6363525391
 40
0.6364746094
 40
0.63671875
 40
0.6372070312
 40
0.6376953125
 40
0.638671875
 40
0.6396484375
 40
0.640625
 40
0.642578125
 40
0.64453125
 40
0.646484375
 40
0.6484375
 40
0.65234375
 40
0.65625
 40
0.6640625
 40
0.671875
 40
0.6796875
 40
0.6875
 40
0.6953125
 40
0.703125
 40
0.70703125
 40
0.7109375
 40
0.71484375
 40
0.716796875
 40
0.71875
 40
0.720703125
 40
0.72265625
 40
0.7236328125
 40
0.724609375
 40
0.7255859375
 40
0.7265625
 40
0.7268066406
 40
0.7270507812
 40
0.7272949219
 40
0.7274169922
 40
0.7275390625
 40
0.7280273438
 40
0.728515625
 40
0.7294921875
 40
0.73046875
 40
0.732421875
 40
0.734375
 40
0.73828125
 40
0.7421875
 40
0.74609375
 40
0.75
 40
0.7578125
 40
0.765625
 40
0.7734375
 40
0.78125
 40
0.7890625
 40
0.796875
 40
0.80078125
 40
0.8046875
 40
0.80859375
 40
0.810546875
 40
0.8125
 40
0.814453125
 40
0.8154296875
 40
0.81640625
 40
0.8168945312
 40
0.8173828125
 40
0.8178710938
 40
0.8179931641
 40
0.8181152344
 40
0.8181762695
 40
0.8182373047
 40
0.818359375
 40
0.8186035156
 40
0.8188476562
 40
0.8193359375
 40
0.8198242188
 40
0.8203125
 40
0.8212890625
 40
0.822265625
 40
0.82421875
 40
0.826171875
 40
0.828125
 40
0.83203125
 40
0.8359375
 40
0.83984375
 40
0.84375
 40
0.8515625
 40
0.859375
 40
0.8671875
 40
0.875
 40
0.8828125
 40
0.88671875
 40
0.890625
 40
0.89453125
 40
0.8984375
 40
0.90234375
 40
0.904296875
 40
0.9052734375
 40
0.90625
 40
0.9072265625
 40
0.9077148438
 40
0.908203125
 40
0.9086914062
 40
0.9091796875
 40
0.9094238281
 40
0.9096679688
 40
0.91015625
 40
0.9106445312
 40
0.9111328125
 40
0.912109375
 40
0.9130859375
 40
0.9140625
 40
0.916015625
 40
0.91796875
 40
0.919921875
 40
0.921875
 40
0.92578125
 40
0.9296875
 40
0.9375
 40
0.9453125
 40
0.953125
 40
0.96875
 40
0.984375
 40
1.0
 40
1.0
 40
1.0
 40
1.0
 10
324.1092482429
 20
105.5195659883
 30
0.0
 10
324.2412590852
 20
105.462815698
 30
0.0
 10
324.5052807696
 20
105.3493151174
 30
0.0
 10
324.9013132963
 20
105.1790642466
 30
0.0
 10
325.2313404019
 20
105.0371885208
 30
0.0
 10
325.4953620863
 20
104.9236879403
 30
0.0
 10
325.6933783497
 20
104.8385625049
 30
0.0
 10
325.8583919022
 20
104.7676246419
 30
0.0
 10
325.9904027451
 20
104.7108743519
 30
0.0
 10
326.0729095197
 20
104.6754054197
 30
0.0
 10
326.1389149445
 20
104.647030276
 30
0.0
 10
326.1884189991
 20
104.6257489129
 30
0.0
 10
326.2379231072
 20
104.6044675699
 30
0.0
 10
326.2791763638
 20
104.5867330549
 30
0.0
 10
326.3121793426
 20
104.5725455829
 30
0.0
 10
326.3369305564
 20
104.5619045963
 30
0.0
 10
326.3575598135
 20
104.5530383242
 30
0.0
 10
326.3740559397
 20
104.5459425778
 30
0.0
 10
326.3864479253
 20
104.5406282242
 30
0.0
 10
326.3967113102
 20
104.5361758792
 30
0.0
 10
326.40506392
 20
104.5326671959
 30
0.0
 10
326.4128995382
 20
104.5289647153
 30
0.0
 10
326.4263941204
 20
104.5257236034
 30
0.0
 10
326.4419763544
 20
104.521605133
 30
0.0
 10
326.4577221149
 20
104.5175479615
 30
0.0
 10
326.4786593404
 20
104.512116987
 30
0.0
 10
326.5048504703
 20
104.5053356153
 30
0.0
 10
326.5362714383
 20
104.4971948251
 30
0.0
 10
326.5781689881
 20
104.4863415348
 30
0.0
 10
326.6514883371
 20
104.4673477658
 30
0.0
 10
326.7562309771
 20
104.4402140774
 30
0.0
 10
326.8819218395
 20
104.4076535367
 30
0.0
 10
327.0076127837
 20
104.3750930267
 30
0.0
 10
327.133303706
 20
104.3425325084
 30
0.0
 10
327.3008916101
 20
104.299118487
 30
0.0
 10
327.5103764876
 20
104.2448509593
 30
0.0
 10
327.7617583417
 20
104.1797299264
 30
0.0
 10
328.0131401955
 20
104.1146088934
 30
0.0
 10
328.2645220494
 20
104.0494878604
 30
0.0
 10
328.4740069276
 20
103.9952203329
 30
0.0
 10
328.6415948303
 20
103.9518063109
 30
0.0
 10
328.767285757
 20
103.9192457943
 30
0.0
 10
328.8929766848
 20
103.8866852783
 30
0.0
 10
328.9977191213
 20
103.859551513
 30
0.0
 10
329.0815130779
 20
103.8378445052
 30
0.0
 10
329.1443585254
 20
103.8215642373
 30
0.0
 10
329.1967297948
 20
103.8079973856
 30
0.0
 10
329.2386266687
 20
103.7971438184
 30
0.0
 10
329.2648125374
 20
103.7903605346
 30
0.0
 10
329.2857604937
 20
103.7849334594
 30
0.0
 10
329.3014734835
 20
103.7808643798
 30
0.0
 10
329.3145612075
 20
103.7774695777
 30
0.0
 10
329.3250458174
 20
103.7747624884
 30
0.0
 10
329.3315658391
 20
103.7730506278
 30
0.0
 10
329.3361957024
 20
103.7718922635
 30
0.0
 10
329.3387383139
 20
103.7711678546
 30
0.0
 10
329.3418958205
 20
103.770816391
 30
0.0
 10
329.3456325509
 20
103.7702495999
 30
0.0
 10
329.3547734867
 20
103.7689940974
 30
0.0
 10
329.3744778656
 20
103.7662125943
 30
0.0
 10
329.4048605216
 20
103.7619747397
 30
0.0
 10
329.4412905053
 20
103.7568716017
 30
0.0
 10
329.489874018
 20
103.7500736048
 30
0.0
 10
329.550599909
 20
103.7415739861
 30
0.0
 10
329.6234724762
 20
103.731375352
 30
0.0
 10
329.7206353765
 20
103.7177768564
 30
0.0
 10
329.8906706956
 20
103.6939796368
 30
0.0
 10
330.1335781669
 20
103.6599835316
 30
0.0
 10
330.4250671871
 20
103.6191882384
 30
0.0
 10
330.7165561927
 20
103.5783929363
 30
0.0
 10
331.0080452022
 20
103.5375976366
 30
0.0
 10
331.2995342105
 20
103.496802336
 30
0.0
 10
331.5910232201
 20
103.4560070369
 30
0.0
 10
331.8339307245
 20
103.4220109502
 30
0.0
 10
332.0282567359
 20
103.3948140898
 30
0.0
 10
332.1740012232
 20
103.3744164201
 30
0.0
 10
332.3197457915
 20
103.3540188438
 30
0.0
 10
332.4411993462
 20
103.3370205723
 30
0.0
 10
332.5383627547
 20
103.3234226075
 30
0.0
 10
332.5990885992
 20
103.3149223939
 30
0.0
 10
332.6476722195
 20
103.3081256255
 30
0.0
 10
332.6780302635
 20
103.303869882
 30
0.0
 10
332.7023320874
 20
103.3004830683
 30
0.0
 10
332.7159702621
 20
103.2985414715
 30
0.0
 10
332.7251126429
 20
103.2973051522
 30
0.0
 10
332.7310875702
 20
103.2963422917
 30
0.0
 10
332.7427684359
 20
103.2960724299
 30
0.0
 10
332.7654991067
 20
103.2948035395
 30
0.0
 10
332.7983014672
 20
103.2933721111
 30
0.0
 10
332.8375228502
 20
103.2914909573
 30
0.0
 10
332.8767820738
 20
103.2896535269
 30
0.0
 10
332.9291144883
 20
103.287188348
 30
0.0
 10
332.994534532
 20
103.2841121035
 30
0.0
 10
333.0992040725
 20
103.2791871896
 30
0.0
 10
333.230041866
 20
103.2730320502
 30
0.0
 10
333.3870468462
 20
103.2656454529
 30
0.0
 10
333.544051926
 20
103.2582589707
 30
0.0
 10
333.7533919975
 20
103.2484102876
 30
0.0
 10
334.0150670989
 20
103.2360994475
 30
0.0
 10
334.3290772155
 20
103.2213264334
 30
0.0
 10
334.6430873334
 20
103.2065534209
 30
0.0
 10
334.957097451
 20
103.1917804081
 30
0.0
 10
335.2711075684
 20
103.177007395
 30
0.0
 10
335.5327826671
 20
103.1646965519
 30
0.0
 10
335.7421227441
 20
103.1548478749
 30
0.0
 10
335.8729602968
 20
103.1486924575
 30
0.0
 10
335.9776303284
 20
103.1437681104
 30
0.0
 10
336.0561328809
 20
103.1400748862
 30
0.0
 10
336.1346353239
 20
103.1363815239
 30
0.0
 10
336.2000543672
 20
103.1333041524
 30
0.0
 10
336.2523888385
 20
103.1308412912
 30
0.0
 10
336.2916417777
 20
103.1289967793
 30
0.0
 10
336.3243459262
 20
103.1274513076
 30
0.0
 10
336.3505241239
 20
103.1262337213
 30
0.0
 10
336.3668516173
 20
103.1254299416
 30
0.0
 10
336.3783487564
 20
103.1249530407
 30
0.0
 10
336.384812325
 20
103.1245463711
 30
0.0
 10
336.3919098565
 20
103.1249403514
 30
0.0
 10
336.4005647049
 20
103.1251586879
 30
0.0
 10
336.4145337588
 20
103.1256612151
 30
0.0
 10
336.4319536166
 20
103.1262370136
 30
0.0
 10
336.4737953984
 20
103.1276620249
 30
0.0
 10
336.5365437414
 20
103.1297814446
 30
0.0
 10
336.6202163769
 20
103.1326176659
 30
0.0
 10
336.7317770341
 20
103.1363956864
 30
0.0
 10
336.8712288359
 20
103.1411194501
 30
0.0
 10
337.0385705778
 20
103.1467874358
 30
0.0
 10
337.2059124322
 20
103.1524555637
 30
0.0
 10
337.3732542566
 20
103.1581236535
 30
0.0
 10
337.5963766996
 20
103.1656811199
 30
0.0
 10
337.8752797498
 20
103.1751279484
 30
0.0
 10
338.2099634115
 20
103.1864641445
 30
0.0
 10
338.5446470728
 20
103.19780034
 30
0.0
 10
338.8793307343
 20
103.2091365359
 30
0.0
 10
339.1582337854
 20
103.218583365
 30
0.0
 10
339.3813562264
 20
103.22614083
 30
0.0
 10
339.5486980569
 20
103.2318089242
 30
0.0
 10
339.7160398884
 20
103.2374770354
 30
0.0
 10
339.8554914113
 20
103.2422004087
 30
0.0
 10
339.9670526373
 20
103.2459792254
 30
0.0
 10
340.0507235358
 20
103.2488130152
 30
0.0
 10
340.1343945145
 20
103.2516480371
 30
0.0
 10
340.1971475236
 20
103.2537708491
 30
0.0
 10
340.2389832128
 20
103.2551914295
 30
0.0
 10
340.2564142295
 20
103.2557753436
 30
0.0
 10
340.2703602569
 20
103.2562611242
 30
0.0
 10
340.2808164477
 20
103.2565743082
 30
0.0
 10
340.2913433447
 20
103.2579736572
 30
0.0
 10
340.3053545111
 20
103.2594600811
 30
0.0
 10
340.3228769251
 20
103.2614480093
 30
0.0
 10
340.3509080615
 20
103.2645560942
 30
0.0
 10
340.3859486035
 20
103.2684661089
 30
0.0
 10
340.4279965599
 20
103.2731474658
 30
0.0
 10
340.4840607439
 20
103.2793929936
 30
0.0
 10
340.582172953
 20
103.290320935
 30
0.0
 10
340.7223333106
 20
103.3059331836
 30
0.0
 10
340.9465898499
 20
103.3309122762
 30
0.0
 10
341.2269105353
 20
103.3621363154
 30
0.0
 10
341.563295353
 20
103.399605088
 30
0.0
 10
341.8996801719
 20
103.4370738807
 30
0.0
 10
342.2360649906
 20
103.4745426676
 30
0.0
 10
342.5724498087
 20
103.5120114574
 30
0.0
 10
342.9088346293
 20
103.5494802417
 30
0.0
 10
343.2452194407
 20
103.5869490449
 30
0.0
 10
343.5255401455
 20
103.6181729892
 30
0.0
 10
343.7497966453
 20
103.6431522752
 30
0.0
 10
343.8899571032
 20
103.6587640317
 30
0.0
 10
343.9880691323
 20
103.6696928569
 30
0.0
 10
344.0441336049
 20
103.675936968
 30
0.0
 10
344.0861806745
 20
103.6806226768
 30
0.0
 10
344.1212239922
 20
103.6845190706
 30
0.0
 10
344.1492494655
 20
103.6876549454
 30
0.0
 10
344.1667862919
 20
103.6895721496
 30
0.0
 10
344.1807678748
 20
103.6912037452
 30
0.0
 10
344.1913851533
 20
103.6921595755
 30
0.0
 10
344.2015020056
 20
103.6941379554
 30
0.0
 10
344.2150225672
 20
103.6967115822
 30
0.0
 10
344.2319125093
 20
103.6999506022
 30
0.0
 10
344.2589424299
 20
103.705120747
 30
0.0
 10
344.2927277716
 20
103.7115876352
 30
0.0
 10
344.3467854692
 20
103.7219323049
 30
0.0
 10
344.4143571963
 20
103.7348639487
 30
0.0
 10
344.4954434378
 20
103.750381576
 30
0.0
 10
344.6035583675
 20
103.7710718664
 30
0.0
 10
344.7387020499
 20
103.796934688
 30
0.0
 10
344.9008744601
 20
103.8279700916
 30
0.0
 10
345.0630468725
 20
103.8590054905
 30
0.0
 10
345.279276755
 20
103.900386024
 30
0.0
 10
345.5495641084
 20
103.9521116903
 30
0.0
 10
345.8739089324
 20
104.0141824901
 30
0.0
 10
346.1982537563
 20
104.0762532899
 30
0.0
 10
346.5225985808
 20
104.1383240893
 30
0.0
 10
346.7928859326
 20
104.1900497568
 30
0.0
 10
347.0091158183
 20
104.2314302879
 30
0.0
 10
347.171288221
 20
104.2624656941
 30
0.0
 10
347.3334606677
 20
104.2935010704
 30
0.0
 10
347.4956329502
 20
104.3245365582
 30
0.0
 10
347.6307770298
 20
104.3503991182
 30
0.0
 10
347.7388911494
 20
104.3710899419
 30
0.0
 10
347.8199798648
 20
104.3866059406
 30
0.0
 10
347.8807874532
 20
104.3982490059
 30
0.0
 10
347.9213397824
 20
104.4060016012
 30
0.0
 10
347.9382158435
 20
104.4092459112
 30
0.0
 10
347.9517650812
 20
104.4118085552
 30
0.0
 10
347.9601227542
 20
104.4134851869
 30
0.0
 10
347.9670622367
 20
104.4146547431
 30
0.0
 10
347.9730768231
 20
104.4164513129
 30
0.0
 10
347.9838735523
 20
104.4194114538
 30
0.0
 10
347.9991559499
 20
104.4237361544
 30
0.0
 10
348.0236868711
 20
104.4306020611
 30
0.0
 10
348.0543233889
 20
104.4392028393
 30
0.0
 10
348.0910988245
 20
104.4495158995
 30
0.0
 10
348.1401286816
 20
104.4632693969
 30
0.0
 10
348.201417395
 20
104.4804603247
 30
0.0
 10
348.2749632544
 20
104.5010898428
 30
0.0
 10
348.3485092735
 20
104.5217192526
 30
0.0
 10
348.4465705765
 20
104.5492251701
 30
0.0
 10
348.5691472243
 20
104.5836075541
 30
0.0
 10
348.7652698501
 20
104.6386193757
 30
0.0
 10
349.0104231361
 20
104.7073841503
 30
0.0
 10
349.3046070777
 20
104.7899018808
 30
0.0
 10
349.5987910197
 20
104.872419611
 30
0.0
 10
349.8929749616
 20
104.9549373413
 30
0.0
 10
350.1871589034
 20
105.0374550717
 30
0.0
 10
350.4323121887
 20
105.1062198467
 30
0.0
 10
350.628434816
 20
105.1612316673
 30
0.0
 10
350.7755267889
 20
105.2024905312
 30
0.0
 10
350.8981034253
 20
105.2368729227
 30
0.0
 10
350.9961647517
 20
105.264378825
 30
0.0
 10
351.0697106992
 20
105.2850082813
 30
0.0
 10
351.1432568272
 20
105.3056376247
 30
0.0
 10
351.2045447049
 20
105.3228290961
 30
0.0
 10
351.2535762664
 20
105.336581485
 30
0.0
 10
351.2903464967
 20
105.3468979303
 30
0.0
 10
351.327129861
 20
105.3572061549
 30
0.0
 10
351.3546805626
 20
105.3649603704
 30
0.0
 10
351.3731049621
 20
105.3700940046
 30
0.0
 10
351.3822149056
 20
105.372724825
 30
0.0
 10
351.390137835
 20
105.3747098049
 30
0.0
 10
351.3954603579
 20
105.3769336018
 30
0.0
 10
351.4037053932
 20
105.3801057775
 30
0.0
 10
351.4159635099
 20
105.3849325383
 30
0.0
 10
351.4378372613
 20
105.3934624071
 30
0.0
 10
351.4651515301
 20
105.4041422189
 30
0.0
 10
351.5088699634
 20
105.4212201514
 30
0.0
 10
351.5635126625
 20
105.4425709111
 30
0.0
 10
351.6509439671
 20
105.4767302576
 30
0.0
 10
351.7602320732
 20
105.519430082
 30
0.0
 10
351.8913782397
 20
105.5706695964
 30
0.0
 10
352.0225242887
 20
105.6219091844
 30
0.0
 10
352.1973857284
 20
105.6902286093
 30
0.0
 10
352.415962514
 20
105.7756278993
 30
0.0
 10
352.6782546627
 20
105.8781070434
 30
0.0
 10
352.9405468098
 20
105.9805861886
 30
0.0
 10
353.2028389574
 20
106.0830653335
 30
0.0
 10
353.4651311046
 20
106.1855444786
 30
0.0
 10
353.683707895
 20
106.2709437658
 30
0.0
 10
353.8585693249
 20
106.3392631963
 30
0.0
 10
353.9897154038
 20
106.3905027672
 30
0.0
 10
354.0990037822
 20
106.433202416
 30
0.0
 10
354.1864345315
 20
106.4673621208
 30
0.0
 10
354.2520074659
 20
106.492981938
 30
0.0
 10
354.3066519839
 20
106.514331663
 30
0.0
 10
354.3503666877
 20
106.5314117182
 30
0.0
 10
354.3776904512
 20
106.5420861261
 30
0.0
 10
354.3995447129
 20
106.5506270873
 30
0.0
 10
354.4159484122
 20
106.5570288795
 30
0.0
 10
354.4282139585
 20
106.5618414719
 30
0.0
 10
354.4364489729
 20
106.5650323474
 30
0.0
 10
354.4397939308
 20
106.5663879535
 30
0.0
 10
354.4426712142
 20
106.5674116111
 30
0.0
 10
354.4448122679
 20
106.5686577181
 30
0.0
 10
354.4487749821
 20
106.570773181
 30
0.0
 10
354.4543233712
 20
106.5738293019
 30
0.0
 10
354.4632637433
 20
106.5787000754
 30
0.0
 10
354.4744176108
 20
106.5847950679
 30
0.0
 10
354.4878114963
 20
106.5921062658
 30
0.0
 10
354.5056667814
 20
106.6018555052
 30
0.0
 10
354.5279869934
 20
106.6140417204
 30
0.0
 10
354.5636987146
 20
106.6335398514
 30
0.0
 10
354.6083385781
 20
106.6579124511
 30
0.0
 10
354.6619063235
 20
106.6871595982
 30
0.0
 10
354.7333300158
 20
106.7261557847
 30
0.0
 10
354.8226096203
 20
106.7749010211
 30
0.0
 10
354.9297451504
 20
106.8333953034
 30
0.0
 10
355.0368806792
 20
106.891889586
 30
0.0
 10
355.1797280514
 20
106.9698819628
 30
0.0
 10
355.3582872665
 20
107.0673724338
 30
0.0
 10
355.5725583247
 20
107.184360999
 30
0.0
 10
355.7868293828
 20
107.3013495642
 30
0.0
 10
356.0011004413
 20
107.4183381293
 30
0.0
 10
356.1796596556
 20
107.5158286005
 30
0.0
 10
356.3225070294
 20
107.593820977
 30
0.0
 10
356.4296425535
 20
107.6523152604
 30
0.0
 10
356.5367781011
 20
107.7108095399
 30
0.0
 10
356.6439135613
 20
107.7693038341
 30
0.0
 10
356.733193383
 20
107.8180490335
 30
0.0
 10
356.7956887262
 20
107.8521707628
 30
0.0
 10
356.8314011815
 20
107.8716687537
 30
0.0
 10
356.8581831831
 20
107.8862926415
 30
0.0
 10
356.8805089711
 20
107.8984779576
 30
0.0
 10
356.8983528836
 20
107.9082290303
 30
0.0
 10
356.9117814996
 20
107.9155346297
 30
0.0
 10
356.925035748
 20
107.9228696394
 30
0.0
 10
356.9366241124
 20
107.9288905342
 30
0.0
 10
356.9427385176
 20
107.934239614
 30
0.0
 10
356.9494041888
 20
107.939495713
 30
0.0
 10
356.9575471411
 20
107.9460977379
 30
0.0
 10
356.9673996409
 20
107.954006513
 30
0.0
 10
356.980508028
 20
107.9645563163
 30
0.0
 10
356.9969032144
 20
107.9777419339
 30
0.0
 10
357.016573285
 20
107.9935653755
 30
0.0
 10
357.0428014965
 20
108.0146630529
 30
0.0
 10
357.0755862632
 20
108.0410352337
 30
0.0
 10
357.1149281965
 20
108.0726818146
 30
0.0
 10
357.1542700727
 20
108.1043284052
 30
0.0
 10
357.2067259277
 20
108.1465238559
 30
0.0
 10
357.2722957395
 20
108.1992681705
 30
0.0
 10
357.3772074423
 20
108.2836590731
 30
0.0
 10
357.5083470694
 20
108.3891477016
 30
0.0
 10
357.6657146225
 20
108.5157340558
 30
0.0
 10
357.8755380265
 20
108.6845158613
 30
0.0
 10
358.1378172816
 20
108.8954931182
 30
0.0
 10
358.4525523876
 20
109.1486658265
 30
0.0
 10
358.6623757916
 20
109.317447632
 30
0.0
 10
358.7672874936
 20
109.4018385348
 30
0.0
  0
SPLINE
  5
3A8
330
221
100
AcDbEntity
  8
0
  6
Continuous
 62
     2
100
AcDbSpline
 70
     0
 71
     3
 72
    52
 73
    48
 74
     0
 42
0.000000001
 43
0.0000001
 40
0.0
 40
0.0
 40
0.0
 40
0.0
 40
0.0625
 40
0.09375
 40
0.109375
 40
0.125
 40
0.140625
 40
0.15625
 40
0.16015625
 40
0.1640625
 40
0.166015625
 40
0.16796875
 40
0.171875
 40
0.1796875
 40
0.1875
 40
0.203125
 40
0.21875
 40
0.25
 40
0.28125
 40
0.3125
 40
0.34375
 40
0.375
 40
0.4375
 40
0.46875
 40
0.5
 40
0.53125
 40
0.5625
 40
0.625
 40
0.65625
 40
0.6875
 40
0.71875
 40
0.75
 40
0.78125
 40
0.796875
 40
0.8125
 40
0.8203125
 40
0.828125
 40
0.83203125
 40
0.8359375
 40
0.83984375
 40
0.84375
 40
0.859375
 40
0.875
 40
0.890625
 40
0.90625
 40
0.9375
 40
1.0
 40
1.0
 40
1.0
 40
1.0
 10
323.336655678
 20
105.9966332873
 30
0.0
 10
323.3480027783
 20
105.9888904897
 30
0.0
 10
323.3650232533
 20
105.9772763982
 30
0.0
 10
323.3848810883
 20
105.963726258
 30
0.0
 10
323.3962275452
 20
105.9559838447
 30
0.0
 10
323.4047398445
 20
105.9501755678
 30
0.0
 10
323.413242756
 20
105.9443728966
 30
0.0
 10
323.4196462607
 20
105.9400051761
 30
0.0
 10
323.423874329
 20
105.9371178059
 30
0.0
 10
323.4256969375
 20
105.9358783618
 30
0.0
 10
323.4270129257
 20
105.9349716577
 30
0.0
 10
323.4288485776
 20
105.9337546475
 30
0.0
 10
323.4323024166
 20
105.9314807042
 30
0.0
 10
323.4371104953
 20
105.9283074368
 30
0.0
 10
323.4448738319
 20
105.9231881733
 30
0.0
 10
323.4545538315
 20
105.9168034694
 30
0.0
 10
323.4700557045
 20
105.9065800112
 30
0.0
 10
323.4894256778
 20
105.8938026761
 30
0.0
 10
323.5126842016
 20
105.8784722312
 30
0.0
 10
323.535896291
 20
105.8631291773
 30
0.0
 10
323.559279562
 20
105.8478342022
 30
0.0
 10
323.5912839656
 20
105.8276738321
 30
0.0
 10
323.6230190469
 20
105.8074373399
 30
0.0
 10
323.6549420633
 20
105.7872545163
 30
0.0
 10
323.6785898428
 20
105.772032515
 30
0.0
 10
323.703321586
 20
105.7571232139
 30
0.0
 10
323.7359048027
 20
105.7371308415
 30
0.0
 10
323.7686747372
 20
105.717192894
 30
0.0
 10
323.8011788489
 20
105.6971766503
 30
0.0
 10
323.8261676832
 20
105.6823449311
 30
0.0
 10
323.8513253477
 20
105.66756281
 30
0.0
 10
323.8764364009
 20
105.6527679851
 30
0.0
 10
323.897376958
 20
105.6404399783
 30
0.0
 10
323.9141174786
 20
105.6305814914
 30
0.0
 10
323.9246027768
 20
105.6244096338
 30
0.0
 10
323.9329400619
 20
105.619495896
 30
0.0
 10
323.9382670123
 20
105.6163705908
 30
0.0
 10
323.9422625578
 20
105.6139945353
 30
0.0
 10
323.9459875732
 20
105.6118724592
 30
0.0
 10
323.9499166878
 20
105.6096550989
 30
0.0
 10
323.9576699277
 20
105.6052693929
 30
0.0
 10
323.9693438842
 20
105.5986702471
 30
0.0
 10
323.9848839558
 20
105.5898831526
 30
0.0
 10
324.0004307694
 20
105.5810929105
 30
0.0
 10
324.0211575019
 20
105.5693736859
 30
0.0
 10
324.0574303864
 20
105.5488645281
 30
0.0
 10
324.0885210521
 20
105.5312854265
 30
0.0
 10
324.1092482467
 20
105.5195659862
 30
0.0
  0
SPLINE
  5
3A9
330
221
100
AcDbEntity
  8
7_ALL_FEATURES
  6
Continuous
 62
     7
100
AcDbSpline
 70
     0
 71
     3
 72
    24
 73
    20
 74
     0
 42
0.000000001
 43
0.0000001
 40
0.0
 40
0.0
 40
0.0
 40
0.0
 40
0.0225663526
 40
0.0467431655
 40
0.0997485283
 40
0.158591565
 40
0.2225633179
 40
0.2907588563
 40
0.3621375242
 40
0.435562699
 40
0.5098398145
 40
0.5837506244
 40
0.6560870063
 40
0.7256850041
 40
0.7914606555
 40
0.8524498319
 40
0.9078563878
 40
0.957117112
 40
1.0
 40
1.0
 40
1.0
 40
1.0
 10
348.4170616434
 20
163.543360638
 30
0.0
 10
348.239568635
 20
163.6415366731
 30
0.0
 10
347.8638067857
 20
163.8304471688
 30
0.0
 10
347.0375461143
 20
164.1797727571
 30
0.0
 10
345.8713305691
 20
164.5551073705
 30
0.0
 10
344.327825486
 20
164.9017527014
 30
0.0
 10
342.6276620353
 20
165.1508756629
 30
0.0
 10
340.8028544879
 20
165.2975795963
 30
0.0
 10
338.8877581799
 20
165.3389204813
 30
0.0
 10
336.9187074569
 20
165.2739821027
 30
0.0
 10
334.9331235232
 20
165.1039358301
 30
0.0
 10
332.9687785926
 20
164.8320042025
 30
0.0
 10
331.0630179022
 20
164.4634007564
 30
0.0
 10
329.2520077361
 20
164.0052267443
 30
0.0
 10
327.569953231
 20
163.4662914792
 30
0.0
 10
326.048436751
 20
162.8569800235
 30
0.0
 10
324.7153675835
 20
162.1886342473
 30
0.0
 10
323.5951934434
 20
161.4739151181
 30
0.0
 10
322.9591340215
 20
160.9370126196
 30
0.0
 10
322.6898523295
 20
160.6612258909
 30
0.0
  0
SPLINE
  5
3AA
330
221
100
AcDbEntity
  8
7_ALL_FEATURES
  6
Continuous
 62
     7
100
AcDbSpline
 70
     0
 71
     3
 72
    12
 73
     8
 74
     0
 42
0.000000001
 43
0.0000001
 40
0.0
 40
0.0
 40
0.0
 40
0.0
 40
0.2897269404
 40
0.5474017769
 40
0.7803150154
 40
0.891047255
 40
1.0
 40
1.0
 40
1.0
 40
1.0
 10
322.564932341
 20
160.5332970285
 30
0.0
 10
322.3842354255
 20
160.3482609716
 30
0.0
 10
322.0646365696
 20
159.9756037364
 30
0.0
 10
321.7076340406
 20
159.3726611345
 30
0.0
 10
321.5406450732
 20
158.856220788
 30
0.0
 10
321.4954820933
 20
158.4536496579
 30
0.0
 10
321.5005543097
 20
158.2568499602
 30
0.0
 10
321.5098546846
 20
158.1600368398
 30
0.0
  0
SPLINE
  5
3AB
330
221
100
AcDbEntity
  8
7_ALL_FEATURES
  6
Continuous
 62
     7
100
AcDbSpline
 70
     0
 71
     3
 72
    12
 73
     8
 74
     0
 42
0.000000001
 43
0.0000001
 40
0.0
 40
0.0
 40
0.0
 40
0.0
 40
0.2897906063
 40
0.5474313579
 40
0.7803225805
 40
0.891053024
 40
1.0
 40
1.0
 40
1.0
 40
1.0
 10
349.1378605538
 20
163.0871905547
 30
0.0
 10
349.3505362265
 20
162.939917571
 30
0.0
 10
349.7353247126
 20
162.6349855452
 30
0.0
 10
350.2006175383
 20
162.1110301525
 30
0.0
 10
350.4628110086
 20
161.635859713
 30
0.0
 10
350.5838781843
 20
161.2493020654
 30
0.0
 10
350.6163662049
 20
161.0551389739
 30
0.0
 10
350.6256661677
 20
160.958330144
 30
0.0
  0
SPLINE
  5
3AC
330
221
100
AcDbEntity
  8
02___PRT_ALL_AXES
  6
Continuous
 62
     7
100
AcDbSpline
 70
     0
 71
     3
 72
     9
 73
     5
 74
     0
 42
0.000000001
 43
0.0000001
 40
0.0
 40
0.0
 40
0.0
 40
0.0
 40
0.2480538615
 40
1.0
 40
1.0
 40
1.0
 40
1.0
 10
321.6294014038
 20
156.9160385137
 30
0.0
 10
321.6337186119
 20
156.8711272113
 30
0.0
 10
321.6569512658
 20
156.6906644576
 30
0.0
 10
321.7038469563
 20
156.5133757545
 30
0.0
 10
321.7506934427
 20
156.3848779441
 30
0.0
  0
SPLINE
  5
3AD
330
221
100
AcDbEntity
  8
7_ALL_FEATURES
  6
Continuous
 62
     7
100
AcDbSpline
 70
     0
 71
     3
 72
    14
 73
    10
 74
     0
 42
0.000000001
 43
0.0000001
 40
0.0
 40
0.0
 40
0.0
 40
0.0
 40
0.1040649521
 40
0.2105566403
 40
0.3216938168
 40
0.4393726819
 40
0.5651120195
 40
0.7000638558
 40
1.0
 40
1.0
 40
1.0
 40
1.0
 10
321.5098546846
 20
158.1600368398
 30
0.0
 10
321.5210012084
 20
158.0440060604
 30
0.0
 10
321.5634077124
 20
157.8106891952
 30
0.0
 10
321.6855276351
 20
157.4701424427
 30
0.0
 10
321.8652493421
 20
157.1388170004
 30
0.0
 10
322.1014639256
 20
156.8181960401
 30
0.0
 10
322.3928796491
 20
156.5091887288
 30
0.0
 10
322.8701682139
 20
156.099760968
 30
0.0
 10
323.2830781827
 20
155.8359777885
 30
0.0
 10
323.5770659374
 20
155.6733654557
 30
0.0
  0
SPLINE
  5
3AE
330
221
100
AcDbEntity
  8
02___PRT_ALL_AXES
  6
Continuous
 62
     7
100
AcDbSpline
 70
     0
 71
     3
 72
     9
 73
     5
 74
     0
 42
0.000000001
 43
0.0000001
 40
0.0
 40
0.0
 40
0.0
 40
0.0
 40
0.496286276
 40
1.0
 40
1.0
 40
1.0
 40
1.0
 10
350.7452239693
 20
159.714482703
 30
0.0
 10
350.7541248203
 20
159.6218884137
 30
0.0
 10
350.7595660723
 20
159.4339064073
 30
0.0
 10
350.740236495
 20
159.2468876475
 30
0.0
 10
350.7247170595
 20
159.1537586339
 30
0.0
  0
SPLINE
  5
3AF
330
221
100
AcDbEntity
  8
7_ALL_FEATURES
  6
Continuous
 62
     7
100
AcDbSpline
 70
     0
 71
     3
 72
    32
 73
    28
 74
     0
 42
0.000000001
 43
0.0000001
 40
0.0
 40
0.0
 40
0.0
 40
0.0
 40
0.0153120947
 40
0.0312255285
 40
0.0482624432
 40
0.0668249405
 40
0.0871871045
 40
0.1095165149
 40
0.1338918169
 40
0.1603257851
 40
0.1887780381
 40
0.2191666841
 40
0.2513775728
 40
0.2852678639
 40
0.357399942
 40
0.4340632818
 40
0.5135434973
 40
0.594012012
 40
0.6736014332
 40
0.7504789624
 40
0.8229211765
 40
0.8569989585
 40
0.8894149304
 40
0.9200223987
 40
0.9487075593
 40
0.9753878201
 40
1.0
 40
1.0
 40
1.0
 40
1.0
 10
350.6256661677
 20
160.958330144
 30
0.0
 10
350.6402716086
 20
160.8062934444
 30
0.0
 10
350.635635273
 20
160.4919533471
 30
0.0
 10
350.5263695919
 20
160.0199286788
 30
0.0
 10
350.3177559326
 20
159.5474635419
 30
0.0
 10
350.0125911011
 20
159.07771056
 30
0.0
 10
349.6138339134
 20
158.6128142676
 30
0.0
 10
349.1242323523
 20
158.1552881408
 30
0.0
 10
348.5470627119
 20
157.7076573977
 30
0.0
 10
347.8860254402
 20
157.2726998959
 30
0.0
 10
347.145435385
 20
156.8531946314
 30
0.0
 10
346.3301802955
 20
156.4518800256
 30
0.0
 10
345.4456534333
 20
156.0714691845
 30
0.0
 10
344.1548730798
 20
155.5854136778
 30
0.0
 10
342.410123203
 20
155.0525167597
 30
0.0
 10
340.1888577955
 20
154.5442431376
 30
0.0
 10
337.8571503794
 20
154.168486568
 30
0.0
 10
335.4776582982
 20
153.9354509267
 30
0.0
 10
333.1141439031
 20
153.8513851498
 30
0.0
 10
330.8301446077
 20
153.9184496933
 30
0.0
 10
329.0079698907
 20
154.1019231246
 30
0.0
 10
327.6401673448
 20
154.3274102164
 30
0.0
 10
326.6922794139
 20
154.5283566954
 30
0.0
 10
325.8076962735
 20
154.763150033
 30
0.0
 10
324.992204829
 20
155.0302541783
 30
0.0
 10
324.2514105604
 20
155.3279334839
 30
0.0
 10
323.7918962817
 20
155.5545371613
 30
0.0
 10
323.5770659374
 20
155.6733654557
 30
0.0
  0
SPLINE
  5
3B0
330
221
100
AcDbEntity
  8
7_ALL_FEATURES
  6
Continuous
 62
     7
100
AcDbSpline
 70
     0
 71
     3
 72
    18
 73
    14
 74
     0
 42
0.000000001
 43
0.0000001
 40
0.0
 40
0.0
 40
0.0
 40
0.0
 40
0.137071313
 40
0.2584496791
 40
0.3147954655
 40
0.3692134453
 40
0.4226297821
 40
0.4760338314
 40
0.5304170691
 40
0.5867029223
 40
0.7079003734
 40
0.8447778438
 40
1.0
 40
1.0
 40
1.0
 40
1.0
 10
322.5457346334
 20
160.5080508065
 30
0.0
 10
322.3689400625
 20
160.3127973389
 30
0.0
 10
322.0613574965
 20
159.9193329478
 30
0.0
 10
321.7896082435
 20
159.3723477962
 30
0.0
 10
321.6720706763
 20
158.9407112748
 30
0.0
 10
321.6318783195
 20
158.6266915514
 30
0.0
 10
321.637864557
 20
158.3157699333
 30
0.0
 10
321.6900193136
 20
158.0092587002
 30
0.0
 10
321.788189499
 20
157.7084949199
 30
0.0
 10
321.9841315419
 20
157.306940755
 30
0.0
 10
322.3533280869
 20
156.8212171988
 30
0.0
 10
322.9542887884
 20
156.296274672
 30
0.0
 10
323.430879132
 20
155.9958067341
 30
0.0
 10
323.69189204
 20
155.8514336533
 30
0.0
  0
SPLINE
  5
3B1
330
221
100
AcDbEntity
  8
7_ALL_FEATURES
  6
Continuous
 62
     7
100
AcDbSpline
 70
     0
 71
     3
 72
    34
 73
    30
 74
     0
 42
0.000000001
 43
0.0000001
 40
0.0
 40
0.0
 40
0.0
 40
0.0
 40
0.0211162977
 40
0.0401244542
 40
0.0574894882
 40
0.073873929
 40
0.0900967167
 40
0.1070075286
 40
0.1253375723
 40
0.1456222177
 40
0.1681980844
 40
0.193239214
 40
0.220798314
 40
0.2508341896
 40
0.2832370668
 40
0.3178437453
 40
0.3544466767
 40
0.3928057039
 40
0.4736810016
 40
0.5581125243
 40
0.6435306934
 40
0.727314803
 40
0.8069292895
 40
0.8444492412
 40
0.8800901976
 40
0.9136265738
 40
0.9448714354
 40
0.9736942885
 40
1.0
 40
1.0
 40
1.0
 40
1.0
 10
349.1395979716
 20
163.0824109625
 30
0.0
 10
349.3209736104
 20
162.9478790282
 30
0.0
 10
349.6504952936
 20
162.6702922681
 30
0.0
 10
350.0524060107
 20
162.2007702349
 30
0.0
 10
350.3288653583
 20
161.7037566837
 30
0.0
 10
350.4735320973
 20
161.1835607283
 30
0.0
 10
350.4817156686
 20
160.6483326013
 30
0.0
 10
350.3543435989
 20
160.1078293019
 30
0.0
 10
350.096578808
 20
159.5687317865
 30
0.0
 10
349.7135352903
 20
159.0348329131
 30
0.0
 10
349.2097162209
 20
158.5092003689
 30
0.0
 10
348.5896560631
 20
157.9952468022
 30
0.0
 10
347.8585375641
 20
157.4969146738
 30
0.0
 10
347.0225999936
 20
157.0182426155
 30
0.0
 10
346.0890398031
 20
156.5633494972
 30
0.0
 10
345.0659992481
 20
156.1362892163
 30
0.0
 10
343.9625086891
 20
155.7407837707
 30
0.0
 10
342.3687914117
 20
155.251785276
 30
0.0
 10
340.2471269782
 20
154.7480785022
 30
0.0
 10
337.5970967067
 20
154.3253077429
 30
0.0
 10
334.8926080969
 20
154.0892844775
 30
0.0
 10
332.2297481157
 20
154.0483593728
 30
0.0
 10
330.0823829543
 20
154.1799896479
 30
0.0
 10
328.4615212355
 20
154.3894780364
 30
0.0
 10
327.3378553513
 20
154.5908103799
 30
0.0
 10
326.2920217848
 20
154.8374609877
 30
0.0
 10
325.3330888863
 20
155.127347441
 30
0.0
 10
324.4696575208
 20
155.4578967254
 30
0.0
 10
323.9380631791
 20
155.7152699439
 30
0.0
 10
323.69189204
 20
155.8514336533
 30
0.0
  0
SPLINE
  5
3B2
330
221
100
AcDbEntity
  8
02___PRT_ALL_AXES
  6
Continuous
 62
     7
100
AcDbSpline
 70
     0
 71
     3
 72
    15
 73
    11
 74
     0
 42
0.000000001
 43
0.0000001
 40
0.0
 40
0.0
 40
0.0
 40
0.0
 40
0.1262570558
 40
0.2490473733
 40
0.3702676204
 40
0.492328826
 40
0.6166129798
 40
0.7431377163
 40
0.8712070227
 40
1.0
 40
1.0
 40
1.0
 40
1.0
 10
351.4499473382
 20
84.4870531237
 30
0.0
 10
351.8749518271
 20
84.6192707606
 30
0.0
 10
352.7025394701
 20
84.9170099709
 30
0.0
 10
353.8807425046
 20
85.4851444776
 30
0.0
 10
354.9668715759
 20
86.1897338577
 30
0.0
 10
355.9384595622
 20
87.0561021985
 30
0.0
 10
356.7520627903
 20
88.0987974486
 30
0.0
 10
357.3499267211
 20
89.3044339645
 30
0.0
 10
357.6782464202
 20
90.6264810186
 30
0.0
 10
357.694679037
 20
91.5411022914
 30
0.0
 10
357.6512422356
 20
91.9930555295
 30
0.0
  0
SPLINE
  5
3B3
330
221
100
AcDbEntity
  8
02___PRT_ALL_AXES
  6
Continuous
 62
     7
100
AcDbSpline
 70
     0
 71
     3
 72
    23
 73
    19
 74
     0
 42
0.000000001
 43
0.0000001
 40
0.0
 40
0.0
 40
0.0
 40
0.0
 40
0.0629270113
 40
0.1256202859
 40
0.1878095118
 40
0.2492263626
 40
0.3096778452
 40
0.3692397059
 40
0.4284072805
 40
0.4879513964
 40
0.5486499894
 40
0.6109403558
 40
0.6748603515
 40
0.7400589141
 40
0.8059083677
 40
0.8716273608
 40
0.9365487407
 40
1.0
 40
1.0
 40
1.0
 40
1.0
 10
336.7475634531
 20
89.9840225887
 30
0.0
 10
336.7833736555
 20
89.6114229399
 30
0.0
 10
336.9251160005
 20
88.8724738826
 30
0.0
 10
337.3373819733
 20
87.827642796
 30
0.0
 10
337.9267820782
 20
86.8821507489
 30
0.0
 10
338.6613119168
 20
86.0633038507
 30
0.0
 10
339.5051605664
 20
85.3836801746
 30
0.0
 10
340.4262098104
 20
84.8408037275
 30
0.0
 10
341.4028677989
 20
84.4214448062
 30
0.0
 10
342.4251246554
 20
84.1088777754
 30
0.0
 10
343.4895898951
 20
83.8881672463
 30
0.0
 10
344.5938867548
 20
83.7503885229
 30
0.0
 10
345.7317208234
 20
83.6897985977
 30
0.0
 10
346.8921668541
 20
83.7037581013
 30
0.0
 10
348.0601358047
 20
83.7904295588
 30
0.0
 10
349.2190357758
 20
83.9479761441
 30
0.0
 10
350.3517567717
 20
84.1751783642
 30
0.0
 10
351.0895495462
 20
84.3749344388
 30
0.0
 10
351.4499473382
 20
84.4870531237
 30
0.0
  0
SPLINE
  5
3B4
330
221
100
AcDbEntity
  8
02___PRT_ALL_AXES
  6
Continuous
 62
     7
100
AcDbSpline
 70
     0
 71
     3
 72
     9
 73
     5
 74
     0
 42
0.000000001
 43
0.0000001
 40
0.0
 40
0.0
 40
0.0
 40
0.0
 40
0.2405889021
 40
1.0
 40
1.0
 40
1.0
 40
1.0
 10
356.9090261895
 20
91.0663388033
 30
0.0
 10
356.9737665312
 20
91.1355886812
 30
0.0
 10
357.237246836
 20
91.4286660941
 30
0.0
 10
357.4797837147
 20
91.7401753515
 30
0.0
 10
357.6546905245
 20
91.9829638596
 30
0.0
  0
SPLINE
  5
3B5
330
221
100
AcDbEntity
  8
02___PRT_ALL_AXES
  6
Continuous
 62
     7
100
AcDbSpline
 70
     0
 71
     3
 72
     9
 73
     5
 74
     0
 42
0.000000001
 43
0.0000001
 40
0.0
 40
0.0
 40
0.0
 40
0.0
 40
0.4862463037
 40
1.0
 40
1.0
 40
1.0
 40
1.0
 10
357.6546905245
 20
91.9829638596
 30
0.0
 10
357.891793657
 20
92.3120872129
 30
0.0
 10
358.3454601639
 20
93.0135112964
 30
0.0
 10
358.751363052
 20
93.7427464932
 30
0.0
 10
358.9512878957
 20
94.1218415575
 30
0.0
  0
SPLINE
  5
3B6
330
221
100
AcDbEntity
  8
02___PRT_ALL_AXES
  6
Continuous
 62
     7
100
AcDbSpline
 70
     0
 71
     3
 72
     9
 73
     5
 74
     0
 42
0.000000001
 43
0.0000001
 40
0.0
 40
0.0
 40
0.0
 40
0.0
 40
0.5164370148
 40
1.0
 40
1.0
 40
1.0
 40
1.0
 10
335.0490102583
 20
92.0016461726
 30
0.0
 10
335.3216262514
 20
91.6372961796
 30
0.0
 10
335.8659768406
 20
90.9439042688
 30
0.0
 10
336.458558287
 20
90.2898504617
 30
0.0
 10
336.7619382601
 20
89.9906720474
 30
0.0
  0
SPLINE
  5
3B7
330
221
100
AcDbEntity
  8
02___PRT_ALL_AXES
  6
Continuous
 62
     7
100
AcDbSpline
 70
     0
 71
     3
 72
     9
 73
     5
 74
     0
 42
0.000000001
 43
0.0000001
 40
0.0
 40
0.0
 40
0.0
 40
0.0
 40
0.2586808069
 40
1.0
 40
1.0
 40
1.0
 40
1.0
 10
336.7619382601
 20
89.9906720474
 30
0.0
 10
336.8216808475
 20
89.9317568449
 30
0.0
 10
337.0552086035
 20
89.7066638498
 30
0.0
 10
337.2997842392
 20
89.4927866755
 30
0.0
 10
337.4884256091
 20
89.343680053
 30
0.0
  0
SPLINE
  5
3B8
330
221
100
AcDbEntity
  8
02___PRT_ALL_AXES
  6
Continuous
 62
     7
100
AcDbSpline
 70
     0
 71
     3
 72
    21
 73
    17
 74
     0
 42
0.000000001
 43
0.0000001
 40
0.0
 40
0.0
 40
0.0
 40
0.0
 40
0.0747412035
 40
0.1366314975
 40
0.1872032381
 40
0.2308957799
 40
0.2723761576
 40
0.3150962299
 40
0.3611136163
 40
0.4115369805
 40
0.4670041398
 40
0.5279331688
 40
0.6671608803
 40
0.8294837297
 40
0.9160301644
 40
1.0
 40
1.0
 40
1.0
 40
1.0
 10
355.5253790779
 20
89.2596930567
 30
0.0
 10
355.5323261157
 20
89.1874101968
 30
0.0
 10
355.5564195849
 20
89.0557442754
 30
0.0
 10
355.6304785994
 20
88.8873656441
 30
0.0
 10
355.7315067096
 20
88.7704733672
 30
0.0
 10
355.8496800217
 20
88.7056198642
 30
0.0
 10
355.9749643218
 20
88.6875563623
 30
0.0
 10
356.1013437346
 20
88.7080694139
 30
0.0
 10
356.2268388609
 20
88.7609367275
 30
0.0
 10
356.3504945309
 20
88.8427238915
 30
0.0
 10
356.4711490867
 20
88.9517095569
 30
0.0
 10
356.6330870261
 20
89.1407400468
 30
0.0
 10
356.8134504353
 20
89.4465128631
 30
0.0
 10
356.9354619283
 20
89.8068270819
 30
0.0
 10
356.9831489085
 20
90.1274372471
 30
0.0
 10
356.9832489317
 20
90.2940625854
 30
0.0
 10
356.9754441119
 20
90.3752705346
 30
0.0
  0
SPLINE
  5
3B9
330
221
100
AcDbEntity
  8
02___PRT_ALL_AXES
  6
Continuous
 62
     7
100
AcDbSpline
 70
     0
 71
     3
 72
    11
 73
     7
 74
     0
 42
0.000000001
 43
0.0000001
 40
0.0
 40
0.0
 40
0.0
 40
0.0
 40
0.2410458047
 40
0.4843935339
 40
0.7350550163
 40
1.0
 40
1.0
 40
1.0
 40
1.0
 10
353.1510277594
 20
89.6595316457
 30
0.0
 10
353.3382710916
 20
89.6280000399
 30
0.0
 10
353.7185841478
 20
89.5854761948
 30
0.0
 10
354.2995648252
 20
89.6006343072
 30
0.0
 10
354.8896074733
 20
89.7132459432
 30
0.0
 10
355.2711259171
 20
89.8597884095
 30
0.0
 10
355.4589611554
 20
89.9507613253
 30
0.0
  0
SPLINE
  5
3BA
330
221
100
AcDbEntity
  8
02___PRT_ALL_AXES
  6
Continuous
 62
     7
100
AcDbSpline
 70
     0
 71
     3
 72
    11
 73
     7
 74
     0
 42
0.000000001
 43
0.0000001
 40
0.0
 40
0.0
 40
0.0
 40
0.0
 40
0.2488746289
 40
0.4985280877
 40
0.7489426614
 40
1.0
 40
1.0
 40
1.0
 40
1.0
 10
341.1998889407
 20
88.5994339532
 30
0.0
 10
341.5697300718
 20
88.4670391294
 30
0.0
 10
342.317451619
 20
88.2204287305
 30
0.0
 10
343.4617101898
 20
87.9199921121
 30
0.0
 10
344.6289722678
 20
87.705449746
 30
0.0
 10
345.4184969754
 20
87.6318272118
 30
0.0
 10
345.8144018426
 20
87.6148340506
 30
0.0
  0
SPLINE
  5
3BB
330
221
100
AcDbEntity
  8
02___PRT_ALL_AXES
  6
Continuous
 62
     7
100
AcDbSpline
 70
     0
 71
     3
 72
    11
 73
     7
 74
     0
 42
0.000000001
 43
0.0000001
 40
0.0
 40
0.0
 40
0.0
 40
0.0
 40
0.2514331119
 40
0.5019286785
 40
0.7514368204
 40
1.0
 40
1.0
 40
1.0
 40
1.0
 10
348.8021865473
 20
87.8798584737
 30
0.0
 10
349.1878988795
 20
87.9661479772
 30
0.0
 10
349.9496448224
 20
88.1772461569
 30
0.0
 10
351.0564521883
 20
88.5934994072
 30
0.0
 10
352.1242452711
 20
89.0901695426
 30
0.0
 10
352.8125824604
 20
89.4642658419
 30
0.0
 10
353.1510277594
 20
89.6595316457
 30
0.0
  0
SPLINE
  5
3BC
330
221
100
AcDbEntity
  8
02___PRT_ALL_AXES
  6
Continuous
 62
     7
100
AcDbSpline
 70
     0
 71
     3
 72
    21
 73
    17
 74
     0
 42
0.000000001
 43
0.0000001
 40
0.0
 40
0.0
 40
0.0
 40
0.0
 40
0.0596629771
 40
0.1203727305
 40
0.1823105239
 40
0.2452243589
 40
0.3088127707
 40
0.3728285313
 40
0.5011792657
 40
0.6293163949
 40
0.6930557634
 40
0.7562780076
 40
0.8187512894
 40
0.8802172912
 40
0.9405187299
 40
1.0
 40
1.0
 40
1.0
 40
1.0
 10
345.8808197651
 20
86.9237657819
 30
0.0
 10
345.8882957795
 20
86.8459790021
 30
0.0
 10
345.9332919946
 20
86.6907066101
 30
0.0
 10
346.0733313951
 20
86.4931773326
 30
0.0
 10
346.261741997
 20
86.3363143507
 30
0.0
 10
346.4802987996
 20
86.2188982958
 30
0.0
 10
346.7170270458
 20
86.1371682064
 30
0.0
 10
347.0465713681
 20
86.0714009466
 30
0.0
 10
347.4699776129
 20
86.0633750225
 30
0.0
 10
347.8850363416
 20
86.1457533914
 30
0.0
 10
348.1966589487
 20
86.268516703
 30
0.0
 10
348.4137754171
 20
86.3904947495
 30
0.0
 10
348.6062564431
 20
86.5444130184
 30
0.0
 10
348.7616009455
 20
86.7319008619
 30
0.0
 10
348.8615927786
 20
86.9509828279
 30
0.0
 10
348.8760577155
 20
87.1112403292
 30
0.0
 10
348.8686044698
 20
87.188790205
 30
0.0
  0
SPLINE
  5
3BD
330
221
100
AcDbEntity
  8
02___PRT_ALL_AXES
  6
Continuous
 62
     7
100
AcDbSpline
 70
     0
 71
     3
 72
    11
 73
     7
 74
     0
 42
0.000000001
 43
0.0000001
 40
0.0
 40
0.0
 40
0.0
 40
0.0
 40
0.2666508582
 40
0.5171722027
 40
0.7596769137
 40
1.0
 40
1.0
 40
1.0
 40
1.0
 10
339.0261452797
 20
88.4931269982
 30
0.0
 10
339.2145814539
 20
88.4358765934
 30
0.0
 10
339.5909130617
 20
88.3565722981
 30
0.0
 10
340.1549289301
 20
88.345937162
 30
0.0
 10
340.692338711
 20
88.4300110026
 30
0.0
 10
341.0338794778
 20
88.5366188742
 30
0.0
 10
341.1998889407
 20
88.5994339532
 30
0.0
  0
SPLINE
  5
3BE
330
221
100
AcDbEntity
  8
02___PRT_ALL_AXES
  6
Continuous
 62
     7
100
AcDbSpline
 70
     0
 71
     3
 72
    21
 73
    17
 74
     0
 42
0.000000001
 43
0.0000001
 40
0.0
 40
0.0
 40
0.0
 40
0.0
 40
0.0858988047
 40
0.1743610843
 40
0.3393700464
 40
0.4794030888
 40
0.5400226361
 40
0.5947213287
 40
0.6439348294
 40
0.6883364854
 40
0.729179935
 40
0.7688255936
 40
0.8111853998
 40
0.8613367361
 40
0.9238190637
 40
1.0
 40
1.0
 40
1.0
 40
1.0
 10
337.5548435315
 20
88.6526117843
 30
0.0
 10
337.5626578043
 20
88.5713054781
 30
0.0
 10
337.5934644555
 20
88.4075421017
 30
0.0
 10
337.6961556622
 20
88.100912135
 30
0.0
 10
337.87385548
 20
87.7682906849
 30
0.0
 10
338.0960140117
 20
87.4974030522
 30
0.0
 10
338.2802482618
 20
87.3384265257
 30
0.0
 10
338.4110799937
 20
87.2517357075
 30
0.0
 10
338.5396861441
 20
87.1922451406
 30
0.0
 10
338.6648196352
 20
87.161487574
 30
0.0
 10
338.7852030143
 20
87.1627411144
 30
0.0
 10
338.8977932337
 20
87.202316896
 30
0.0
 10
338.9945424597
 20
87.2871549673
 30
0.0
 10
339.0651522326
 20
87.4195088001
 30
0.0
 10
339.1016938217
 20
87.5971516695
 30
0.0
 10
339.0994934338
 20
87.729950735
 30
0.0
 10
339.0925632022
 20
87.8020587295
 30
0.0
  0
SPLINE
  5
3BF
330
221
100
AcDbEntity
  8
02___PRT_ALL_AXES
  6
Continuous
 62
     9
100
AcDbSpline
 70
     0
 71
     3
 72
    11
 73
     7
 74
     0
 42
0.000000001
 43
0.0000001
 40
0.0
 40
0.0
 40
0.0
 40
0.0
 40
0.2216259785
 40
0.4558233276
 40
0.7129917492
 40
1.0
 40
1.0
 40
1.0
 40
1.0
 10
357.6512174767
 20
91.9930531502
 30
0.0
 10
357.6639540856
 20
91.8604324496
 30
0.0
 10
357.6530652776
 20
91.5829013173
 30
0.0
 10
357.5279123625
 20
91.16901889
 30
0.0
 10
357.298978463
 20
90.7576646869
 30
0.0
 10
357.0923617977
 20
90.5021515034
 30
0.0
 10
356.9754441119
 20
90.3752705346
 30
0.0
  0
SPLINE
  5
3C0
330
221
100
AcDbEntity
  8
02___PRT_ALL_AXES
  6
Continuous
 62
     7
100
AcDbSpline
 70
     0
 71
     3
 72
    17
 73
    13
 74
     0
 42
0.000000001
 43
0.0000001
 40
0.0
 40
0.0
 40
0.0
 40
0.0
 40
0.0388262354
 40
0.0786625482
 40
0.1646693973
 40
0.2124244396
 40
0.2638977904
 40
0.3789354646
 40
0.5108587885
 40
0.6592727834
 40
0.8229730717
 40
1.0
 40
1.0
 40
1.0
 40
1.0
 10
355.3610959506
 20
100.1423082522
 30
0.0
 10
355.3683550983
 20
100.0667586749
 30
0.0
 10
355.3694135927
 20
99.9120391628
 30
0.0
 10
355.3157990945
 20
99.5932845982
 30
0.0
 10
355.1772745084
 20
99.2774082203
 30
0.0
 10
354.9743468261
 20
98.9771409579
 30
0.0
 10
354.7037580711
 20
98.6563884085
 30
0.0
 10
354.2663234504
 20
98.266257901
 30
0.0
 10
353.6242287486
 20
97.8331969367
 30
0.0
 10
352.8565205107
 20
97.4253191872
 30
0.0
 10
351.9762365478
 20
97.0496881431
 30
0.0
 10
351.3459784193
 20
96.83249542
 30
0.0
 10
351.0155467869
 20
96.7296991185
 30
0.0
  0
SPLINE
  5
3C1
330
221
100
AcDbEntity
  8
02___PRT_ALL_AXES
  6
Continuous
 62
     9
100
AcDbSpline
 70
     0
 71
     3
 72
    11
 73
     7
 74
     0
 42
0.000000001
 43
0.0000001
 40
0.0
 40
0.0
 40
0.0
 40
0.0
 40
0.2258254875
 40
0.4622032966
 40
0.7181603188
 40
1.0
 40
1.0
 40
1.0
 40
1.0
 10
336.7475882119
 20
89.984024968
 30
0.0
 10
336.7590726346
 20
89.8644427313
 30
0.0
 10
336.8126575651
 20
89.6216719138
 30
0.0
 10
336.9796151497
 20
89.2748603852
 30
0.0
 10
337.2300751424
 20
88.9450774061
 30
0.0
 10
337.4392926951
 20
88.7481476761
 30
0.0
 10
337.5548435315
 20
88.6526117843
 30
0.0
  0
SPLINE
  5
3C2
330
221
100
AcDbEntity
  8
02___PRT_ALL_AXES
  6
Continuous
 62
     7
100
AcDbSpline
 70
     0
 71
     3
 72
    25
 73
    21
 74
     0
 42
0.000000001
 43
0.0000001
 40
0.0
 40
0.0
 40
0.0
 40
0.0
 40
0.0151511917
 40
0.0306754108
 40
0.0640731108
 40
0.0825433727
 40
0.1024068742
 40
0.1466863537
 40
0.1973650188
 40
0.2543534789
 40
0.3172292768
 40
0.3853328533
 40
0.4578308102
 40
0.5337631652
 40
0.612078567
 40
0.6916657016
 40
0.7713832478
 40
0.8500773642
 40
0.9266506099
 40
1.0
 40
1.0
 40
1.0
 40
1.0
 10
337.4436795995
 20
98.4204083137
 30
0.0
 10
337.4507395815
 20
98.346931554
 30
0.0
 10
337.4779835652
 20
98.1990960075
 30
0.0
 10
337.5857499641
 20
97.9048237911
 30
0.0
 10
337.7718994235
 20
97.6280775638
 30
0.0
 10
338.0157396559
 20
97.3773028773
 30
0.0
 10
338.325790855
 20
97.1194909981
 30
0.0
 10
338.804253221
 20
96.8245941384
 30
0.0
 10
339.4825332236
 20
96.5241810313
 30
0.0
 10
340.2746836563
 20
96.2692982481
 30
0.0
 10
341.1680664171
 20
96.0640092032
 30
0.0
 10
342.1483634991
 20
95.9117080545
 30
0.0
 10
343.1994637896
 20
95.814998008
 30
0.0
 10
344.3039765701
 20
95.7755674722
 30
0.0
 10
345.4435328863
 20
95.7941362361
 30
0.0
 10
346.5991445008
 20
95.8704399613
 30
0.0
 10
347.7514848177
 20
96.0032330598
 30
0.0
 10
348.8814285339
 20
96.1902408934
 30
0.0
 10
349.9699668523
 20
96.4283795314
 30
0.0
 10
350.6743261917
 20
96.6235464026
 30
0.0
 10
351.0155467869
 20
96.7296991185
 30
0.0
  0
SPLINE
  5
3C3
330
221
100
AcDbEntity
  8
02___PRT_ALL_AXES
  6
Continuous
 62
     7
100
AcDbSpline
 70
     0
 71
     3
 72
    13
 73
     9
 74
     0
 42
0.000000001
 43
0.0000001
 40
0.0
 40
0.0
 40
0.0
 40
0.0
 40
0.1018961721
 40
0.2118667085
 40
0.3292795443
 40
0.4534625163
 40
0.7186687525
 40
1.0
 40
1.0
 40
1.0
 40
1.0
 10
339.0261452797
 20
88.4931269982
 30
0.0
 10
339.2443496
 20
88.4089925271
 30
0.0
 10
339.7053079412
 20
88.2525824273
 30
0.0
 10
340.4359429547
 20
88.0577395968
 30
0.0
 10
341.2267218874
 20
87.8952553253
 30
0.0
 10
342.3770275662
 20
87.7199666241
 30
0.0
 10
343.9134132245
 20
87.5955887284
 30
0.0
 10
345.169084586
 20
87.59303392
 30
0.0
 10
345.8144018426
 20
87.6148340506
 30
0.0
  0
SPLINE
  5
3C4
330
221
100
AcDbEntity
  8
02___PRT_ALL_AXES
  6
Continuous
 62
     7
100
AcDbSpline
 70
     0
 71
     3
 72
    13
 73
     9
 74
     0
 42
0.000000001
 43
0.0000001
 40
0.0
 40
0.0
 40
0.0
 40
0.0
 40
0.2785653142
 40
0.5429400749
 40
0.6674069343
 40
0.7855412284
 40
0.896634102
 40
1.0
 40
1.0
 40
1.0
 40
1.0
 10
348.8021865473
 20
87.8798584737
 30
0.0
 10
349.4464333031
 20
87.9725607271
 30
0.0
 10
350.6961576271
 20
88.1980402352
 30
0.0
 10
352.2068164021
 20
88.59272559
 30
0.0
 10
353.3303560914
 20
88.9692993159
 30
0.0
 10
354.1004284062
 20
89.2703107088
 30
0.0
 10
354.8079230243
 20
89.5927935061
 30
0.0
 10
355.2503873485
 20
89.828987984
 30
0.0
 10
355.4589611554
 20
89.9507613253
 30
0.0
  0
SPLINE
  5
3C5
330
221
100
AcDbEntity
  8
02___PRT_ALL_AXES
  6
Continuous
 62
     9
100
AcDbSpline
 70
     0
 71
     3
 72
    11
 73
     7
 74
     0
 42
0.000000001
 43
0.0000001
 40
0.0
 40
0.0
 40
0.0
 40
0.0
 40
0.2261812293
 40
0.4692002947
 40
0.7276984333
 40
1.0
 40
1.0
 40
1.0
 40
1.0
 10
355.5253790779
 20
89.2596930567
 30
0.0
 10
355.3167807872
 20
89.1379054208
 30
0.0
 10
354.8743376752
 20
88.9017072295
 30
0.0
 10
354.1668160608
 20
88.5792267316
 30
0.0
 10
353.3967825758
 20
88.2782612304
 30
0.0
 10
352.8590969205
 20
88.0979873079
 30
0.0
 10
352.5814216915
 20
88.0116033671
 30
0.0
  0
SPLINE
  5
3C6
330
221
100
AcDbEntity
  8
02___PRT_ALL_AXES
  6
Continuous
 62
     9
100
AcDbSpline
 70
     0
 71
     3
 72
    13
 73
     9
 74
     0
 42
0.000000001
 43
0.0000001
 40
0.0
 40
0.0
 40
0.0
 40
0.0
 40
0.1018961721
 40
0.2118667085
 40
0.3292795443
 40
0.4534625163
 40
0.7186687525
 40
1.0
 40
1.0
 40
1.0
 40
1.0
 10
339.0925632022
 20
87.8020587295
 30
0.0
 10
339.3107675224
 20
87.7179242584
 30
0.0
 10
339.7717258636
 20
87.5615141587
 30
0.0
 10
340.5023608771
 20
87.3666713282
 30
0.0
 10
341.2931398098
 20
87.2041870567
 30
0.0
 10
342.4434454886
 20
87.0288983554
 30
0.0
 10
343.9798311469
 20
86.9045204598
 30
0.0
 10
345.2355025084
 20
86.9019656514
 30
0.0
 10
345.8808197651
 20
86.9237657819
 30
0.0
  0
SPLINE
  5
3C7
330
221
100
AcDbEntity
  8
02___PRT_ALL_AXES
  6
Continuous
 62
     9
100
AcDbSpline
 70
     0
 71
     3
 72
     9
 73
     5
 74
     0
 42
0.000000001
 43
0.0000001
 40
0.0
 40
0.0
 40
0.0
 40
0.0
 40
0.5130519792
 40
1.0
 40
1.0
 40
1.0
 40
1.0
 10
348.8686044698
 20
87.188790205
 30
0.0
 10
349.5128327853
 20
87.281489805
 30
0.0
 10
350.7625286095
 20
87.5069402836
 30
0.0
 10
351.9915587053
 20
87.8280987403
 30
0.0
 10
352.5814216915
 20
88.0116033671
 30
0.0
  0
SPLINE
  5
3C8
330
221
100
AcDbEntity
  8
7_ALL_FEATURES
  6
Continuous
 62
     7
100
AcDbSpline
 70
     0
 71
     3
 72
    12
 73
     8
 74
     0
 42
0.000000001
 43
0.0000001
 40
0.0
 40
0.0
 40
0.0
 40
0.0
 40
0.2839685935
 40
0.5402435196
 40
0.7756065469
 40
0.8885375713
 40
1.0
 40
1.0
 40
1.0
 40
1.0
 10
313.9494223302
 20
138.249321337
 30
0.0
 10
313.6927205307
 20
137.9522801272
 30
0.0
 10
313.2397305656
 20
137.3542118902
 30
0.0
 10
312.7424134082
 20
136.3976386649
 30
0.0
 10
312.5158222693
 20
135.5849626845
 30
0.0
 10
312.4582638616
 20
134.9505987907
 30
0.0
 10
312.4685554207
 20
134.6395685463
 30
0.0
 10
312.4832898932
 20
134.486175252
 30
0.0
  0
SPLINE
  5
3C9
330
221
100
AcDbEntity
  8
7_ALL_FEATURES
  6
Continuous
 62
     7
100
AcDbSpline
 70
     0
 71
     3
 72
    11
 73
     7
 74
     0
 42
0.000000001
 43
0.0000001
 40
0.0
 40
0.0
 40
0.0
 40
0.0
 40
0.2461434078
 40
0.4986439866
 40
0.7518289867
 40
1.0
 40
1.0
 40
1.0
 40
1.0
 10
332.0384425937
 20
121.2626301547
 30
0.0
 10
333.231247065
 20
121.2159303592
 30
0.0
 10
335.6515215638
 20
121.2047834924
 30
0.0
 10
339.2937004202
 20
121.4164496402
 30
0.0
 10
342.9259885234
 20
121.850655794
 30
0.0
 10
345.3196430463
 20
122.2886341303
 30
0.0
 10
346.4955702648
 20
122.5450157011
 30
0.0
  0
SPLINE
  5
3CA
330
221
100
AcDbEntity
  8
7_ALL_FEATURES
  6
Continuous
 62
     7
100
AcDbSpline
 70
     0
 71
     3
 72
    15
 73
    11
 74
     0
 42
0.000000001
 43
0.0000001
 40
0.0
 40
0.0
 40
0.0
 40
0.0
 40
0.1040401599
 40
0.2105039511
 40
0.3216185714
 40
0.4392714806
 40
0.5649779971
 40
0.6998829624
 40
0.8447650892
 40
1.0
 40
1.0
 40
1.0
 40
1.0
 10
312.6161257381
 20
133.1040387147
 30
0.0
 10
312.6358459281
 20
132.8987415848
 30
0.0
 10
312.7108531109
 20
132.4859329717
 30
0.0
 10
312.9268055352
 20
131.8833414982
 30
0.0
 10
313.2448512734
 20
131.2971415723
 30
0.0
 10
313.6627317555
 20
130.7297929696
 30
0.0
 10
314.1783195916
 20
130.1831372473
 30
0.0
 10
314.7892942218
 20
129.6588085563
 30
0.0
 10
315.4930579007
 20
129.1587057968
 30
0.0
 10
316.0042622256
 20
128.8531510591
 30
0.0
 10
316.2735413162
 20
128.7042057361
 30
0.0
  0
SPLINE
  5
3CB
330
221
100
AcDbEntity
  8
7_ALL_FEATURES
  6
Continuous
 62
     7
100
AcDbSpline
 70
     0
 71
     3
 72
    12
 73
     8
 74
     0
 42
0.000000001
 43
0.0000001
 40
0.0
 40
0.0
 40
0.0
 40
0.0
 40
0.1112509977
 40
0.2239938619
 40
0.4591474454
 40
0.7155162544
 40
1.0
 40
1.0
 40
1.0
 40
1.0
 10
363.9959630867
 20
139.4363269616
 30
0.0
 10
363.98107971
 20
139.5912704238
 30
0.0
 10
363.9312812847
 20
139.9016997462
 30
0.0
 10
363.7510988278
 20
140.5197785376
 30
0.0
 10
363.3667641465
 20
141.2818784888
 30
0.0
 10
362.6839219564
 20
142.1336557831
 30
0.0
 10
362.1152269812
 20
142.6380669967
 30
0.0
 10
361.8010282807
 20
142.8824253411
 30
0.0
  0
SPLINE
  5
3CC
330
221
100
AcDbEntity
  8
7_ALL_FEATURES
  6
Continuous
 62
     7
100
AcDbSpline
 70
     0
 71
     3
 72
     9
 73
     5
 74
     0
 42
0.000000001
 43
0.0000001
 40
0.0
 40
0.0
 40
0.0
 40
0.0
 40
0.4148221146
 40
1.0
 40
1.0
 40
1.0
 40
1.0
 10
361.1722165271
 20
128.5343382305
 30
0.0
 10
361.1810195752
 20
128.781594102
 30
0.0
 10
361.1857962417
 20
129.3781881781
 30
0.0
 10
361.1735482783
 20
129.9745248285
 30
0.0
 10
361.1636729
 20
130.3234029834
 30
0.0
  0
SPLINE
  5
3CD
330
221
100
AcDbEntity
  8
7_ALL_FEATURES
  6
Continuous
 62
     7
100
AcDbSpline
 70
     0
 71
     3
 72
    15
 73
    11
 74
     0
 42
0.000000001
 43
0.0000001
 40
0.0
 40
0.0
 40
0.0
 40
0.0
 40
0.0925610254
 40
0.1968039332
 40
0.3119770798
 40
0.4368801952
 40
0.5699838328
 40
0.7095189166
 40
0.8535430481
 40
1.0
 40
1.0
 40
1.0
 40
1.0
 10
316.3570978303
 20
128.6583645875
 30
0.0
 10
316.9777843242
 20
128.3206053489
 30
0.0
 10
318.3512631164
 20
127.7001700397
 30
0.0
 10
320.6174586149
 20
126.9572039066
 30
0.0
 10
323.1795305575
 20
126.3568327478
 30
0.0
 10
325.995256755
 20
125.9093937683
 30
0.0
 10
329.0184035581
 20
125.62250729
 30
0.0
 10
332.1985725241
 20
125.5012405624
 30
0.0
 10
335.4824508759
 20
125.5477922289
 30
0.0
 10
337.696574112
 20
125.6898012783
 30
0.0
 10
338.8102904489
 20
125.7886062291
 30
0.0
  0
SPLINE
  5
3CE
330
221
100
AcDbEntity
  8
7_ALL_FEATURES
  6
Continuous
 62
     7
100
AcDbSpline
 70
     0
 71
     3
 72
    15
 73
    11
 74
     0
 42
0.000000001
 43
0.0000001
 40
0.0
 40
0.0
 40
0.0
 40
0.0
 40
0.1443469928
 40
0.2869085186
 40
0.4256308951
 40
0.5585572481
 40
0.6838841132
 40
0.8000256248
 40
0.9056925488
 40
1.0
 40
1.0
 40
1.0
 40
1.0
 10
338.8102904489
 20
125.7886062291
 30
0.0
 10
339.9287736466
 20
125.8878340788
 30
0.0
 10
342.1474525796
 20
126.1397218687
 30
0.0
 10
345.4160847989
 20
126.6759111106
 30
0.0
 10
348.5661479332
 20
127.3608749693
 30
0.0
 10
351.5445861372
 20
128.1829180541
 30
0.0
 10
354.301514596
 20
129.1279977343
 30
0.0
 10
356.791342013
 20
130.1802021419
 30
0.0
 10
358.9727582177
 20
131.3216228504
 30
0.0
 10
360.2749270337
 20
132.1803141353
 30
0.0
 10
360.858164552
 20
132.6253194396
 30
0.0
  0
SPLINE
  5
3CF
330
221
100
AcDbEntity
  8
7_ALL_FEATURES
  6
Continuous
 62
     7
100
AcDbSpline
 70
     0
 71
     3
 72
    15
 73
    11
 74
     0
 42
0.000000001
 43
0.0000001
 40
0.0
 40
0.0
 40
0.0
 40
0.0
 40
0.1581906915
 40
0.305146403
 40
0.4412703687
 40
0.5672898189
 40
0.6843392372
 40
0.7940117842
 40
0.8983942119
 40
1.0
 40
1.0
 40
1.0
 40
1.0
 10
360.858164552
 20
132.6253194396
 30
0.0
 10
361.1352042008
 20
132.8366983537
 30
0.0
 10
361.6563961814
 20
133.2623182868
 30
0.0
 10
362.3591157157
 20
133.9355789106
 30
0.0
 10
362.9508025463
 20
134.6172839513
 30
0.0
 10
363.4285065723
 20
135.3047905824
 30
0.0
 10
363.7896780514
 20
135.9954343561
 30
0.0
 10
364.031688091
 20
136.6866067237
 30
0.0
 10
364.1521971135
 20
137.3747182964
 30
0.0
 10
364.1502001217
 20
137.8313932344
 30
0.0
 10
364.1287989315
 20
138.0541904243
 30
0.0
  0
SPLINE
  5
3D0
330
221
100
AcDbEntity
  8
7_ALL_FEATURES
  6
Continuous
 62
     7
100
AcDbSpline
 70
     0
 71
     3
 72
     9
 73
     5
 74
     0
 42
0.000000001
 43
0.0000001
 40
0.0
 40
0.0
 40
0.0
 40
0.0
 40
0.2472471779
 40
1.0
 40
1.0
 40
1.0
 40
1.0
 10
354.1471782724
 20
124.9254082749
 30
0.0
 10
354.74721535
 20
125.1784797265
 30
0.0
 10
357.1518754451
 20
126.2548209461
 30
0.0
 10
359.4692981519
 20
127.518937112
 30
0.0
 10
361.1722165271
 20
128.5343382305
 30
0.0
  0
SPLINE
  5
3D1
330
221
100
AcDbEntity
  8
7_ALL_FEATURES
  6
Continuous
 62
     7
100
AcDbSpline
 70
     0
 71
     3
 72
     9
 73
     5
 74
     0
 42
0.000000001
 43
0.0000001
 40
0.0
 40
0.0
 40
0.0
 40
0.0
 40
0.2529881502
 40
1.0
 40
1.0
 40
1.0
 40
1.0
 10
316.8036136627
 20
124.5987255472
 30
0.0
 10
317.4169329749
 20
124.363141512
 30
0.0
 10
319.8528554452
 20
123.4635301318
 30
0.0
 10
322.3456422285
 20
122.7094598651
 30
0.0
 10
324.2357030791
 20
122.272181138
 30
0.0
  0
SPLINE
  5
3D2
330
221
100
AcDbEntity
  8
7_ALL_FEATURES
  6
Continuous
 62
     7
100
AcDbSpline
 70
     0
 71
     3
 72
    15
 73
    11
 74
     0
 42
0.000000001
 43
0.0000001
 40
0.0
 40
0.0
 40
0.0
 40
0.0
 40
0.1040401599
 40
0.2105039511
 40
0.3216185714
 40
0.4392714806
 40
0.5649779971
 40
0.6998829624
 40
0.8447650892
 40
1.0
 40
1.0
 40
1.0
 40
1.0
 10
312.4832898932
 20
134.486175252
 30
0.0
 10
312.5030100832
 20
134.2808781221
 30
0.0
 10
312.578017266
 20
133.868069509
 30
0.0
 10
312.7939696903
 20
133.2654780356
 30
0.0
 10
313.1120154286
 20
132.6792781097
 30
0.0
 10
313.5298959106
 20
132.111929507
 30
0.0
 10
314.0454837468
 20
131.5652737847
 30
0.0
 10
314.6564583769
 20
131.0409450936
 30
0.0
 10
315.3602220558
 20
130.5408423341
 30
0.0
 10
315.8714263807
 20
130.2352875965
 30
0.0
 10
316.1407054713
 20
130.0863422734
 30
0.0
  0
SPLINE
  5
3D3
330
221
100
AcDbEntity
  8
7_ALL_FEATURES
  6
Continuous
 62
     7
100
AcDbSpline
 70
     0
 71
     3
 72
     9
 73
     5
 74
     0
 42
0.000000001
 43
0.0000001
 40
0.0
 40
0.0
 40
0.0
 40
0.0
 40
0.4963406538
 40
1.0
 40
1.0
 40
1.0
 40
1.0
 10
339.2048603203
 20
121.7003588202
 30
0.0
 10
340.4191421878
 20
121.7493357517
 30
0.0
 10
342.8634337267
 20
121.9261649458
 30
0.0
 10
345.2869546992
 20
122.3000610646
 30
0.0
 10
346.4955702648
 20
122.5450157011
 30
0.0
  0
SPLINE
  5
3D4
330
221
100
AcDbEntity
  8
7_ALL_FEATURES
  6
Continuous
 62
     7
100
AcDbSpline
 70
     0
 71
     3
 72
    32
 73
    28
 74
     0
 42
0.000000001
 43
0.0000001
 40
0.0
 40
0.0
 40
0.0
 40
0.0
 40
0.0246136897
 40
0.0512923401
 40
0.0799759986
 40
0.1105842369
 40
0.1429997945
 40
0.1770771545
 40
0.249518578
 40
0.3263953295
 40
0.4059841651
 40
0.4864521538
 40
0.5659320015
 40
0.6425952487
 40
0.7147274949
 40
0.7486181422
 40
0.780829077
 40
0.8112184007
 40
0.8396707759
 40
0.8661054348
 40
0.8904812575
 40
0.9128109624
 40
0.933174133
 40
0.9517366223
 40
0.9687743511
 40
0.9846878539
 40
1.0
 40
1.0
 40
1.0
 40
1.0
 10
316.1407054713
 20
130.0863422734
 30
0.0
 10
316.5208108644
 20
129.8760960176
 30
0.0
 10
317.3337798081
 20
129.4751611931
 30
0.0
 10
318.6443972519
 20
128.9485500584
 30
0.0
 10
320.0871333174
 20
128.4759745862
 30
0.0
 10
321.6521398129
 20
128.0605936745
 30
0.0
 10
323.3291520177
 20
127.7050354902
 30
0.0
 10
325.7490724483
 20
127.3061341159
 30
0.0
 10
328.9728585508
 20
126.9814879842
 30
0.0
 10
333.0137182031
 20
126.8628261961
 30
0.0
 10
337.1952611308
 20
127.0115414552
 30
0.0
 10
341.4050809432
 20
127.4238159057
 30
0.0
 10
345.5303693576
 20
128.0885869626
 30
0.0
 10
349.4602801081
 20
128.9877959828
 30
0.0
 10
352.5471367432
 20
129.9305934843
 30
0.0
 10
354.8308401117
 20
130.7904851681
 30
0.0
 10
356.3957757953
 20
131.4635309837
 30
0.0
 10
357.8381848207
 20
132.1734904845
 30
0.0
 10
359.1484685546
 20
132.915710969
 30
0.0
 10
360.3180397669
 20
133.6852083117
 30
0.0
 10
361.3392266427
 20
134.4771537854
 30
0.0
 10
362.2054566935
 20
135.2866379212
 30
0.0
 10
362.9110670796
 20
136.1090765624
 30
0.0
 10
363.4509280302
 20
136.9402293021
 30
0.0
 10
363.8202017706
 20
137.7760622931
 30
0.0
 10
364.013456645
 20
138.6112050097
 30
0.0
 10
364.0218011657
 20
139.1673395194
 30
0.0
 10
363.9959630867
 20
139.4363269616
 30
0.0
  0
SPLINE
  5
3D5
330
221
100
AcDbEntity
  8
7_ALL_FEATURES
  6
Continuous
 62
     7
100
AcDbSpline
 70
     0
 71
     3
 72
     9
 73
     5
 74
     0
 42
0.000000001
 43
0.0000001
 40
0.0
 40
0.0
 40
0.0
 40
0.0
 40
0.5039808915
 40
1.0
 40
1.0
 40
1.0
 40
1.0
 10
332.0384425937
 20
121.2626301547
 30
0.0
 10
333.2452233403
 20
121.2320425317
 30
0.0
 10
335.6436916677
 20
121.2857868796
 30
0.0
 10
338.0280177186
 20
121.5372094117
 30
0.0
 10
339.2048603203
 20
121.7003588202
 30
0.0
  0
SPLINE
  5
3D6
330
221
100
AcDbEntity
  8
02___PRT_ALL_AXES
  6
Continuous
 62
     7
100
AcDbSpline
 70
     0
 71
     3
 72
    32
 73
    28
 74
     0
 42
0.000000001
 43
0.0000001
 40
0.0
 40
0.0
 40
0.0
 40
0.0
 40
0.0246130629
 40
0.0512925661
 40
0.0799769437
 40
0.1105849209
 40
0.1430007664
 40
0.1770785101
 40
0.2495205277
 40
0.3263978421
 40
0.4059871432
 40
0.4864555759
 40
0.5659356684
 40
0.6425988606
 40
0.7147308997
 40
0.7486217018
 40
0.7808323
 40
0.8112211881
 40
0.8396736145
 40
0.8661073995
 40
0.8904832877
 40
0.9128122671
 40
0.9331750308
 40
0.9517372603
 40
0.9687744652
 40
0.98468792
 40
1.0
 40
1.0
 40
1.0
 40
1.0
 10
317.7420765596
 20
130.5845240729
 30
0.0
 10
318.0946308518
 20
130.3895170532
 30
0.0
 10
318.8487008761
 20
130.0176422753
 30
0.0
 10
320.0643598355
 20
129.5291673027
 30
0.0
 10
321.4025805812
 20
129.09083768
 30
0.0
 10
322.8541992307
 20
128.705550342
 30
0.0
 10
324.4097055253
 20
128.3757651991
 30
0.0
 10
326.654300814
 20
128.0057642478
 30
0.0
 10
329.6445213881
 20
127.7046579418
 30
0.0
 10
333.3926100178
 20
127.5946018179
 30
0.0
 10
337.2711858418
 20
127.7325458812
 30
0.0
 10
341.1759836419
 20
128.1149607002
 30
0.0
 10
345.002362919
 20
128.7315913887
 30
0.0
 10
348.6475102231
 20
129.5656708133
 30
0.0
 10
351.5106801204
 20
130.4401948383
 30
0.0
 10
353.6289083989
 20
131.2377609906
 30
0.0
 10
355.0804292314
 20
131.8620638799
 30
0.0
 10
356.4182958626
 20
132.5206043155
 30
0.0
 10
357.6336316648
 20
133.2090161828
 30
0.0
 10
358.718399491
 20
133.9228188007
 30
0.0
 10
359.6655938067
 20
134.657337364
 30
0.0
 10
360.468997022
 20
135.4082093396
 30
0.0
 10
361.1234415398
 20
136.1710523934
 30
0.0
 10
361.6241673332
 20
136.9419751612
 30
0.0
 10
361.9665816382
 20
137.7172695185
 30
0.0
 10
362.1458560448
 20
138.4918859458
 30
0.0
 10
362.1535051575
 20
139.007724497
 30
0.0
 10
362.1295298539
 20
139.2572193388
 30
0.0
  0
SPLINE
  5
3D7
330
221
100
AcDbEntity
  8
02___PRT_ALL_AXES
  6
Continuous
 62
     7
100
AcDbSpline
 70
     0
 71
     3
 72
    10
 73
     6
 74
     0
 42
0.000000001
 43
0.0000001
 40
0.0
 40
0.0
 40
0.0
 40
0.0
 40
0.2357641271
 40
0.4776657456
 40
1.0
 40
1.0
 40
1.0
 40
1.0
 10
357.3340151944
 20
149.9558813595
 30
0.0
 10
357.3503765927
 20
149.7857255915
 30
0.0
 10
357.3527341202
 20
149.4372163537
 30
0.0
 10
357.232023963
 20
148.719478684
 30
0.0
 10
357.0052016619
 20
148.2026260752
 30
0.0
 10
356.8137470918
 20
147.8758655039
 30
0.0
  0
SPLINE
  5
3D8
330
221
100
AcDbEntity
  8
02___PRT_ALL_AXES
  6
Continuous
 62
     7
100
AcDbSpline
 70
     0
 71
     3
 72
    25
 73
    21
 74
     0
 42
0.000000001
 43
0.0000001
 40
0.0
 40
0.0
 40
0.0
 40
0.0
 40
0.036281494
 40
0.0566105489
 40
0.078474175
 40
0.1018971363
 40
0.1268713919
 40
0.1813170201
 40
0.2413611683
 40
0.3063011094
 40
0.3752666002
 40
0.447265658
 40
0.5212215698
 40
0.5960055182
 40
0.670467127
 40
0.7434643037
 40
0.8138934729
 40
0.8807208462
 40
0.9430186196
 40
1.0
 40
1.0
 40
1.0
 40
1.0
 10
356.8137470918
 20
147.8758655039
 30
0.0
 10
356.5919174055
 20
147.4972629195
 30
0.0
 10
356.1667621466
 20
146.951748309
 30
0.0
 10
355.4895332876
 20
146.2865183972
 30
0.0
 10
354.880385883
 20
145.7764199819
 30
0.0
 10
354.1923721672
 20
145.2767833287
 30
0.0
 10
353.1431260785
 20
144.6076179424
 30
0.0
 10
351.6491125767
 20
143.8184284927
 30
0.0
 10
349.6493862961
 20
142.9704313325
 30
0.0
 10
347.4281577158
 20
142.2109384693
 30
0.0
 10
345.0247009658
 20
141.5535868447
 30
0.0
 10
342.4814742358
 20
141.0102343683
 30
0.0
 10
339.843739135
 20
140.5906966012
 30
0.0
 10
337.1585184746
 20
140.3025337166
 30
0.0
 10
334.4737414688
 20
140.1509041446
 30
0.0
 10
331.8373084515
 20
140.1384657758
 30
0.0
 10
329.2962299242
 20
140.2653252125
 30
0.0
 10
326.8955295139
 20
140.5290395188
 30
0.0
 10
324.677947902
 20
140.9246810418
 30
0.0
 10
323.2798297774
 20
141.2890823078
 30
0.0
 10
322.6225461945
 20
141.4962406586
 30
0.0
  0
SPLINE
  5
3D9
330
221
100
AcDbEntity
  8
02___PRT_ALL_AXES
  6
Continuous
 62
     7
100
AcDbSpline
 70
     0
 71
     3
 72
     9
 73
     5
 74
     0
 42
0.000000001
 43
0.0000001
 40
0.0
 40
0.0
 40
0.0
 40
0.0
 40
0.5263956987
 40
1.0
 40
1.0
 40
1.0
 40
1.0
 10
322.6225461945
 20
141.4962406586
 30
0.0
 10
322.1251184588
 20
141.6530166867
 30
0.0
 10
321.190982783
 20
141.9871495817
 30
0.0
 10
320.2927473016
 20
142.410857872
 30
0.0
 10
319.8821319772
 20
142.6379799705
 30
0.0
  0
SPLINE
  5
3DA
330
221
100
AcDbEntity
  8
02___PRT_ALL_AXES
  6
Continuous
 62
     7
100
AcDbSpline
 70
     0
 71
     3
 72
    12
 73
     8
 74
     0
 42
0.000000001
 43
0.0000001
 40
0.0
 40
0.0
 40
0.0
 40
0.0
 40
0.2887940846
 40
0.5462339942
 40
0.7795416814
 40
0.8906352208
 40
1.0
 40
1.0
 40
1.0
 40
1.0
 10
314.9547737261
 20
149.551039055
 30
0.0
 10
314.6681969626
 20
149.2519084651
 30
0.0
 10
314.1614590849
 20
148.6495299582
 30
0.0
 10
313.5969360257
 20
147.6766865605
 30
0.0
 10
313.3340150747
 20
146.8445700197
 30
0.0
 10
313.2634559799
 20
146.1958313703
 30
0.0
 10
313.2720304983
 20
145.8785311441
 30
0.0
 10
313.2870363669
 20
145.7223751733
 30
0.0
  0
SPLINE
  5
3DB
330
221
100
AcDbEntity
  8
02___PRT_ALL_AXES
  6
Continuous
 62
     7
100
AcDbSpline
 70
     0
 71
     3
 72
     9
 73
     5
 74
     0
 42
0.000000001
 43
0.0000001
 40
0.0
 40
0.0
 40
0.0
 40
0.0
 40
0.5334563445
 40
1.0
 40
1.0
 40
1.0
 40
1.0
 10
319.8821319772
 20
142.6379799705
 30
0.0
 10
319.4951663855
 20
142.852020782
 30
0.0
 10
318.7927111134
 20
143.2977385897
 30
0.0
 10
318.1726551012
 20
143.8573820726
 30
0.0
 10
317.9179688213
 20
144.1484308831
 30
0.0
  0
SPLINE
  5
3DC
330
221
100
AcDbEntity
  8
02___PRT_ALL_AXES
  6
Continuous
 62
     7
100
AcDbSpline
 70
     0
 71
     3
 72
    10
 73
     6
 74
     0
 42
0.000000001
 43
0.0000001
 40
0.0
 40
0.0
 40
0.0
 40
0.0
 40
0.5221017993
 40
0.7640935884
 40
1.0
 40
1.0
 40
1.0
 40
1.0
 10
317.9179688213
 20
144.1484308831
 30
0.0
 10
317.6702524711
 20
144.4315146404
 30
0.0
 10
317.352456641
 20
144.8934386562
 30
0.0
 10
317.0997106363
 20
145.5710334976
 30
0.0
 10
317.0361324009
 20
145.9116196219
 30
0.0
 10
317.0198642674
 20
146.0808054512
 30
0.0
  0
SPLINE
  5
3DD
330
221
100
AcDbEntity
  8
02___PRT_ALL_AXES
  6
Continuous
 62
     7
100
AcDbSpline
 70
     0
 71
     3
 72
    12
 73
     8
 74
     0
 42
0.000000001
 43
0.0000001
 40
0.0
 40
0.0
 40
0.0
 40
0.0
 40
0.1093266309
 40
0.2203869741
 40
0.4536505139
 40
0.711077715
 40
1.0
 40
1.0
 40
1.0
 40
1.0
 10
361.0668430949
 20
150.3143116373
 30
0.0
 10
361.0518153997
 20
150.4706947428
 30
0.0
 10
360.9997014626
 20
150.7842825384
 30
0.0
 10
360.8064249737
 20
151.4086324029
 30
0.0
 10
360.3887113545
 20
152.1764966747
 30
0.0
 10
359.6472760644
 20
153.0251430447
 30
0.0
 10
359.0334172439
 20
153.5204538993
 30
0.0
 10
358.6941562961
 20
153.759786318
 30
0.0
  0
SPLINE
  5
3DE
330
221
100
AcDbEntity
  8
02___PRT_ALL_AXES
  6
Continuous
 62
     7
100
AcDbSpline
 70
     0
 71
     3
 72
    15
 73
    11
 74
     0
 42
0.000000001
 43
0.0000001
 40
0.0
 40
0.0
 40
0.0
 40
0.0
 40
0.1040398334
 40
0.2105052664
 40
0.321618601
 40
0.4392705627
 40
0.5649783378
 40
0.6998899536
 40
0.8447737118
 40
1.0
 40
1.0
 40
1.0
 40
1.0
 10
314.3497231259
 20
134.6652828748
 30
0.0
 10
314.3680207096
 20
134.4748722411
 30
0.0
 10
314.4375941882
 20
134.0919905347
 30
0.0
 10
314.6379683215
 20
133.5331199127
 30
0.0
 10
314.9329353157
 20
132.9894164104
 30
0.0
 10
315.3205512998
 20
132.4632290027
 30
0.0
 10
315.7987640633
 20
131.9562006576
 30
0.0
 10
316.3654716395
 20
131.469897833
 30
0.0
 10
317.0182096712
 20
131.006059942
 30
0.0
 10
317.4923355941
 20
130.7226623469
 30
0.0
 10
317.7420765596
 20
130.5845240729
 30
0.0
  0
SPLINE
  5
3DF
330
221
100
AcDbEntity
  8
02___PRT_ALL_AXES
  6
Continuous
 62
     7
100
AcDbSpline
 70
     0
 71
     3
 72
    11
 73
     7
 74
     0
 42
0.000000001
 43
0.0000001
 40
0.0
 40
0.0
 40
0.0
 40
0.0
 40
0.2353821867
 40
0.4769244398
 40
0.730237025
 40
1.0
 40
1.0
 40
1.0
 40
1.0
 10
317.0198642674
 20
146.0808054512
 30
0.0
 10
317.0034582767
 20
146.2514249716
 30
0.0
 10
317.0011376624
 20
146.6008496617
 30
0.0
 10
317.0902379187
 20
147.1275270262
 30
0.0
 10
317.2703952896
 20
147.6565993257
 30
0.0
 10
317.443933014
 20
147.9971505606
 30
0.0
 10
317.5434698413
 20
148.1665086581
 30
0.0
  0
SPLINE
  5
3E0
330
221
100
AcDbEntity
  8
02___PRT_ALL_AXES
  6
Continuous
 62
     7
100
AcDbSpline
 70
     0
 71
     3
 72
    21
 73
    17
 74
     0
 42
0.000000001
 43
0.0000001
 40
0.0
 40
0.0
 40
0.0
 40
0.0
 40
0.0436171845
 40
0.0918596766
 40
0.144523766
 40
0.2013031492
 40
0.2617744956
 40
0.3254374501
 40
0.3917305354
 40
0.4600445814
 40
0.600107685
 40
0.7402973828
 40
0.8087675011
 40
0.8752755842
 40
0.9392088225
 40
1.0
 40
1.0
 40
1.0
 40
1.0
 10
316.6793898006
 20
141.6416163715
 30
0.0
 10
317.1389653849
 20
141.3874130699
 30
0.0
 10
318.139893821
 20
140.9109894881
 30
0.0
 10
319.775736418
 20
140.3120116314
 30
0.0
 10
321.6054439212
 20
139.7986558901
 30
0.0
 10
323.6086623994
 20
139.3765777242
 30
0.0
 10
325.7635957732
 20
139.0505766341
 30
0.0
 10
328.0462540604
 20
138.8243530739
 30
0.0
 10
330.4312458042
 20
138.700471809
 30
0.0
 10
333.7393127515
 20
138.6736963661
 30
0.0
 10
337.9350309725
 20
138.9025734895
 30
0.0
 10
342.1014865337
 20
139.4617946766
 30
0.0
 10
345.3523363583
 20
140.1064565632
 30
0.0
 10
347.6799879981
 20
140.6744039651
 30
0.0
 10
349.8899702531
 20
141.3239502232
 30
0.0
 10
351.3082458588
 20
141.8204823992
 30
0.0
 10
351.991734909
 20
142.0824873161
 30
0.0
  0
SPLINE
  5
3E1
330
221
100
AcDbEntity
  8
02___PRT_ALL_AXES
  6
Continuous
 62
     7
100
AcDbSpline
 70
     0
 71
     3
 72
    18
 73
    14
 74
     0
 42
0.000000001
 43
0.0000001
 40
0.0
 40
0.0
 40
0.0
 40
0.0
 40
0.1750640418
 40
0.3361409562
 40
0.4820665381
 40
0.6122501652
 40
0.7268993487
 40
0.7788227234
 40
0.8274964938
 40
0.8733421932
 40
0.9169097497
 40
0.958871368
 40
1.0
 40
1.0
 40
1.0
 40
1.0
 10
351.991734909
 20
142.0824873161
 30
0.0
 10
352.6992321622
 20
142.3536954049
 30
0.0
 10
354.0425039676
 20
142.9158303158
 30
0.0
 10
355.9053538513
 20
143.8601033078
 30
0.0
 10
357.5148370275
 20
144.860836828
 30
0.0
 10
358.8498547212
 20
145.9051009724
 30
0.0
 10
359.7483964533
 20
146.8314535167
 30
0.0
 10
360.2990287413
 20
147.5846266456
 30
0.0
 10
360.619066332
 20
148.1332071425
 30
0.0
 10
360.8584470008
 20
148.6824952252
 30
0.0
 10
361.0158588289
 20
149.2307798038
 30
0.0
 10
361.0902797159
 20
149.7758457849
 30
0.0
 10
361.0838705587
 20
150.1371182859
 30
0.0
 10
361.0668430949
 20
150.3143116373
 30
0.0
  0
SPLINE
  5
3E2
330
221
100
AcDbEntity
  8
02___PRT_ALL_AXES
  6
Continuous
 62
     7
100
AcDbSpline
 70
     0
 71
     3
 72
    10
 73
     6
 74
     0
 42
0.000000001
 43
0.0000001
 40
0.0
 40
0.0
 40
0.0
 40
0.0
 40
0.521795836
 40
0.7638961121
 40
1.0
 40
1.0
 40
1.0
 40
1.0
 10
356.4485137002
 20
151.8737959251
 30
0.0
 10
356.6927881398
 20
151.5924067634
 30
0.0
 10
357.005943752
 20
151.1336068132
 30
0.0
 10
357.2550693018
 20
150.4615231829
 30
0.0
 10
357.3178771647
 20
150.1237141313
 30
0.0
 10
357.3340151944
 20
149.9558813595
 30
0.0
  0
SPLINE
  5
3E3
330
221
100
AcDbEntity
  8
02___PRT_ALL_AXES
  6
Continuous
 62
     7
100
AcDbSpline
 70
     0
 71
     3
 72
    15
 73
    11
 74
     0
 42
0.000000001
 43
0.0000001
 40
0.0
 40
0.0
 40
0.0
 40
0.0
 40
0.1040398334
 40
0.2105052664
 40
0.321618601
 40
0.4392705627
 40
0.5649783378
 40
0.6998899536
 40
0.8447737118
 40
1.0
 40
1.0
 40
1.0
 40
1.0
 10
313.2870363669
 20
145.7223751733
 30
0.0
 10
313.3053339506
 20
145.5319645396
 30
0.0
 10
313.3749074291
 20
145.1490828333
 30
0.0
 10
313.5752815625
 20
144.5902122112
 30
0.0
 10
313.8702485567
 20
144.046508709
 30
0.0
 10
314.2578645408
 20
143.5203213012
 30
0.0
 10
314.7360773043
 20
143.0132929562
 30
0.0
 10
315.3027848805
 20
142.5269901315
 30
0.0
 10
315.9555229122
 20
142.0631522405
 30
0.0
 10
316.4296488351
 20
141.7797546454
 30
0.0
 10
316.6793898006
 20
141.6416163715
 30
0.0
  0
SPLINE
  5
3E4
330
221
100
AcDbEntity
  8
02___PRT_ALL_AXES
  6
Continuous
 62
     7
100
AcDbSpline
 70
     0
 71
     3
 72
    13
 73
     9
 74
     0
 42
0.000000001
 43
0.0000001
 40
0.0
 40
0.0
 40
0.0
 40
0.0
 40
0.3001165799
 40
0.4351171682
 40
0.5609218787
 40
0.789334542
 40
0.8958797562
 40
1.0
 40
1.0
 40
1.0
 40
1.0
 10
323.2966424732
 20
155.1590881346
 30
0.0
 10
322.9950993866
 20
155.3258795194
 30
0.0
 10
322.5716283275
 20
155.5963178448
 30
0.0
 10
322.0820469438
 20
156.016463948
 30
0.0
 10
321.696113471
 20
156.4253525398
 30
0.0
 10
321.4020178009
 20
156.8747991441
 30
0.0
 10
321.2314074481
 20
157.3511935395
 30
0.0
 10
321.1878516874
 20
157.5904931801
 30
0.0
 10
321.1764142212
 20
157.7094970251
 30
0.0
  0
SPLINE
  5
3E5
330
221
100
AcDbEntity
  8
02___PRT_ALL_AXES
  6
Continuous
 62
     7
100
AcDbSpline
 70
     0
 71
     3
 72
    30
 73
    26
 74
     0
 42
0.000000001
 43
0.0000001
 40
0.0
 40
0.0
 40
0.0
 40
0.0
 40
0.0246159373
 40
0.0512945369
 40
0.0799789865
 40
0.1105892509
 40
0.1770675292
 40
0.2495125269
 40
0.3263928413
 40
0.4059851388
 40
0.486456539
 40
0.5659395256
 40
0.642605558
 40
0.7147401209
 40
0.7808258029
 40
0.8112158153
 40
0.8396688747
 40
0.8661036055
 40
0.8904800337
 40
0.9128098053
 40
0.93317288
 40
0.9517358029
 40
0.9687734343
 40
0.9846872623
 40
1.0
 40
1.0
 40
1.0
 40
1.0
 10
323.2966424732
 20
155.1590881346
 30
0.0
 10
323.5170074109
 20
155.0371985116
 30
0.0
 10
323.988296743
 20
154.8047590969
 30
0.0
 10
324.7480888584
 20
154.4994961036
 30
0.0
 10
325.5844621363
 20
154.2255169549
 30
0.0
 10
326.8286696921
 20
153.895378035
 30
0.0
 10
328.5370378549
 20
153.5807142988
 30
0.0
 10
330.7355900961
 20
153.359130142
 30
0.0
 10
333.0783081025
 20
153.2903986908
 30
0.0
 10
335.5023853653
 20
153.3766028459
 30
0.0
 10
337.942917306
 20
153.6156204756
 30
0.0
 10
340.3343654762
 20
154.0010257096
 30
0.0
 10
342.6127474434
 20
154.5223101678
 30
0.0
 10
344.7170417168
 20
155.1652646581
 30
0.0
 10
346.322117118
 20
155.8045664272
 30
0.0
 10
347.4693634131
 20
156.3691557912
 30
0.0
 10
348.228935431
 20
156.799449847
 30
0.0
 10
348.9069169167
 20
157.2455617924
 30
0.0
 10
349.4988981493
 20
157.7046535636
 30
0.0
 10
350.0010301664
 20
158.1739357875
 30
0.0
 10
350.410030694
 20
158.6507330077
 30
0.0
 10
350.7229922372
 20
159.1325482693
 30
0.0
 10
350.9369881968
 20
159.6171143173
 30
0.0
 10
351.0489966466
 20
160.101254237
 30
0.0
 10
351.0537951214
 20
160.4236523945
 30
0.0
 10
351.0388081381
 20
160.5795880363
 30
0.0
  0
SPLINE
  5
3E6
330
221
100
AcDbEntity
  8
02___PRT_ALL_AXES
  6
Continuous
 62
     7
100
AcDbSpline
 70
     0
 71
     3
 72
    14
 73
    10
 74
     0
 42
0.000000001
 43
0.0000001
 40
0.0
 40
0.0
 40
0.0
 40
0.0
 40
0.2999575378
 40
0.434874849
 40
0.5606177303
 40
0.6783078032
 40
0.7894480893
 40
0.8959358247
 40
1.0
 40
1.0
 40
1.0
 40
1.0
 10
313.8876697107
 20
150.0967925315
 30
0.0
 10
313.3599713581
 20
150.3886763217
 30
0.0
 10
312.6188520438
 20
150.8620665226
 30
0.0
 10
311.7622602079
 20
151.5969669642
 30
0.0
 10
311.2392229196
 20
152.1515372577
 30
0.0
 10
310.8152309982
 20
152.7270216789
 30
0.0
 10
310.4925602422
 20
153.3216736408
 30
0.0
 10
310.2734687138
 20
153.9329306694
 30
0.0
 10
310.1973003765
 20
154.3516721852
 30
0.0
 10
310.1772818795
 20
154.5599260154
 30
0.0
  0
SPLINE
  5
3E7
330
221
100
AcDbEntity
  8
02___PRT_ALL_AXES
  6
Continuous
 62
     7
100
AcDbSpline
 70
     0
 71
     3
 72
    11
 73
     7
 74
     0
 42
0.000000001
 43
0.0000001
 40
0.0
 40
0.0
 40
0.0
 40
0.0
 40
0.2151132525
 40
0.454349745
 40
0.7166065056
 40
1.0
 40
1.0
 40
1.0
 40
1.0
 10
313.8876697107
 20
150.0967925315
 30
0.0
 10
314.4252803593
 20
149.7994259904
 30
0.0
 10
315.602137682
 20
149.2451371817
 30
0.0
 10
317.5323739699
 20
148.5576253087
 30
0.0
 10
319.6997116851
 20
147.9771922327
 30
0.0
 10
321.2302036075
 20
147.6773173222
 30
0.0
 10
322.0286173228
 20
147.5445205533
 30
0.0
  0
SPLINE
  5
3E8
330
221
100
AcDbEntity
  8
02___PRT_ALL_AXES
  6
Continuous
 62
     7
100
AcDbSpline
 70
     0
 71
     3
 72
    15
 73
    11
 74
     0
 42
0.000000001
 43
0.0000001
 40
0.0
 40
0.0
 40
0.0
 40
0.0
 40
0.1160924492
 40
0.2397524034
 40
0.3686076075
 40
0.5000992304
 40
0.6315779231
 40
0.7603946037
 40
0.8839920547
 40
1.0
 40
1.0
 40
1.0
 40
1.0
 10
322.0286173228
 20
147.5445205533
 30
0.0
 10
323.1957890468
 20
147.3503898279
 30
0.0
 10
325.6235764744
 20
147.0501499473
 30
0.0
 10
329.3773710756
 20
146.8473676724
 30
0.0
 10
333.293436775
 20
146.8805110301
 30
0.0
 10
337.2800838367
 20
147.1490831797
 30
0.0
 10
341.244240163
 20
147.6468992103
 30
0.0
 10
345.093374979
 20
148.3622653633
 30
0.0
 10
348.7374279583
 20
149.278118655
 30
0.0
 10
351.0616239741
 20
150.0364788152
 30
0.0
 10
352.1693256185
 20
150.4499232385
 30
0.0
  0
LINE
  5
3E9
330
221
100
AcDbEntity
  8
02___PRT_ALL_AXES
  6
Continuous
 62
     7
100
AcDbLine
 10
352.7843497154
 20
150.6850971523
 30
0.0
 11
352.8155432299
 21
150.6973320485
 31
0.0
  0
SPLINE
  5
3EA
330
221
100
AcDbEntity
  8
02___PRT_ALL_AXES
  6
Continuous
 62
     7
100
AcDbSpline
 70
     0
 71
     3
 72
    19
 73
    15
 74
     0
 42
0.000000001
 43
0.0000001
 40
0.0
 40
0.0
 40
0.0
 40
0.0
 40
0.174728013
 40
0.2569302024
 40
0.3354717543
 40
0.4810797906
 40
0.6110662121
 40
0.7257000939
 40
0.7776986018
 40
0.8265036003
 40
0.8725371621
 40
0.9163414408
 40
0.9585768451
 40
1.0
 40
1.0
 40
1.0
 40
1.0
 10
352.8155432299
 20
150.6973320485
 30
0.0
 10
353.5677561703
 20
150.9927359621
 30
0.0
 10
354.6613406816
 20
151.4608486131
 30
0.0
 10
356.0515751964
 20
152.1506265461
 30
0.0
 10
357.2946814851
 20
152.8311375261
 30
0.0
 10
358.6804179016
 20
153.7095808718
 30
0.0
 10
360.0950781668
 20
154.8366777991
 30
0.0
 10
361.0457711924
 20
155.8348301771
 30
0.0
 10
361.6277698248
 20
156.6454139012
 30
0.0
 10
361.9659072867
 20
157.2359611082
 30
0.0
 10
362.2185568417
 20
157.8270760361
 30
0.0
 10
362.3843370162
 20
158.4169977961
 30
0.0
 10
362.4621561022
 20
159.0034051083
 30
0.0
 10
362.4547799209
 20
159.3920413235
 30
0.0
 10
362.4364480144
 20
159.5827494341
 30
0.0
  0
LINE
  5
3EB
330
221
100
AcDbEntity
  8
7_ALL_FEATURES
  6
Continuous
 62
     7
100
AcDbLine
 10
356.7810270319
 20
147.8700308609
 30
0.0
 11
356.7801207634
 21
147.879637189
 31
0.0
  0
SPLINE
  5
3EC
330
221
100
AcDbEntity
  8
02___PRT_ALL_AXES
  6
Continuous
 62
     7
100
AcDbSpline
 70
     0
 71
     3
 72
    32
 73
    28
 74
     0
 42
0.000000001
 43
0.0000001
 40
0.0
 40
0.0
 40
0.0
 40
0.0
 40
0.0153121761
 40
0.0312254762
 40
0.0482626571
 40
0.0668248663
 40
0.0871873552
 40
0.1095165246
 40
0.1338919683
 40
0.1603258835
 40
0.1887780496
 40
0.2191668832
 40
0.2513775627
 40
0.2852681591
 40
0.3574001953
 40
0.4340634525
 40
0.5135436525
 40
0.5940121832
 40
0.6736016407
 40
0.7504791703
 40
0.8229214906
 40
0.8569989208
 40
0.8894145941
 40
0.9200239861
 40
0.9487081709
 40
0.9753827652
 40
1.0
 40
1.0
 40
1.0
 40
1.0
 10
310.0776433764
 20
155.5966493161
 30
0.0
 10
310.051420864
 20
155.8695365506
 30
0.0
 10
310.0597986574
 20
156.4337324784
 30
0.0
 10
310.2558269077
 20
157.2809803393
 30
0.0
 10
310.6303464831
 20
158.1289588246
 30
0.0
 10
311.1780155977
 20
158.9721473366
 30
0.0
 10
311.8937815857
 20
159.806536702
 30
0.0
 10
312.7725260893
 20
160.6277686685
 30
0.0
 10
313.8084849552
 20
161.4311915594
 30
0.0
 10
314.9949592648
 20
162.2118871484
 30
0.0
 10
316.324218377
 20
162.9648592082
 30
0.0
 10
317.7875072397
 20
163.6851425392
 30
0.0
 10
319.3751120996
 20
164.3679630954
 30
0.0
 10
321.691915192
 20
165.2403305379
 30
0.0
 10
324.8235136185
 20
166.1968344059
 30
0.0
 10
328.8104008919
 20
167.1091191591
 30
0.0
 10
332.9955157776
 20
167.7835597841
 30
0.0
 10
337.2664017045
 20
168.2018296543
 30
0.0
 10
341.5086095102
 20
168.3527164471
 30
0.0
 10
345.6081003629
 20
168.2323511063
 30
0.0
 10
348.8786658608
 20
167.9030262428
 30
0.0
 10
351.3336883398
 20
167.4983128028
 30
0.0
 10
353.0350491866
 20
167.137637854
 30
0.0
 10
354.6227718958
 20
166.7161953711
 30
0.0
 10
356.0863813181
 20
166.2367730648
 30
0.0
 10
357.4160326464
 20
165.7025977011
 30
0.0
 10
358.2407610153
 20
165.2958107703
 30
0.0
 10
358.6264332995
 20
165.082485321
 30
0.0
  0
SPLINE
  5
3ED
330
221
100
AcDbEntity
  8
02___PRT_ALL_AXES
  6
Continuous
 62
     7
100
AcDbSpline
 70
     0
 71
     3
 72
    14
 73
    10
 74
     0
 42
0.000000001
 43
0.0000001
 40
0.0
 40
0.0
 40
0.0
 40
0.0
 40
0.1040643868
 40
0.2105520026
 40
0.321691998
 40
0.4393817586
 40
0.5651244297
 40
0.7000417216
 40
1.0
 40
1.0
 40
1.0
 40
1.0
 10
362.3368327501
 20
160.6192309394
 30
0.0
 10
362.3168205414
 20
160.8274900187
 30
0.0
 10
362.2406633686
 20
161.246242568
 30
0.0
 10
362.021582805
 20
161.8575171434
 30
0.0
 10
361.6989176409
 20
162.4521861365
 30
0.0
 10
361.2749261177
 20
163.0276868183
 30
0.0
 10
360.7518842185
 20
163.5822724516
 30
0.0
 10
359.89527857
 20
164.3171933193
 30
0.0
 10
359.1541435437
 20
164.7905949533
 30
0.0
 10
358.6264332995
 20
165.082485321
 30
0.0
  0
SPLINE
  5
3EE
330
221
100
AcDbEntity
  8
7_ALL_FEATURES
  6
Continuous
 62
     9
100
AcDbSpline
 70
     0
 71
     3
 72
    34
 73
    30
 74
     0
 42
0.000000001
 43
0.0000001
 40
0.0
 40
0.0
 40
0.0
 40
0.0
 40
0.0239560872
 40
0.0454269375
 40
0.0646752791
 40
0.082194668
 40
0.0986996408
 40
0.1150777599
 40
0.1322426212
 40
0.1509652109
 40
0.1717937264
 40
0.1950599422
 40
0.2209213603
 40
0.2494080177
 40
0.2804538619
 40
0.3139196673
 40
0.349611897
 40
0.3872921086
 40
0.4674759481
 40
0.552009551
 40
0.6381506251
 40
0.7230667377
 40
0.8039939907
 40
0.8421672553
 40
0.8784241936
 40
0.9125152588
 40
0.9442320453
 40
0.973428511
 40
1.0
 40
1.0
 40
1.0
 40
1.0
 10
320.6155469655
 20
154.306733206
 30
0.0
 10
320.3270863877
 20
154.4662883124
 30
0.0
 10
319.7946812993
 20
154.7970676127
 30
0.0
 10
319.1049572952
 20
155.3644399975
 30
0.0
 10
318.5758160664
 20
155.9723949055
 30
0.0
 10
318.2150952761
 20
156.6177460717
 30
0.0
 10
318.0318573627
 20
157.2946908057
 30
0.0
 10
318.0327756035
 20
157.991342608
 30
0.0
 10
318.2159226332
 20
158.6937987803
 30
0.0
 10
318.5735248413
 20
159.3931033633
 30
0.0
 10
319.0982954547
 20
160.0844372943
 30
0.0
 10
319.7840375134
 20
160.7636080391
 30
0.0
 10
320.6242661252
 20
161.4258612447
 30
0.0
 10
321.6114759558
 20
162.0657247016
 30
0.0
 10
322.7366874854
 20
162.677501483
 30
0.0
 10
323.9894570189
 20
163.255562755
 30
0.0
 10
325.358064979
 20
163.794423765
 30
0.0
 10
327.3617674067
 20
164.4675661276
 30
0.0
 10
330.0611717578
 20
165.1683794418
 30
0.0
 10
333.4635716748
 20
165.7693381925
 30
0.0
 10
336.9660261148
 20
166.1234711085
 30
0.0
 10
340.4352828444
 20
166.2173088085
 30
0.0
 10
343.2426693054
 20
166.0736961767
 30
0.0
 10
345.3659081861
 20
165.8186427371
 30
0.0
 10
346.8385958045
 20
165.5671922628
 30
0.0
 10
348.208619122
 20
165.2544992479
 30
0.0
 10
349.4632460916
 20
164.8834335806
 30
0.0
 10
350.5904499175
 20
164.4575276103
 30
0.0
 10
351.2831328114
 20
164.1238392765
 30
0.0
 10
351.6030860244
 20
163.9468647681
 30
0.0
  0
SPLINE
  5
3EF
330
221
100
AcDbEntity
  8
02___PRT_ALL_AXES
  6
Continuous
 62
     7
100
AcDbSpline
 70
     0
 71
     3
 72
    13
 73
     9
 74
     0
 42
0.000000001
 43
0.0000001
 40
0.0
 40
0.0
 40
0.0
 40
0.0
 40
0.1501858574
 40
0.2923533215
 40
0.4909939942
 40
0.6734991553
 40
0.8421099056
 40
1.0
 40
1.0
 40
1.0
 40
1.0
 10
313.788042827
 20
151.1333949344
 30
0.0
 10
313.5685587407
 20
151.2547973354
 30
0.0
 10
313.1475269453
 20
151.5027051473
 30
0.0
 10
312.4674738276
 20
151.9617053366
 30
0.0
 10
311.7855596293
 20
152.5113526201
 30
0.0
 10
311.1444315774
 20
153.1723898567
 30
0.0
 10
310.6448318789
 20
153.8641683757
 30
0.0
 10
310.4029060023
 20
154.3567315032
 30
0.0
 10
310.3100378552
 20
154.6035256848
 30
0.0
  0
SPLINE
  5
3F0
330
221
100
AcDbEntity
  8
02___PRT_ALL_AXES
  6
Continuous
 62
     7
100
AcDbSpline
 70
     0
 71
     3
 72
     9
 73
     5
 74
     0
 42
0.000000001
 43
0.0000001
 40
0.0
 40
0.0
 40
0.0
 40
0.0
 40
0.5038073714
 40
1.0
 40
1.0
 40
1.0
 40
1.0
 10
310.3100378552
 20
154.6035256848
 30
0.0
 10
310.2495801202
 20
154.7641902151
 30
0.0
 10
310.149490904
 20
155.0910189692
 30
0.0
 10
310.0938151625
 20
155.4283559847
 30
0.0
 10
310.0776433764
 20
155.5966493161
 30
0.0
  0
SPLINE
  5
3F1
330
221
100
AcDbEntity
  8
7_ALL_FEATURES
  6
Continuous
 62
     9
100
AcDbSpline
 70
     0
 71
     3
 72
    21
 73
    17
 74
     0
 42
0.000000001
 43
0.0000001
 40
0.0
 40
0.0
 40
0.0
 40
0.0
 40
0.0758912539
 40
0.14638979
 40
0.2117183948
 40
0.2723389469
 40
0.3289397969
 40
0.3824333168
 40
0.4339469863
 40
0.4847799964
 40
0.5362975282
 40
0.5898021009
 40
0.7068016009
 40
0.7721389942
 40
0.84263707
 40
1.0
 40
1.0
 40
1.0
 40
1.0
 10
351.3590503638
 20
163.8892200596
 30
0.0
 10
351.556850648
 20
163.7798115379
 30
0.0
 10
351.9310849615
 20
163.555031365
 30
0.0
 10
352.4428224262
 20
163.1850792351
 30
0.0
 10
352.8815054828
 20
162.7961858571
 30
0.0
 10
353.2449495656
 20
162.3898949624
 30
0.0
 10
353.5312078099
 20
161.9675475207
 30
0.0
 10
353.7383844889
 20
161.5307578403
 30
0.0
 10
353.8646419479
 20
161.081629128
 30
0.0
 10
353.9085076477
 20
160.6229761423
 30
0.0
 10
353.8698369832
 20
160.157975421
 30
0.0
 10
353.7042774228
 20
159.5149566671
 30
0.0
 10
353.3705719803
 20
158.8852907332
 30
0.0
 10
352.9118502751
 20
158.2874091782
 30
0.0
 10
352.3133903279
 20
157.6495769786
 30
0.0
 10
351.7855817839
 20
157.2176366943
 30
0.0
 10
351.406126553
 20
156.942501837
 30
0.0
  0
SPLINE
  5
3F2
330
221
100
AcDbEntity
  8
7_ALL_FEATURES
  6
Continuous
 62
     9
100
AcDbSpline
 70
     0
 71
     3
 72
    23
 73
    19
 74
     0
 42
0.000000001
 43
0.0000001
 40
0.0
 40
0.0
 40
0.0
 40
0.0
 40
0.0485122485
 40
0.1026205194
 40
0.1618486432
 40
0.2255334158
 40
0.2928738666
 40
0.3629679684
 40
0.4348428973
 40
0.5074819901
 40
0.5798501012
 40
0.6509184734
 40
0.7196900515
 40
0.7852252238
 40
0.8466717595
 40
0.9032928828
 40
0.9545227818
 40
1.0
 40
1.0
 40
1.0
 40
1.0
 10
351.406126553
 20
156.942501837
 30
0.0
 10
350.9910710431
 20
156.6415539802
 30
0.0
 10
350.0715745726
 20
156.0615902209
 30
0.0
 10
348.5423291532
 20
155.291278695
 30
0.0
 10
346.8088016451
 20
154.5834240394
 30
0.0
 10
344.8992483319
 20
153.9498761692
 30
0.0
 10
342.8447026332
 20
153.4011063403
 30
0.0
 10
340.6789467064
 20
152.9463080786
 30
0.0
 10
338.4376889255
 20
152.5930822083
 30
0.0
 10
336.1579724053
 20
152.3473261081
 30
0.0
 10
333.8775073547
 20
152.2131190419
 30
0.0
 10
331.6340116678
 20
152.1926474556
 30
0.0
 10
329.464555403
 20
152.2861703771
 30
0.0
 10
327.4048565333
 20
152.4920028812
 30
0.0
 10
325.4887497373
 20
152.8066107413
 30
0.0
 10
323.7471154903
 20
153.2246630022
 30
0.0
 10
322.2083026909
 20
153.7391921838
 30
0.0
 10
321.2767298442
 20
154.1672434325
 30
0.0
 10
320.8561719955
 20
154.3998650019
 30
0.0
  0
SPLINE
  5
3F3
330
221
100
AcDbEntity
  8
7_ALL_FEATURES
  6
Continuous
 62
     9
100
AcDbSpline
 70
     0
 71
     3
 72
    34
 73
    30
 74
     0
 42
0.000000001
 43
0.0000001
 40
0.0
 40
0.0
 40
0.0
 40
0.0
 40
0.0239560855
 40
0.045426942
 40
0.064675299
 40
0.0821946973
 40
0.0986996813
 40
0.1150778142
 40
0.1322426927
 40
0.1509653001
 40
0.171793837
 40
0.1950600653
 40
0.2209214866
 40
0.2494081422
 40
0.2804539672
 40
0.3139197445
 40
0.3496119389
 40
0.3872921076
 40
0.4674758531
 40
0.5520093725
 40
0.6381504085
 40
0.723066545
 40
0.803993862
 40
0.842167162
 40
0.8784241304
 40
0.9125152233
 40
0.944232037
 40
0.9734285141
 40
1.0
 40
1.0
 40
1.0
 40
1.0
 10
320.8561719955
 20
154.3998650019
 30
0.0
 10
320.572223106
 20
154.5569245752
 30
0.0
 10
320.0481450067
 20
154.8825302996
 30
0.0
 10
319.3692085329
 20
155.4410289814
 30
0.0
 10
318.8483429941
 20
156.0394754551
 30
0.0
 10
318.493264187
 20
156.6747336422
 30
0.0
 10
318.3128922427
 20
157.3410911253
 30
0.0
 10
318.3137967745
 20
158.0268475617
 30
0.0
 10
318.4940801802
 20
158.7183173891
 30
0.0
 10
318.8460899314
 20
159.4066850466
 30
0.0
 10
319.3626541162
 20
160.0872061202
 30
0.0
 10
320.0376714848
 20
160.7557542908
 30
0.0
 10
320.8647588655
 20
161.4076493823
 30
0.0
 10
321.8365284187
 20
162.0375043211
 30
0.0
 10
322.9441405494
 20
162.6397121533
 30
0.0
 10
324.17731522
 20
163.2087315802
 30
0.0
 10
325.5245161918
 20
163.7391638136
 30
0.0
 10
327.4968774802
 20
164.4017771763
 30
0.0
 10
330.1540588556
 20
165.0916288007
 30
0.0
 10
333.5032405844
 20
165.6831880655
 30
0.0
 10
336.9509134855
 20
166.0317826306
 30
0.0
 10
340.3659099555
 20
166.1241534234
 30
0.0
 10
343.1293891628
 20
165.9827871859
 30
0.0
 10
345.2194213092
 20
165.7317230952
 30
0.0
 10
346.6690766047
 20
165.4842052778
 30
0.0
 10
348.0176732428
 20
165.1764029021
 30
0.0
 10
349.2526780693
 20
164.8111406035
 30
0.0
 10
350.3622523512
 20
164.3918959516
 30
0.0
 10
351.0441014168
 20
164.0634265773
 30
0.0
 10
351.3590503638
 20
163.8892200596
 30
0.0
  0
SPLINE
  5
3F4
330
221
100
AcDbEntity
  8
7_ALL_FEATURES
  6
Continuous
 62
     9
100
AcDbSpline
 70
     0
 71
     3
 72
    21
 73
    17
 74
     0
 42
0.000000001
 43
0.0000001
 40
0.0
 40
0.0
 40
0.0
 40
0.0
 40
0.0754901018
 40
0.1455422451
 40
0.2103885313
 40
0.2705099762
 40
0.3266208724
 40
0.3796684968
 40
0.4308207144
 40
0.481417263
 40
0.5328529442
 40
0.5864437606
 40
0.7041013709
 40
0.7699732444
 40
0.8411153029
 40
1.0
 40
1.0
 40
1.0
 40
1.0
 10
351.6030860244
 20
163.9468647681
 30
0.0
 10
351.8066698826
 20
163.8342572
 30
0.0
 10
352.1915581565
 20
163.602835961
 30
0.0
 10
352.7170770901
 20
163.2214933345
 30
0.0
 10
353.1662955203
 20
162.8203972027
 30
0.0
 10
353.5369224959
 20
162.4011766523
 30
0.0
 10
353.8268716858
 20
161.9652279453
 30
0.0
 10
354.0341457289
 20
161.5142937599
 30
0.0
 10
354.1567433961
 20
161.0506389947
 30
0.0
 10
354.1932259959
 20
160.5773417609
 30
0.0
 10
354.1435111747
 20
160.0977956917
 30
0.0
 10
353.9577606309
 20
159.4342083185
 30
0.0
 10
353.5973916188
 20
158.7864855541
 30
0.0
 10
353.1081465891
 20
158.1721315493
 30
0.0
 10
352.4721330331
 20
157.5166943797
 30
0.0
 10
351.9142846613
 20
157.0737905477
 30
0.0
 10
351.5139075418
 20
156.7918875677
 30
0.0
  0
SPLINE
  5
3F5
330
221
100
AcDbEntity
  8
7_ALL_FEATURES
  6
Continuous
 62
     9
100
AcDbSpline
 70
     0
 71
     3
 72
    23
 73
    19
 74
     0
 42
0.000000001
 43
0.0000001
 40
0.0
 40
0.0
 40
0.0
 40
0.0
 40
0.0490520693
 40
0.1036104411
 40
0.1631849163
 40
0.2271079724
 40
0.2945811666
 40
0.3647100887
 40
0.4365333495
 40
0.5090485584
 40
0.5812368422
 40
0.6520869205
 40
0.720619698
 40
0.7859133642
 40
0.8471325814
 40
0.9035555793
 40
0.9546292879
 40
1.0
 40
1.0
 40
1.0
 40
1.0
 10
351.5139075418
 20
156.7918875677
 30
0.0
 10
351.0855606772
 20
156.4902912683
 30
0.0
 10
350.1407364991
 20
155.9095109718
 30
0.0
 10
348.575818152
 20
155.1383314531
 30
0.0
 10
346.8088828115
 20
154.4309275044
 30
0.0
 10
344.8683654894
 20
153.7989810089
 30
0.0
 10
342.7853996634
 20
153.2528001325
 30
0.0
 10
340.5937707804
 20
152.8014047127
 30
0.0
 10
338.3291157333
 20
152.4522308033
 30
0.0
 10
336.0283415591
 20
152.2110237366
 30
0.0
 10
333.7289722015
 20
152.0817278614
 30
0.0
 10
331.4685023637
 20
152.0664189919
 30
0.0
 10
329.2837555591
 20
152.1652666237
 30
0.0
 10
327.2101922578
 20
152.3765203277
 30
0.0
 10
325.2813942664
 20
152.6966090651
 30
0.0
 10
323.5280031098
 20
153.1201857684
 30
0.0
 10
321.9781659065
 20
153.6403016171
 30
0.0
 10
321.0395607777
 20
154.0722000526
 30
0.0
 10
320.6155469655
 20
154.306733206
 30
0.0
  0
SPLINE
  5
3F6
330
221
100
AcDbEntity
  8
02___PRT_ALL_AXES
  6
Continuous
 62
     7
100
AcDbSpline
 70
     0
 71
     3
 72
    11
 73
     7
 74
     0
 42
0.000000001
 43
0.0000001
 40
0.0
 40
0.0
 40
0.0
 40
0.0
 40
0.2214197125
 40
0.4555262348
 40
0.7126867518
 40
1.0
 40
1.0
 40
1.0
 40
1.0
 10
321.1764142212
 20
157.7094970251
 30
0.0
 10
321.1581174991
 20
157.8998696328
 30
0.0
 10
321.1740908083
 20
158.2984122858
 30
0.0
 10
321.354903109
 20
158.8925332687
 30
0.0
 10
321.6852605734
 20
159.4830067684
 30
0.0
 10
321.983297783
 20
159.8495267193
 30
0.0
 10
322.1519480728
 20
160.0315786942
 30
0.0
  0
SPLINE
  5
3F7
330
221
100
AcDbEntity
  8
02___PRT_ALL_AXES
  6
Continuous
 62
     7
100
AcDbSpline
 70
     0
 71
     3
 72
    11
 73
     7
 74
     0
 42
0.000000001
 43
0.0000001
 40
0.0
 40
0.0
 40
0.0
 40
0.0
 40
0.2151607596
 40
0.4544083731
 40
0.7166461145
 40
1.0
 40
1.0
 40
1.0
 40
1.0
 10
313.788042827
 20
151.1333949344
 30
0.0
 10
314.3245788185
 20
150.8366228144
 30
0.0
 10
315.4988960678
 20
150.2833489098
 30
0.0
 10
317.4247663758
 20
149.5968118837
 30
0.0
 10
319.5869499517
 20
149.0169237355
 30
0.0
 10
321.1137508989
 20
148.7170937708
 30
0.0
 10
321.9102211999
 20
148.5842491357
 30
0.0
  0
SPLINE
  5
3F8
330
221
100
AcDbEntity
  8
02___PRT_ALL_AXES
  6
Continuous
 62
     7
100
AcDbSpline
 70
     0
 71
     3
 72
    12
 73
     8
 74
     0
 42
0.000000001
 43
0.0000001
 40
0.0
 40
0.0
 40
0.0
 40
0.0
 40
0.1132888467
 40
0.231751415
 40
0.4806942161
 40
0.7394377877
 40
1.0
 40
1.0
 40
1.0
 40
1.0
 10
321.9102211999
 20
148.5842491357
 30
0.0
 10
322.62390548
 20
148.4652125218
 30
0.0
 10
324.0903406845
 20
148.2592744393
 30
0.0
 10
327.1476405656
 20
147.9711009079
 30
0.0
 10
331.1495477614
 20
147.8495143373
 30
0.0
 10
336.0552101287
 20
148.0658355933
 30
0.0
 10
339.3532250517
 20
148.4481967903
 30
0.0
 10
340.998141311
 20
148.7003857907
 30
0.0
  0
SPLINE
  5
3F9
330
221
100
AcDbEntity
  8
02___PRT_ALL_AXES
  6
Continuous
 62
     7
100
AcDbSpline
 70
     0
 71
     3
 72
    21
 73
    17
 74
     0
 42
0.000000001
 43
0.0000001
 40
0.0
 40
0.0
 40
0.0
 40
0.0
 40
0.1750571066
 40
0.3414546568
 40
0.4200811662
 40
0.4950081837
 40
0.5658188232
 40
0.6321612776
 40
0.6937641703
 40
0.7504568883
 40
0.8021975012
 40
0.8491116628
 40
0.8915454998
 40
0.930130436
 40
0.9658414582
 40
1.0
 40
1.0
 40
1.0
 40
1.0
 10
340.998141311
 20
148.7003857907
 30
0.0
 10
342.4977269673
 20
148.9302935477
 30
0.0
 10
345.408699944
 20
149.4769569716
 30
0.0
 10
348.9323562767
 20
150.4078879592
 30
0.0
 10
351.5635999127
 20
151.2851042109
 30
0.0
 10
353.3788749039
 20
151.984031976
 30
0.0
 10
355.0592584046
 20
152.7307843779
 30
0.0
 10
356.5917344509
 20
153.5195634974
 30
0.0
 10
357.9645277542
 20
154.3442687892
 30
0.0
 10
359.1672178687
 20
155.1986890227
 30
0.0
 10
360.190793074
 20
156.0766546272
 30
0.0
 10
361.0275805423
 20
156.9723175624
 30
0.0
 10
361.6709101146
 20
157.8802866062
 30
0.0
 10
362.1142767536
 20
158.7958594441
 30
0.0
 10
362.350512083
 20
159.7126625973
 30
0.0
 10
362.3651486957
 20
160.3245581807
 30
0.0
 10
362.3368327501
 20
160.6192309394
 30
0.0
  0
SPLINE
  5
3FA
330
221
100
AcDbEntity
  8
02___PRT_ALL_AXES
  6
Continuous
 62
     7
100
AcDbSpline
 70
     0
 71
     3
 72
    11
 73
     7
 74
     0
 42
0.000000001
 43
0.0000001
 40
0.0
 40
0.0
 40
0.0
 40
0.0
 40
0.2221785179
 40
0.4566741227
 40
0.7135936311
 40
1.0
 40
1.0
 40
1.0
 40
1.0
 10
351.0388081381
 20
160.5795880363
 30
0.0
 10
351.0208340647
 20
160.7666035682
 30
0.0
 10
350.9319183132
 20
161.1476640519
 30
0.0
 10
350.6505700295
 20
161.6873526055
 30
0.0
 10
350.2279004562
 20
162.1964611113
 30
0.0
 10
349.8767542197
 20
162.4959272425
 30
0.0
 10
349.6827329218
 20
162.6408802615
 30
0.0
  0
SPLINE
  5
3FB
330
221
100
AcDbEntity
  8
02___PRT_ALL_AXES
  6
Continuous
 62
     7
100
AcDbSpline
 70
     0
 71
     3
 72
    11
 73
     7
 74
     0
 42
0.000000001
 43
0.0000001
 40
0.0
 40
0.0
 40
0.0
 40
0.0
 40
0.2779418237
 40
0.5378206826
 40
0.7786756171
 40
1.0
 40
1.0
 40
1.0
 40
1.0
 10
329.6057486478
 20
103.0789905939
 30
0.0
 10
329.212924339
 20
103.1681122908
 30
0.0
 10
328.4569667583
 20
103.3598517115
 30
0.0
 10
327.3806598629
 20
103.7015550259
 30
0.0
 10
326.4063502364
 20
104.0856912018
 30
0.0
 10
325.8038596719
 20
104.3807243211
 30
0.0
 10
325.5231809398
 20
104.5359750851
 30
0.0
  0
SPLINE
  5
3FC
330
221
100
AcDbEntity
  8
7_ALL_FEATURES
  6
Continuous
 62
     7
100
AcDbSpline
 70
     0
 71
     3
 72
    12
 73
     8
 74
     0
 42
0.000000001
 43
0.0000001
 40
0.0
 40
0.0
 40
0.0
 40
0.0
 40
0.1089527146
 40
0.2196862907
 40
0.4525959121
 40
0.7102699669
 40
1.0
 40
1.0
 40
1.0
 40
1.0
 10
360.8541871547
 20
113.3290343904
 30
0.0
 10
360.8670729116
 20
113.1949853501
 30
0.0
 10
360.8741158726
 20
112.9224884101
 30
0.0
 10
360.8115260485
 20
112.3650877997
 30
0.0
 10
360.580378326
 20
111.6500013935
 30
0.0
 10
360.0860545131
 20
110.8151464204
 30
0.0
 10
359.6435026296
 20
110.2991805189
 30
0.0
 10
359.393311339
 20
110.0429635885
 30
0.0
  0
SPLINE
  5
3FD
330
221
100
AcDbEntity
  8
02___PRT_ALL_AXES
  6
Continuous
 62
     7
100
AcDbSpline
 70
     0
 71
     3
 72
    19
 73
    15
 74
     0
 42
0.000000001
 43
0.0000001
 40
0.0
 40
0.0
 40
0.0
 40
0.0
 40
0.040598304
 40
0.0855847896
 40
0.1349346497
 40
0.1884789237
 40
0.24594045
 40
0.3069583255
 40
0.3711036266
 40
0.4378936886
 40
0.5772541318
 40
0.720549376
 40
0.8630316051
 40
1.0
 40
1.0
 40
1.0
 40
1.0
 10
357.5150184106
 20
108.1194232604
 30
0.0
 10
357.2815922398
 20
107.8803831004
 30
0.0
 10
356.7549865254
 20
107.4097494404
 30
0.0
 10
355.8535230674
 20
106.7588239442
 30
0.0
 10
354.8084918637
 20
106.1326235155
 30
0.0
 10
353.629791565
 20
105.537062124
 30
0.0
 10
352.3284342367
 20
104.9777028021
 30
0.0
 10
350.9167982582
 20
104.459970871
 30
0.0
 10
349.4083747237
 20
103.9888477579
 30
0.0
 10
347.2570186362
 20
103.4210260734
 30
0.0
 10
344.4326095066
 20
102.8625362927
 30
0.0
 10
340.9559828439
 20
102.4431350101
 30
0.0
 10
337.4776594315
 20
102.2817124181
 30
0.0
 10
335.1759082322
 20
102.3519818101
 30
0.0
 10
334.0518905345
 20
102.4365540674
 30
0.0
  0
SPLINE
  5
3FE
330
221
100
AcDbEntity
  8
02___PRT_ALL_AXES
  6
Continuous
 62
     7
100
AcDbSpline
 70
     0
 71
     3
 72
     9
 73
     5
 74
     0
 42
0.000000001
 43
0.0000001
 40
0.0
 40
0.0
 40
0.0
 40
0.0
 40
0.5188778702
 40
1.0
 40
1.0
 40
1.0
 40
1.0
 10
334.0518905345
 20
102.4365540674
 30
0.0
 10
333.2765953086
 20
102.4948880843
 30
0.0
 10
331.7854094171
 20
102.6535425917
 30
0.0
 10
330.3089295786
 20
102.9194569729
 30
0.0
 10
329.6058826595
 20
103.0789601734
 30
0.0
  0
SPLINE
  5
3FF
330
221
100
AcDbEntity
  8
7_ALL_FEATURES
  6
Continuous
 62
     7
100
AcDbSpline
 70
     0
 71
     3
 72
    12
 73
     8
 74
     0
 42
0.000000001
 43
0.0000001
 40
0.0
 40
0.0
 40
0.0
 40
0.0
 40
0.2897891398
 40
0.5474303022
 40
0.7803281476
 40
0.891055978
 40
1.0
 40
1.0
 40
1.0
 40
1.0
 10
322.6006591824
 20
106.5063575234
 30
0.0
 10
322.3061103258
 20
106.7102877736
 30
0.0
 10
321.7731888653
 20
107.1325449
 30
0.0
 10
321.1287342488
 20
107.8580998914
 30
0.0
 10
320.7655242714
 20
108.5161195339
 30
0.0
 10
320.5978809172
 20
109.0514691613
 30
0.0
 10
320.5528791111
 20
109.3203537068
 30
0.0
 10
320.539991799
 20
109.4544189255
 30
0.0
  0
SPLINE
  5
400
330
221
100
AcDbEntity
  8
7_ALL_FEATURES
  6
Continuous
 62
     7
100
AcDbSpline
 70
     0
 71
     3
 72
    23
 73
    19
 74
     0
 42
0.000000001
 43
0.0000001
 40
0.0
 40
0.0
 40
0.0
 40
0.0
 40
0.0424252226
 40
0.0909853387
 40
0.1454799369
 40
0.2054026469
 40
0.2700301521
 40
0.3384812214
 40
0.4097603191
 40
0.4827934037
 40
0.5564598343
 40
0.6296224863
 40
0.701157325
 40
0.7699834959
 40
0.8350946326
 40
0.8955951508
 40
0.9507378115
 40
1.0
 40
1.0
 40
1.0
 40
1.0
 10
359.393311339
 20
110.0429635885
 30
0.0
 10
359.0286787072
 20
109.6695490965
 30
0.0
 10
358.1713942377
 20
108.9416608428
 30
0.0
 10
356.6653583707
 20
107.9686768937
 30
0.0
 10
354.8769984474
 20
107.0558044242
 30
0.0
 10
352.8372185007
 20
106.2192693127
 30
0.0
 10
350.5812221282
 20
105.4737111497
 30
0.0
 10
348.1488576214
 20
104.8326292414
 30
0.0
 10
345.5833446507
 20
104.3076162905
 30
0.0
 10
342.9304923068
 20
103.9081900904
 30
0.0
 10
340.2377642857
 20
103.6415647707
 30
0.0
 10
337.5533758256
 20
103.5125186001
 30
0.0
 10
334.9253779636
 20
103.5232994476
 30
0.0
 10
332.4007179424
 20
103.6735894031
 30
0.0
 10
330.0243825235
 20
103.9604971483
 30
0.0
 10
327.8382571885
 20
104.3787450533
 30
0.0
 10
325.8808467056
 20
104.920528451
 30
0.0
 10
324.6798898876
 20
105.385246889
 30
0.0
 10
324.1307343709
 20
105.641552576
 30
0.0
  0
SPLINE
  5
401
330
221
100
AcDbEntity
  8
7_ALL_FEATURES
  6
Continuous
 62
     7
100
AcDbSpline
 70
     0
 71
     3
 72
     9
 73
     5
 74
     0
 42
0.000000001
 43
0.0000001
 40
0.0
 40
0.0
 40
0.0
 40
0.0
 40
0.2564933706
 40
1.0
 40
1.0
 40
1.0
 40
1.0
 10
324.1307343709
 20
105.641552576
 30
0.0
 10
324.0674347009
 20
105.6710962388
 30
0.0
 10
323.8215664275
 20
105.7882333913
 30
0.0
 10
323.5794726633
 20
105.9133528573
 30
0.0
 10
323.4022818665
 20
106.0113617316
 30
0.0
  0
ENDSEC
  0
SECTION
  2
OBJECTS
  0
DICTIONARY
  5
C
330
0
100
AcDbDictionary
281
     1
  3
ACAD_GROUP
350
D
  3
ACAD_IMAGE_VARS
350
44B
  3
ACAD_LAYOUT
350
1A
  3
ACAD_MLINESTYLE
350
17
  3
ACAD_PLOTSETTINGS
350
19
  3
ACAD_PLOTSTYLENAME
350
E
  3
ACAD_SCALELIST
350
407
  3
APPDATA
350
449
  3
DWGPROPS
350
490
  0
DICTIONARY
  5
D
102
{ACAD_REACTORS
330
C
102
}
330
C
100
AcDbDictionary
281
     1
  0
RASTERVARIABLES
  5
44B
102
{ACAD_REACTORS
330
C
102
}
330
C
100
AcDbRasterVariables
 90
        0
 70
     1
 71
     1
 72
     1
  0
DICTIONARY
  5
1A
102
{ACAD_REACTORS
330
C
102
}
330
C
100
AcDbDictionary
281
     1
  3
Layout1
350
404
  3
Model
350
403
  0
DICTIONARY
  5
17
102
{ACAD_REACTORS
330
C
102
}
330
C
100
AcDbDictionary
281
     1
  3
Standard
350
18
  0
DICTIONARY
  5
19
102
{ACAD_REACTORS
330
C
102
}
330
C
100
AcDbDictionary
281
     1
  0
ACDBDICTIONARYWDFLT
  5
E
102
{ACAD_REACTORS
330
C
102
}
330
C
100
AcDbDictionary
281
     1
  3
Normal
350
F
100
AcDbDictionaryWithDefault
340
F
  0
DICTIONARY
  5
407
102
{ACAD_REACTORS
330
C
102
}
330
C
100
AcDbDictionary
281
     1
  3
A0
350
408
  3
A1
350
409
  3
A2
350
40A
  3
A3
350
40B
  3
A4
350
40C
  3
A5
350
40D
  3
A6
350
40E
  3
A7
350
40F
  3
A8
350
410
  3
A9
350
411
  3
B0
350
412
  3
B1
350
413
  3
B2
350
414
  3
B3
350
415
  3
B4
350
416
  3
B5
350
417
  3
B6
350
418
  3
B7
350
419
  3
B8
350
41A
  3
B9
350
41B
  3
C0
350
41C
  3
C1
350
41D
  3
C2
350
41E
  3
C3
350
41F
  3
C4
350
420
  3
C5
350
421
  3
C6
350
422
  3
C7
350
423
  3
C8
350
424
  3
C9
350
425
  3
D0
350
426
  3
D1
350
427
  3
D2
350
428
  0
DICTIONARY
  5
449
102
{ACAD_REACTORS
330
C
102
}
330
C
100
AcDbDictionary
281
     1
  0
XRECORD
  5
490
102
{ACAD_REACTORS
330
C
102
}
330
C
100
AcDbXrecord
280
     1
  1
DWGPROPS COOKIE
  2

  3

  4

  6

  7

  8
umberto.novello
  9

300
=
301
=
302
=
303
=
304
=
305
=
306
=
307
=
308
=
309
=
 40
0.0
 41
0.0
 42
2458444.30934544
  1

 90
        0
  0
LAYOUT
  5
404
102
{ACAD_REACTORS
330
1A
102
}
330
1A
100
AcDbPlotSettings
  1

  2
none_device
  4
ISO_A3_(420.00_x_297.00_MM)
  6

 40
0.0
 41
0.0
 42
0.0
 43
0.0
 44
420.0
 45
297.0
 46
0.0
 47
0.0
 48
0.0
 49
0.0
140
0.0
141
0.0
142
1.0
143
1.0
 70
     0
 72
     1
 73
     0
 74
     0
  7

 75
     0
147
1.0
148
0.0
149
0.0
100
AcDbLayout
  1
Layout1
 70
     0
 71
     1
 10
0.0
 20
0.0
 11
420.0
 21
297.0
 12
0.0
 22
0.0
 32
0.0
 14
0.0
 24
0.0
 34
0.0
 15
0.0
 25
0.0
 35
0.0
146
0.0
 13
0.0
 23
0.0
 33
0.0
 16
1.0
 26
0.0
 36
0.0
 17
0.0
 27
1.0
 37
0.0
 76
     0
330
222
  0
LAYOUT
  5
403
102
{ACAD_REACTORS
330
1A
102
}
330
1A
100
AcDbPlotSettings
  1

  2
none_device
  4
ISO_A3_(420.00_x_297.00_MM)
  6

 40
0.0
 41
0.0
 42
0.0
 43
0.0
 44
420.0
 45
297.0
 46
0.0
 47
0.0
 48
0.0
 49
0.0
140
0.0
141
0.0
142
1.0
143
1.0
 70
  1024
 72
     1
 73
     0
 74
     0
  7

 75
     0
147
1.0
148
0.0
149
0.0
100
AcDbLayout
  1
Model
 70
     0
 71
     0
 10
0.0
 20
0.0
 11
420.0
 21
297.0
 12
0.0
 22
0.0
 32
0.0
 14
0.0
 24
0.0
 34
0.0
 15
0.0
 25
0.0
 35
0.0
146
0.0
 13
0.0
 23
0.0
 33
0.0
 16
1.0
 26
0.0
 36
0.0
 17
0.0
 27
1.0
 37
0.0
 76
     0
330
221
331
1F4
  0
MLINESTYLE
  5
18
102
{ACAD_REACTORS
330
17
102
}
330
17
100
AcDbMlineStyle
  2
STANDARD
 70
     0
  3

 62
   256
 51
90.0
 52
90.0
 71
     2
 49
0.5
 62
   256
  6
BYLAYER
 49
-0.5
 62
   256
  6
BYLAYER
  0
ACDBPLACEHOLDER
  5
F
102
{ACAD_REACTORS
330
E
102
}
330
E
  0
SCALE
  5
408
102
{ACAD_REACTORS
330
407
102
}
330
407
100
AcDbScale
 70
     0
300
1:1
140
1.0
141
1.0
290
     1
  0
SCALE
  5
409
102
{ACAD_REACTORS
330
407
102
}
330
407
100
AcDbScale
 70
     0
300
1:2
140
1.0
141
2.0
290
     0
  0
SCALE
  5
40A
102
{ACAD_REACTORS
330
407
102
}
330
407
100
AcDbScale
 70
     0
300
1:4
140
1.0
141
4.0
290
     0
  0
SCALE
  5
40B
102
{ACAD_REACTORS
330
407
102
}
330
407
100
AcDbScale
 70
     0
300
1:5
140
1.0
141
5.0
290
     0
  0
SCALE
  5
40C
102
{ACAD_REACTORS
330
407
102
}
330
407
100
AcDbScale
 70
     0
300
1:8
140
1.0
141
8.0
290
     0
  0
SCALE
  5
40D
102
{ACAD_REACTORS
330
407
102
}
330
407
100
AcDbScale
 70
     0
300
1:10
140
1.0
141
10.0
290
     0
  0
SCALE
  5
40E
102
{ACAD_REACTORS
330
407
102
}
330
407
100
AcDbScale
 70
     0
300
1:16
140
1.0
141
16.0
290
     0
  0
SCALE
  5
40F
102
{ACAD_REACTORS
330
407
102
}
330
407
100
AcDbScale
 70
     0
300
1:20
140
1.0
141
20.0
290
     0
  0
SCALE
  5
410
102
{ACAD_REACTORS
330
407
102
}
330
407
100
AcDbScale
 70
     0
300
1:30
140
1.0
141
30.0
290
     0
  0
SCALE
  5
411
102
{ACAD_REACTORS
330
407
102
}
330
407
100
AcDbScale
 70
     0
300
1:40
140
1.0
141
40.0
290
     0
  0
SCALE
  5
412
102
{ACAD_REACTORS
330
407
102
}
330
407
100
AcDbScale
 70
     0
300
1:50
140
1.0
141
50.0
290
     0
  0
SCALE
  5
413
102
{ACAD_REACTORS
330
407
102
}
330
407
100
AcDbScale
 70
     0
300
1:100
140
1.0
141
100.0
290
     0
  0
SCALE
  5
414
102
{ACAD_REACTORS
330
407
102
}
330
407
100
AcDbScale
 70
     0
300
2:1
140
2.0
141
1.0
290
     0
  0
SCALE
  5
415
102
{ACAD_REACTORS
330
407
102
}
330
407
100
AcDbScale
 70
     0
300
4:1
140
4.0
141
1.0
290
     0
  0
SCALE
  5
416
102
{ACAD_REACTORS
330
407
102
}
330
407
100
AcDbScale
 70
     0
300
8:1
140
8.0
141
1.0
290
     0
  0
SCALE
  5
417
102
{ACAD_REACTORS
330
407
102
}
330
407
100
AcDbScale
 70
     0
300
10:1
140
10.0
141
1.0
290
     0
  0
SCALE
  5
418
102
{ACAD_REACTORS
330
407
102
}
330
407
100
AcDbScale
 70
     0
300
100:1
140
100.0
141
1.0
290
     0
  0
SCALE
  5
419
102
{ACAD_REACTORS
330
407
102
}
330
407
100
AcDbScale
 70
     0
300
1/128" = 1'-0"
140
0.0078125
141
12.0
290
     0
  0
SCALE
  5
41A
102
{ACAD_REACTORS
330
407
102
}
330
407
100
AcDbScale
 70
     0
300
1/64" = 1'-0"
140
0.015625
141
12.0
290
     0
  0
SCALE
  5
41B
102
{ACAD_REACTORS
330
407
102
}
330
407
100
AcDbScale
 70
     0
300
1/32" = 1'-0"
140
0.03125
141
12.0
290
     0
  0
SCALE
  5
41C
102
{ACAD_REACTORS
330
407
102
}
330
407
100
AcDbScale
 70
     0
300
1/16" = 1'-0"
140
0.0625
141
12.0
290
     0
  0
SCALE
  5
41D
102
{ACAD_REACTORS
330
407
102
}
330
407
100
AcDbScale
 70
     0
300
3/32" = 1'-0"
140
0.09375
141
12.0
290
     0
  0
SCALE
  5
41E
102
{ACAD_REACTORS
330
407
102
}
330
407
100
AcDbScale
 70
     0
300
1/8" = 1'-0"
140
0.125
141
12.0
290
     0
  0
SCALE
  5
41F
102
{ACAD_REACTORS
330
407
102
}
330
407
100
AcDbScale
 70
     0
300
3/16" = 1'-0"
140
0.1875
141
12.0
290
     0
  0
SCALE
  5
420
102
{ACAD_REACTORS
330
407
102
}
330
407
100
AcDbScale
 70
     0
300
1/4" = 1'-0"
140
0.25
141
12.0
290
     0
  0
SCALE
  5
421
102
{ACAD_REACTORS
330
407
102
}
330
407
100
AcDbScale
 70
     0
300
3/8" = 1'-0"
140
0.375
141
12.0
290
     0
  0
SCALE
  5
422
102
{ACAD_REACTORS
330
407
102
}
330
407
100
AcDbScale
 70
     0
300
1/2" = 1'-0"
140
0.5
141
12.0
290
     0
  0
SCALE
  5
423
102
{ACAD_REACTORS
330
407
102
}
330
407
100
AcDbScale
 70
     0
300
3/4" = 1'-0"
140
0.75
141
12.0
290
     0
  0
SCALE
  5
424
102
{ACAD_REACTORS
330
407
102
}
330
407
100
AcDbScale
 70
     0
300
1" = 1'-0"
140
1.0
141
12.0
290
     0
  0
SCALE
  5
425
102
{ACAD_REACTORS
330
407
102
}
330
407
100
AcDbScale
 70
     0
300
1-1/2" = 1'-0"
140
1.5
141
12.0
290
     0
  0
SCALE
  5
426
102
{ACAD_REACTORS
330
407
102
}
330
407
100
AcDbScale
 70
     0
300
3" = 1'-0"
140
3.0
141
12.0
290
     0
  0
SCALE
  5
427
102
{ACAD_REACTORS
330
407
102
}
330
407
100
AcDbScale
 70
     0
300
6" = 1'-0"
140
6.0
141
12.0
290
     0
  0
SCALE
  5
428
102
{ACAD_REACTORS
330
407
102
}
330
407
100
AcDbScale
 70
     0
300
1'-0" = 1'-0"
140
12.0
141
12.0
290
     0
  0
ENDSEC
  0
EOF
