  0
SECTION
  2
HEADER
  9
$ACADVER
  1
AC1015
  9
$ACADMAINTVER
 70
     6
  9
$DWGCODEPAGE
  3
ANSI_1252
  9
$INSBASE
 10
0.0
 20
0.0
 30
0.0
  9
$EXTMIN
 10
0.0
 20
0.0
 30
0.0
  9
$EXTMAX
 10
420.0
 20
297.0
 30
0.0
  9
$LIMMIN
 10
0.0
 20
0.0
  9
$LIMMAX
 10
420.0
 20
297.0
  9
$ORTHOMODE
 70
     0
  9
$REGENMODE
 70
     1
  9
$FILLMODE
 70
     1
  9
$QTEXTMODE
 70
     0
  9
$MIRRTEXT
 70
     1
  9
$LTSCALE
 40
23.1
  9
$ATTMODE
 70
     1
  9
$TEXTSIZE
 40
0.2
  9
$TRACEWID
 40
0.05
  9
$TEXTSTYLE
  7
STANDARD
  9
$CLAYER
  8
0
  9
$CELTYPE
  6
BYLAYER
  9
$CECOLOR
 62
   256
  9
$CELTSCALE
 40
1.0
  9
$DISPSILH
 70
     0
  9
$DIMSCALE
 40
1.0
  9
$DIMASZ
 40
2.5
  9
$DIMEXO
 40
2.625
  9
$DIMDLI
 40
15.96
  9
$DIMRND
 40
0.0
  9
$DIMDLE
 40
0.0
  9
$DIMEXE
 40
7.56
  9
$DIMTP
 40
0.01
  9
$DIMTM
 40
0.01
  9
$DIMTXT
 40
3.0
  9
$DIMCEN
 40
3.78
  9
$DIMTSZ
 40
0.0
  9
$DIMTOL
 70
     1
  9
$DIMLIM
 70
     0
  9
$DIMTIH
 70
     1
  9
$DIMTOH
 70
     1
  9
$DIMSE1
 70
     0
  9
$DIMSE2
 70
     0
  9
$DIMTAD
 70
     0
  9
$DIMZIN
 70
     0
  9
$DIMBLK
  1
CLOSED
  9
$DIMASO
 70
     1
  9
$DIMSHO
 70
     1
  9
$DIMPOST
  1

  9
$DIMAPOST
  1

  9
$DIMALT
 70
     0
  9
$DIMALTD
 70
     2
  9
$DIMALTF
 40
25.4
  9
$DIMLFAC
 40
1.0
  9
$DIMTOFL
 70
     0
  9
$DIMTVP
 40
0.0
  9
$DIMTIX
 70
     0
  9
$DIMSOXD
 70
     0
  9
$DIMSAH
 70
     0
  9
$DIMBLK1
  1

  9
$DIMBLK2
  1

  9
$DIMSTYLE
  2
STANDARD
  9
$DIMCLRD
 70
     0
  9
$DIMCLRE
 70
     0
  9
$DIMCLRT
 70
     0
  9
$DIMTFAC
 40
1.0
  9
$DIMGAP
 40
0.09
  9
$DIMJUST
 70
     0
  9
$DIMSD1
 70
     0
  9
$DIMSD2
 70
     0
  9
$DIMTOLJ
 70
     1
  9
$DIMTZIN
 70
     0
  9
$DIMALTZ
 70
     0
  9
$DIMALTTZ
 70
     0
  9
$DIMUPT
 70
     0
  9
$DIMDEC
 70
     4
  9
$DIMTDEC
 70
     4
  9
$DIMALTU
 70
     2
  9
$DIMALTTD
 70
     2
  9
$DIMTXSTY
  7
STANDARD
  9
$DIMAUNIT
 70
     0
  9
$DIMADEC
 70
     0
  9
$DIMALTRND
 40
0.0
  9
$DIMAZIN
 70
     0
  9
$DIMDSEP
 70
    46
  9
$DIMATFIT
 70
     3
  9
$DIMFRAC
 70
     0
  9
$DIMLDRBLK
  1

  9
$DIMLUNIT
 70
     2
  9
$DIMLWD
 70
    -2
  9
$DIMLWE
 70
    -2
  9
$DIMTMOVE
 70
     0
  9
$LUNITS
 70
     2
  9
$LUPREC
 70
     4
  9
$SKETCHINC
 40
0.1
  9
$FILLETRAD
 40
0.5
  9
$AUNITS
 70
     0
  9
$AUPREC
 70
     0
  9
$MENU
  1
.
  9
$ELEVATION
 40
0.0
  9
$PELEVATION
 40
0.0
  9
$THICKNESS
 40
0.0
  9
$LIMCHECK
 70
     0
  9
$CHAMFERA
 40
0.0
  9
$CHAMFERB
 40
0.0
  9
$CHAMFERC
 40
0.0
  9
$CHAMFERD
 40
0.0
  9
$SKPOLY
 70
     0
  9
$TDCREATE
 40
2447893.041666667
  9
$TDUCREATE
 40
0.0
  9
$TDUPDATE
 40
2458444.352282709
  9
$TDUUPDATE
 40
2458444.310616042
  9
$TDINDWG
 40
0.0007706134
  9
$TDUSRTIMER
 40
0.0003843519
  9
$USRTIMER
 70
     1
  9
$ANGBASE
 50
0.0
  9
$ANGDIR
 70
     0
  9
$PDMODE
 70
     3
  9
$PDSIZE
 40
0.3125
  9
$PLINEWID
 40
0.0
  9
$SPLFRAME
 70
     0
  9
$SPLINETYPE
 70
     6
  9
$SPLINESEGS
 70
     8
  9
$HANDSEED
  5
4CD
  9
$SURFTAB1
 70
     6
  9
$SURFTAB2
 70
     6
  9
$SURFTYPE
 70
     6
  9
$SURFU
 70
     6
  9
$SURFV
 70
     6
  9
$UCSBASE
  2

  9
$UCSNAME
  2

  9
$UCSORG
 10
0.0
 20
0.0
 30
0.0
  9
$UCSXDIR
 10
1.0
 20
0.0
 30
0.0
  9
$UCSYDIR
 10
0.0
 20
1.0
 30
0.0
  9
$UCSORTHOREF
  2

  9
$UCSORTHOVIEW
 70
     0
  9
$UCSORGTOP
 10
0.0
 20
0.0
 30
0.0
  9
$UCSORGBOTTOM
 10
0.0
 20
0.0
 30
0.0
  9
$UCSORGLEFT
 10
0.0
 20
0.0
 30
0.0
  9
$UCSORGRIGHT
 10
0.0
 20
0.0
 30
0.0
  9
$UCSORGFRONT
 10
0.0
 20
0.0
 30
0.0
  9
$UCSORGBACK
 10
0.0
 20
0.0
 30
0.0
  9
$PUCSBASE
  2

  9
$PUCSNAME
  2

  9
$PUCSORG
 10
0.0
 20
0.0
 30
0.0
  9
$PUCSXDIR
 10
1.0
 20
0.0
 30
0.0
  9
$PUCSYDIR
 10
0.0
 20
1.0
 30
0.0
  9
$PUCSORTHOREF
  2

  9
$PUCSORTHOVIEW
 70
     0
  9
$PUCSORGTOP
 10
0.0
 20
0.0
 30
0.0
  9
$PUCSORGBOTTOM
 10
0.0
 20
0.0
 30
0.0
  9
$PUCSORGLEFT
 10
0.0
 20
0.0
 30
0.0
  9
$PUCSORGRIGHT
 10
0.0
 20
0.0
 30
0.0
  9
$PUCSORGFRONT
 10
0.0
 20
0.0
 30
0.0
  9
$PUCSORGBACK
 10
0.0
 20
0.0
 30
0.0
  9
$USERI1
 70
     0
  9
$USERI2
 70
     0
  9
$USERI3
 70
     0
  9
$USERI4
 70
     0
  9
$USERI5
 70
     0
  9
$USERR1
 40
0.0
  9
$USERR2
 40
0.0
  9
$USERR3
 40
0.0
  9
$USERR4
 40
0.0
  9
$USERR5
 40
0.0
  9
$WORLDVIEW
 70
     1
  9
$SHADEDGE
 70
     3
  9
$SHADEDIF
 70
    70
  9
$TILEMODE
 70
     1
  9
$MAXACTVP
 70
    64
  9
$PINSBASE
 10
0.0
 20
0.0
 30
0.0
  9
$PLIMCHECK
 70
     0
  9
$PEXTMIN
 10
1.000000000000000E+20
 20
1.000000000000000E+20
 30
1.000000000000000E+20
  9
$PEXTMAX
 10
-1.000000000000000E+20
 20
-1.000000000000000E+20
 30
-1.000000000000000E+20
  9
$PLIMMIN
 10
0.0
 20
0.0
  9
$PLIMMAX
 10
420.0
 20
297.0
  9
$UNITMODE
 70
     0
  9
$VISRETAIN
 70
     1
  9
$PLINEGEN
 70
     0
  9
$PSLTSCALE
 70
     1
  9
$TREEDEPTH
 70
  3020
  9
$CMLSTYLE
  2
Standard
  9
$CMLJUST
 70
     0
  9
$CMLSCALE
 40
1.0
  9
$PROXYGRAPHICS
 70
     1
  9
$MEASUREMENT
 70
     1
  9
$CELWEIGHT
370
    -1
  9
$ENDCAPS
280
     0
  9
$JOINSTYLE
280
     0
  9
$LWDISPLAY
290
     0
  9
$INSUNITS
 70
     4
  9
$HYPERLINKBASE
  1

  9
$STYLESHEET
  1

  9
$XEDIT
290
     1
  9
$CEPSNTYPE
380
     0
  9
$PSTYLEMODE
290
     1
  9
$FINGERPRINTGUID
  2
{D546CD49-2043-4D20-9D3E-B82E4E2EEE78}
  9
$VERSIONGUID
  2
{FAEB1C32-E019-11D5-929B-00C0DF256EC4}
  9
$EXTNAMES
290
     1
  9
$PSVPSCALE
 40
0.0
  9
$OLESTARTUP
290
     0
  0
ENDSEC
  0
SECTION
  2
CLASSES
  0
CLASS
  1
ACDBDICTIONARYWDFLT
  2
AcDbDictionaryWithDefault
  3
ObjectDBX Classes
 90
        0
280
     0
281
     0
  0
CLASS
  1
ACDBPLACEHOLDER
  2
AcDbPlaceHolder
  3
ObjectDBX Classes
 90
        0
280
     0
281
     0
  0
CLASS
  1
LAYOUT
  2
AcDbLayout
  3
ObjectDBX Classes
 90
        0
280
     0
281
     0
  0
CLASS
  1
TABLESTYLE
  2
AcDbTableStyle
  3
ObjectDBX Classes
 90
     4095
280
     0
281
     0
  0
CLASS
  1
ACAD_TABLE
  2
AcDbTable
  3
ObjectDBX Classes
 90
     1025
280
     0
281
     1
  0
CLASS
  1
SCALE
  2
AcDbScale
  3
ObjectDBX Classes
 90
     1153
280
     0
281
     0
  0
CLASS
  1
TABLEGEOMETRY
  2
AcDbTableGeometry
  3
ObjectDBX Classes
 90
     1152
280
     0
281
     0
  0
CLASS
  1
VISUALSTYLE
  2
AcDbVisualStyle
  3
ObjectDBX Classes
 90
     4095
280
     0
281
     0
  0
CLASS
  1
MATERIAL
  2
AcDbMaterial
  3
ObjectDBX Classes
 90
     1153
280
     0
281
     0
  0
CLASS
  1
SUN
  2
AcDbSun
  3
SCENEOE
 90
     1153
280
     0
281
     0
  0
CLASS
  1
RASTERVARIABLES
  2
AcDbRasterVariables
  3
ISM
 90
        0
280
     0
281
     0
  0
CLASS
  1
MLEADERSTYLE
  2
AcDbMLeaderStyle
  3
ACDB_MLEADERSTYLE_CLASS
 90
     4095
280
     0
281
     0
  0
ENDSEC
  0
SECTION
  2
TABLES
  0
TABLE
  2
VPORT
  5
8
330
0
100
AcDbSymbolTable
 70
     1
  0
VPORT
  5
1F4
330
8
100
AcDbSymbolTableRecord
100
AcDbViewportTableRecord
  2
*ACTIVE
 70
     0
 10
0.0
 20
0.0
 11
1.0
 21
1.0
 12
230.6143775729371
 22
153.2094847939368
 13
0.0
 23
0.0
 14
1.0
 24
1.0
 15
0.0
 25
0.0
 16
0.0
 26
0.0
 36
1.0
 17
0.0
 27
0.0
 37
0.0
 40
371.2500000000001
 41
1.929961089494163
 42
50.0
 43
0.0
 44
0.0
 50
0.0
 51
0.0
 71
    16
 72
   100
 73
     1
 74
     1
 75
     0
 76
     0
 77
     0
 78
     0
281
     0
 65
     1
110
0.0
120
0.0
130
0.0
111
1.0
121
0.0
131
0.0
112
0.0
122
1.0
132
0.0
 79
     0
146
0.0
  0
ENDTAB
  0
TABLE
  2
LTYPE
  5
5
330
0
100
AcDbSymbolTable
 70
     6
  0
LTYPE
  5
14
330
5
100
AcDbSymbolTableRecord
100
AcDbLinetypeTableRecord
  2
BYBLOCK
 70
     0
  3

 72
    65
 73
     0
 40
0.0
  0
LTYPE
  5
15
330
5
100
AcDbSymbolTableRecord
100
AcDbLinetypeTableRecord
  2
BYLAYER
 70
     0
  3

 72
    65
 73
     0
 40
0.0
  0
LTYPE
  5
16
330
5
100
AcDbSymbolTableRecord
100
AcDbLinetypeTableRecord
  2
CONTINUOUS
 70
     0
  3
Solid line
 72
    65
 73
     0
 40
0.0
  0
LTYPE
  5
1F5
330
5
100
AcDbSymbolTableRecord
100
AcDbLinetypeTableRecord
  2
CENTER
 70
     0
  3
____ _ ____ _ ____ _ ____ _ ____ _ ____ _ ____
 72
    65
 73
     4
 40
0.6
 49
0.375
 74
     0
 49
-0.075
 74
     0
 49
0.075
 74
     0
 49
-0.075
 74
     0
  0
LTYPE
  5
1F6
330
5
100
AcDbSymbolTableRecord
100
AcDbLinetypeTableRecord
  2
HIDDEN
 70
     0
  3
- - - - - - - - - - - - - - - - - - - -
 72
    65
 73
     2
 40
0.2
 49
0.1
 74
     0
 49
-0.1
 74
     0
  0
LTYPE
  5
1F7
330
5
100
AcDbSymbolTableRecord
100
AcDbLinetypeTableRecord
  2
PHANTOM
 70
     0
  3
_____ _ _ _____ _ _ _____ _ _ _____
 72
    65
 73
     6
 40
0.8
 49
0.45
 74
     0
 49
-0.05
 74
     0
 49
0.1
 74
     0
 49
-0.05
 74
     0
 49
0.1
 74
     0
 49
-0.05
 74
     0
  0
LTYPE
  5
1F8
330
5
100
AcDbSymbolTableRecord
100
AcDbLinetypeTableRecord
  2
DOT
 70
     0
  3
. . . . . . . . . . . . . . . . . . . .
 72
    65
 73
     2
 40
0.2
 49
0.1
 74
     0
 49
-0.1
 74
     0
  0
LTYPE
  5
1F9
330
5
100
AcDbSymbolTableRecord
100
AcDbLinetypeTableRecord
  2
DASHED
 70
     0
  3
- - - - - - - - - - - - - - - - - - - -
 72
    65
 73
     2
 40
0.2
 49
0.1
 74
     0
 49
-0.1
 74
     0
  0
ENDTAB
  0
TABLE
  2
LAYER
  5
2
330
0
100
AcDbSymbolTable
 70
    35
  0
LAYER
  5
10
330
2
100
AcDbSymbolTableRecord
100
AcDbLayerTableRecord
  2
0
 70
     0
 62
     7
  6
CONTINUOUS
370
    -3
390
F
  0
LAYER
  5
1FA
330
2
100
AcDbSymbolTableRecord
100
AcDbLayerTableRecord
  2
DEFAULT_1
 70
     0
 62
     7
  6
CENTER
370
    -3
390
F
  0
LAYER
  5
1FB
330
2
100
AcDbSymbolTableRecord
100
AcDbLayerTableRecord
  2
DEFAULT_2
 70
     0
 62
     8
  6
HIDDEN
370
    -3
390
F
  0
LAYER
  5
1FC
330
2
100
AcDbSymbolTableRecord
100
AcDbLayerTableRecord
  2
DEFAULT_3
 70
     0
 62
     7
  6
PHANTOM
370
    -3
390
F
  0
LAYER
  5
1FD
330
2
100
AcDbSymbolTableRecord
100
AcDbLayerTableRecord
  2
01_ALL_DTM_PLN
 70
     0
 62
     7
  6
CONTINUOUS
370
    -3
390
F
  0
LAYER
  5
1FE
330
2
100
AcDbSymbolTableRecord
100
AcDbLayerTableRecord
  2
01__ASM_ALL_DTM_PLN
 70
     0
 62
     7
  6
CONTINUOUS
370
    -3
390
F
  0
LAYER
  5
1FF
330
2
100
AcDbSymbolTableRecord
100
AcDbLayerTableRecord
  2
01__ASM_DEF_DTM_PLN
 70
     0
 62
     7
  6
CONTINUOUS
370
    -3
390
F
  0
LAYER
  5
200
330
2
100
AcDbSymbolTableRecord
100
AcDbLayerTableRecord
  2
01___PRT_ALL_DTM_PLN
 70
     0
 62
     7
  6
CONTINUOUS
370
    -3
390
F
  0
LAYER
  5
201
330
2
100
AcDbSymbolTableRecord
100
AcDbLayerTableRecord
  2
01___PRT_DEF_DTM_PLN
 70
     0
 62
     7
  6
CONTINUOUS
370
    -3
390
F
  0
LAYER
  5
202
330
2
100
AcDbSymbolTableRecord
100
AcDbLayerTableRecord
  2
02_ALL_AXES
 70
     0
 62
     7
  6
CONTINUOUS
370
    -3
390
F
  0
LAYER
  5
203
330
2
100
AcDbSymbolTableRecord
100
AcDbLayerTableRecord
  2
02__ASM_ALL_AXES
 70
     0
 62
     7
  6
CONTINUOUS
370
    -3
390
F
  0
LAYER
  5
204
330
2
100
AcDbSymbolTableRecord
100
AcDbLayerTableRecord
  2
02___PRT_ALL_AXES
 70
     0
 62
     7
  6
CONTINUOUS
370
    -3
390
F
  0
LAYER
  5
205
330
2
100
AcDbSymbolTableRecord
100
AcDbLayerTableRecord
  2
03_ALL_CURVES
 70
     0
 62
     7
  6
CONTINUOUS
370
    -3
390
F
  0
LAYER
  5
206
330
2
100
AcDbSymbolTableRecord
100
AcDbLayerTableRecord
  2
03__ASM_ALL_CURVES
 70
     0
 62
     7
  6
CONTINUOUS
370
    -3
390
F
  0
LAYER
  5
207
330
2
100
AcDbSymbolTableRecord
100
AcDbLayerTableRecord
  2
03___PRT_ALL_CURVES
 70
     0
 62
     7
  6
CONTINUOUS
370
    -3
390
F
  0
LAYER
  5
208
330
2
100
AcDbSymbolTableRecord
100
AcDbLayerTableRecord
  2
04_ALL_DTM_PNT
 70
     0
 62
     7
  6
CONTINUOUS
370
    -3
390
F
  0
LAYER
  5
209
330
2
100
AcDbSymbolTableRecord
100
AcDbLayerTableRecord
  2
04__ASM_ALL_DTM_PNT
 70
     0
 62
     7
  6
CONTINUOUS
370
    -3
390
F
  0
LAYER
  5
20A
330
2
100
AcDbSymbolTableRecord
100
AcDbLayerTableRecord
  2
04___PRT_ALL_DTM_PNT
 70
     0
 62
     7
  6
CONTINUOUS
370
    -3
390
F
  0
LAYER
  5
20B
330
2
100
AcDbSymbolTableRecord
100
AcDbLayerTableRecord
  2
05_ALL_DTM_CSYS
 70
     0
 62
     7
  6
CONTINUOUS
370
    -3
390
F
  0
LAYER
  5
20C
330
2
100
AcDbSymbolTableRecord
100
AcDbLayerTableRecord
  2
05__ASM_ALL_DTM_CSYS
 70
     0
 62
     7
  6
CONTINUOUS
370
    -3
390
F
  0
LAYER
  5
20D
330
2
100
AcDbSymbolTableRecord
100
AcDbLayerTableRecord
  2
05__ASM_DEF_DTM_CSYS
 70
     0
 62
     7
  6
CONTINUOUS
370
    -3
390
F
  0
LAYER
  5
20E
330
2
100
AcDbSymbolTableRecord
100
AcDbLayerTableRecord
  2
05___PRT_ALL_DTM_CSYS
 70
     0
 62
     7
  6
CONTINUOUS
370
    -3
390
F
  0
LAYER
  5
20F
330
2
100
AcDbSymbolTableRecord
100
AcDbLayerTableRecord
  2
05___PRT_DEF_DTM_CSYS
 70
     0
 62
     7
  6
CONTINUOUS
370
    -3
390
F
  0
LAYER
  5
210
330
2
100
AcDbSymbolTableRecord
100
AcDbLayerTableRecord
  2
06_ALL_SURFS
 70
     0
 62
     7
  6
CONTINUOUS
370
    -3
390
F
  0
LAYER
  5
211
330
2
100
AcDbSymbolTableRecord
100
AcDbLayerTableRecord
  2
06__ASM_ALL_SURFS
 70
     0
 62
     7
  6
CONTINUOUS
370
    -3
390
F
  0
LAYER
  5
212
330
2
100
AcDbSymbolTableRecord
100
AcDbLayerTableRecord
  2
06___PRT_ALL_SURFS
 70
     0
 62
     7
  6
CONTINUOUS
370
    -3
390
F
  0
LAYER
  5
213
330
2
100
AcDbSymbolTableRecord
100
AcDbLayerTableRecord
  2
07__ASM_ALL_SKELETONS
 70
     0
 62
     7
  6
CONTINUOUS
370
    -3
390
F
  0
LAYER
  5
214
330
2
100
AcDbSymbolTableRecord
100
AcDbLayerTableRecord
  2
1_ALL_PLANES
 70
     0
 62
     7
  6
CONTINUOUS
370
    -3
390
F
  0
LAYER
  5
215
330
2
100
AcDbSymbolTableRecord
100
AcDbLayerTableRecord
  2
2_ALL_CSYS
 70
     0
 62
     7
  6
CONTINUOUS
370
    -3
390
F
  0
LAYER
  5
216
330
2
100
AcDbSymbolTableRecord
100
AcDbLayerTableRecord
  2
3_ALL_AXES
 70
     0
 62
     7
  6
CONTINUOUS
370
    -3
390
F
  0
LAYER
  5
217
330
2
100
AcDbSymbolTableRecord
100
AcDbLayerTableRecord
  2
4_ALL_POINTS
 70
     0
 62
     7
  6
CONTINUOUS
370
    -3
390
F
  0
LAYER
  5
218
330
2
100
AcDbSymbolTableRecord
100
AcDbLayerTableRecord
  2
5_ALL_CURVES
 70
     0
 62
     7
  6
CONTINUOUS
370
    -3
390
F
  0
LAYER
  5
219
330
2
100
AcDbSymbolTableRecord
100
AcDbLayerTableRecord
  2
7_ALL_FEATURES
 70
     0
 62
     7
  6
CONTINUOUS
370
    -3
390
F
  0
LAYER
  5
21A
330
2
100
AcDbSymbolTableRecord
100
AcDbLayerTableRecord
  2
8_ALL_NOTES_BALLOONS_SYMBOLS_GT
 70
     0
 62
     7
  6
CONTINUOUS
370
    -3
390
F
  0
LAYER
  5
488
330
2
100
AcDbSymbolTableRecord
100
AcDbLayerTableRecord
  2
Defpoints
 70
     0
 62
     7
  6
CONTINUOUS
290
     0
370
    -3
390
F
  0
ENDTAB
  0
TABLE
  2
STYLE
  5
3
330
0
100
AcDbSymbolTable
 70
     6
  0
STYLE
  5
11
330
3
100
AcDbSymbolTableRecord
100
AcDbTextStyleTableRecord
  2
STANDARD
 70
     0
 40
0.0
 41
0.85
 50
0.0
 71
     0
 42
0.2
  3
txt
  4

  0
STYLE
  5
21B
330
3
100
AcDbSymbolTableRecord
100
AcDbTextStyleTableRecord
  2
TEXTSTYLE_1
 70
     0
 40
0.0
 41
0.8
 50
0.0
 71
     0
 42
0.2
  3
gdt
  4

  0
STYLE
  5
21C
330
3
100
AcDbSymbolTableRecord
100
AcDbTextStyleTableRecord
  2
TEXTSTYLE_2
 70
     0
 40
0.0
 41
0.9
 50
0.0
 71
     0
 42
0.2
  3
txt
  4

  0
STYLE
  5
21D
330
3
100
AcDbSymbolTableRecord
100
AcDbTextStyleTableRecord
  2
TEXTSTYLE_3
 70
     0
 40
0.0
 41
0.9
 50
0.0
 71
     0
 42
0.2
  3
txt
  4

  0
STYLE
  5
21E
330
3
100
AcDbSymbolTableRecord
100
AcDbTextStyleTableRecord
  2
TEXTSTYLE_4
 70
     0
 40
0.0
 41
0.85
 50
0.0
 71
     0
 42
0.2
  3
gdt
  4

  0
STYLE
  5
21F
330
3
100
AcDbSymbolTableRecord
100
AcDbTextStyleTableRecord
  2
TEXTSTYLE_5
 70
     0
 40
0.0
 41
0.85
 50
0.0
 71
     0
 42
0.2
  3
txt
  4

  0
ENDTAB
  0
TABLE
  2
VIEW
  5
6
330
0
100
AcDbSymbolTable
 70
     0
  0
ENDTAB
  0
TABLE
  2
UCS
  5
7
330
0
100
AcDbSymbolTable
 70
     0
  0
ENDTAB
  0
TABLE
  2
APPID
  5
9
330
0
100
AcDbSymbolTable
 70
     1
  0
APPID
  5
220
330
9
100
AcDbSymbolTableRecord
100
AcDbRegAppTableRecord
  2
ACAD
 70
     0
  0
ENDTAB
  0
TABLE
  2
DIMSTYLE
  5
A
330
0
100
AcDbSymbolTable
 70
     3
100
AcDbDimStyleTable
  0
DIMSTYLE
105
228
330
A
100
AcDbSymbolTableRecord
100
AcDbDimStyleTableRecord
  2
STANDARD
 70
     0
 41
2.5
 47
0.01
 48
0.01
 71
     1
 73
     0
 74
     0
 77
     1
 78
     8
140
3.0
178
     0
271
     2
272
     2
284
     8
340
11
341
223
342
223
343
223
344
223
  0
DIMSTYLE
105
229
330
A
100
AcDbSymbolTableRecord
100
AcDbDimStyleTableRecord
  2
DIMSTYLE_1
 70
     0
 41
2.5
 47
0.3
 48
0.3
 73
     0
 74
     0
 77
     1
 78
     8
140
3.0
144
0.6666666667
178
     0
271
     2
272
     2
284
     8
340
11
341
223
342
223
343
223
344
223
  0
DIMSTYLE
105
22A
330
A
100
AcDbSymbolTableRecord
100
AcDbDimStyleTableRecord
  2
DIMSTYLE_2
 70
     0
 41
2.5
 47
0.3
 48
0.3
 73
     0
 74
     0
 77
     1
 78
     8
140
3.0
144
0.6666666667
178
     0
271
     0
272
     0
284
     8
340
11
341
223
342
223
343
223
344
223
  0
ENDTAB
  0
TABLE
  2
BLOCK_RECORD
  5
1
330
0
100
AcDbSymbolTable
 70
     5
  0
BLOCK_RECORD
  5
221
330
1
100
AcDbSymbolTableRecord
100
AcDbBlockTableRecord
  2
*Model_Space
340
43F
  0
BLOCK_RECORD
  5
222
330
1
100
AcDbSymbolTableRecord
100
AcDbBlockTableRecord
  2
*Paper_Space
340
440
  0
BLOCK_RECORD
  5
223
330
1
100
AcDbSymbolTableRecord
100
AcDbBlockTableRecord
  2
_CLOSED
340
0
102
{BLKREFS
331
270
331
276
331
277
102
}
  0
BLOCK_RECORD
  5
224
330
1
100
AcDbSymbolTableRecord
100
AcDbBlockTableRecord
  2
*D1
340
0
  0
BLOCK_RECORD
  5
225
330
1
100
AcDbSymbolTableRecord
100
AcDbBlockTableRecord
  2
*D2
340
0
  0
BLOCK_RECORD
  5
226
330
1
100
AcDbSymbolTableRecord
100
AcDbBlockTableRecord
  2
LOGO2_BL0
340
0
102
{BLKREFS
331
29E
102
}
  0
BLOCK_RECORD
  5
227
330
1
100
AcDbSymbolTableRecord
100
AcDbBlockTableRecord
  2
*T4
340
0
102
{BLKREFS
331
29F
102
}
  0
ENDTAB
  0
ENDSEC
  0
SECTION
  2
BLOCKS
  0
BLOCK
  5
20
330
221
100
AcDbEntity
  8
0
100
AcDbBlockBegin
  2
*Model_Space
 70
     0
 10
0.0
 20
0.0
 30
0.0
  3
*Model_Space
  1
*Model_Space
  0
ENDBLK
  5
21
330
221
100
AcDbEntity
  8
0
100
AcDbBlockEnd
  0
BLOCK
  5
1C
330
222
100
AcDbEntity
 67
     1
  8
0
100
AcDbBlockBegin
  2
*Paper_Space
 70
     0
 10
0.0
 20
0.0
 30
0.0
  3
*Paper_Space
  1
*Paper_Space
  0
ENDBLK
  5
1D
330
222
100
AcDbEntity
 67
     1
  8
0
100
AcDbBlockEnd
  0
BLOCK
  5
267
330
223
100
AcDbEntity
  8
0
100
AcDbBlockBegin
  2
_CLOSED
 70
     0
 10
0.0
 20
0.0
 30
0.0
  3
_CLOSED
  1
_CLOSED
  0
LINE
  5
268
330
223
100
AcDbEntity
  8
0
  6
ByBlock
 62
     0
100
AcDbLine
 10
0.0
 20
0.0
 30
0.0
 11
-1.0
 21
0.2
 31
0.0
  0
LINE
  5
269
330
223
100
AcDbEntity
  8
0
  6
ByBlock
 62
     0
100
AcDbLine
 10
-1.0
 20
0.2
 30
0.0
 11
-1.0
 21
-0.2
 31
0.0
  0
LINE
  5
26A
330
223
100
AcDbEntity
  8
0
  6
ByBlock
 62
     0
100
AcDbLine
 10
-1.0
 20
-0.2
 30
0.0
 11
0.0
 21
0.0
 31
0.0
  0
LINE
  5
26B
330
223
100
AcDbEntity
  8
0
  6
ByBlock
 62
     0
100
AcDbLine
 10
-1.0
 20
0.0
 30
0.0
 11
0.0
 21
0.0
 31
0.0
  0
ENDBLK
  5
26C
330
223
100
AcDbEntity
  8
0
  6
ByBlock
 62
     0
100
AcDbBlockEnd
  0
BLOCK
  5
26D
330
224
100
AcDbEntity
  8
0
100
AcDbBlockBegin
  2
*D1
 70
     1
 10
0.0
 20
0.0
 30
0.0
  3
*D1
  1
*D1
  0
LINE
  5
26E
330
224
100
AcDbEntity
  8
0
  6
Continuous
 62
     0
370
    -2
100
AcDbLine
 10
97.18030636110917
 20
64.13608490186152
 30
0.0
 11
112.1384142594743
 21
55.59572582206231
 31
0.0
  0
MTEXT
  5
26F
330
224
100
AcDbEntity
  8
0
 62
     0
100
AcDbMText
 10
106.9754397004585
 20
64.30110885228882
 30
0.0
 40
3.0
 41
0.0
 71
     1
 72
     1
  1
\A1;%%c35
 11
0.868421429817177
 21
-0.4958268046750701
 31
0.0
 73
     1
 44
1.0
  0
INSERT
  5
270
330
224
100
AcDbEntity
  8
0
 62
     0
370
    -2
100
AcDbBlockReference
  2
_CLOSED
 10
95.00925278656624
 20
65.37565191354919
 30
0.0
 41
2.5
 42
2.5
 43
2.5
 50
150.275714438936
  0
LINE
  5
4A6
330
224
100
AcDbEntity
  8
0
  6
Continuous
 62
     0
100
AcDbLine
 10
72.12319025390008
 20
78.39110553624994
 30
0.0
 11
72.30319025390008
 21
78.39110553624994
 31
0.0
  0
LINE
  5
4A7
330
224
100
AcDbEntity
  8
0
  6
Continuous
 62
     0
100
AcDbLine
 10
72.21319025390008
 20
78.30110553624993
 30
0.0
 11
72.21319025390008
 21
78.48110553624994
 31
0.0
  0
POINT
  5
4A8
330
224
100
AcDbEntity
  8
Defpoints
 62
     0
100
AcDbPoint
 10
95.00925278656624
 20
65.37565191354919
 30
0.0
  0
POINT
  5
4A9
330
224
100
AcDbEntity
  8
Defpoints
 62
     0
100
AcDbPoint
 10
49.41712772123392
 20
91.4065591589507
 30
0.0
  0
ENDBLK
  5
271
330
224
100
AcDbEntity
  8
0
  6
ByBlock
 62
     0
100
AcDbBlockEnd
  0
BLOCK
  5
272
330
225
100
AcDbEntity
  8
0
100
AcDbBlockBegin
  2
*D2
 70
     1
 10
0.0
 20
0.0
 30
0.0
  3
*D2
  1
*D2
  0
LINE
  5
273
330
225
100
AcDbEntity
  8
0
  6
Continuous
 62
     0
370
    -2
100
AcDbLine
 10
103.1670951574
 20
258.1562229226
 30
0.0
 11
117.4013558902
 21
258.1562229226
 31
0.0
  0
LINE
  5
274
330
225
100
AcDbEntity
  8
0
  6
Continuous
 62
     0
370
    -2
100
AcDbLine
 10
103.1793678847
 20
180.0812229226
 30
0.0
 11
117.4013558902
 21
180.0812229226
 31
0.0
  0
LINE
  5
275
330
225
100
AcDbEntity
  8
0
  6
Continuous
 62
     0
370
    -2
100
AcDbLine
 10
117.2213558902
 20
255.6562229226
 30
0.0
 11
117.2213558902
 21
182.5812229226
 31
0.0
  0
INSERT
  5
276
330
225
100
AcDbEntity
  8
0
 62
     0
370
    -2
100
AcDbBlockReference
  2
_CLOSED
 10
117.2213558902
 20
258.1562229226
 30
0.0
 41
2.5
 42
2.5
 43
2.5
 50
89.99999999999999
  0
INSERT
  5
277
330
225
100
AcDbEntity
  8
0
 62
     0
370
    -2
100
AcDbBlockReference
  2
_CLOSED
 10
117.2213558902
 20
180.0812229226
 30
0.0
 41
2.5
 42
2.5
 43
2.5
 50
270.0
  0
MTEXT
  5
278
330
225
100
AcDbEntity
  8
0
 62
     0
100
AcDbMText
 10
112.2213558902
 20
219.1187229226
 30
0.0
 40
3.0
 41
0.0
 71
     2
 72
     1
  1
\A1;52
 11
1.820154302299328E-16
 21
1.0
 31
0.0
 73
     1
 44
1.0
  0
POINT
  5
279
330
225
100
AcDbEntity
  8
Defpoints
 62
     0
100
AcDbPoint
 10
103.1045951574
 20
258.1562229226
 30
0.0
  0
POINT
  5
4A4
330
225
100
AcDbEntity
  8
Defpoints
 62
     0
100
AcDbPoint
 10
103.1168678847
 20
180.0812229226
 30
0.0
  0
POINT
  5
4A5
330
225
100
AcDbEntity
  8
Defpoints
 62
     0
100
AcDbPoint
 10
117.2213558902
 20
180.0812229226
 30
0.0
  0
ENDBLK
  5
27A
330
225
100
AcDbEntity
  8
0
  6
ByBlock
 62
     0
100
AcDbBlockEnd
  0
BLOCK
  5
22B
330
226
100
AcDbEntity
  8
0
100
AcDbBlockBegin
  2
LOGO2_BL0
 70
     0
 10
333.1473869546
 20
37.5239270671
 30
0.0
  3
LOGO2_BL0
  1
LOGO2_BL0
  0
LINE
  5
22C
330
226
100
AcDbEntity
  8
0
  6
Continuous
 62
     7
100
AcDbLine
 10
324.8903121828
 20
40.7194184059
 30
0.0
 11
323.5859712535
 21
40.7194184059
 31
0.0
  0
LINE
  5
22D
330
226
100
AcDbEntity
  8
0
  6
Continuous
 62
     7
100
AcDbLine
 10
323.5859712535
 20
40.7194184059
 30
0.0
 11
323.5859712535
 21
30.260352346
 31
0.0
  0
LINE
  5
22E
330
226
100
AcDbEntity
  8
0
  6
Continuous
 62
     7
100
AcDbLine
 10
323.5859712535
 20
30.260352346
 30
0.0
 11
328.0670261417
 21
30.260352346
 31
0.0
  0
LINE
  5
22F
330
226
100
AcDbEntity
  8
0
  6
Continuous
 62
     7
100
AcDbLine
 10
328.0670261417
 20
30.260352346
 30
0.0
 11
328.0670261417
 21
31.4532066711
 31
0.0
  0
LINE
  5
230
330
226
100
AcDbEntity
  8
0
  6
Continuous
 62
     7
100
AcDbLine
 10
328.0670261417
 20
31.4532066711
 30
0.0
 11
324.8903121828
 21
31.4532066711
 31
0.0
  0
LINE
  5
231
330
226
100
AcDbEntity
  8
0
  6
Continuous
 62
     7
100
AcDbLine
 10
324.8903121828
 20
31.4532066711
 30
0.0
 11
324.8903121828
 21
40.7194184059
 31
0.0
  0
LINE
  5
232
330
226
100
AcDbEntity
  8
0
  6
Continuous
 62
     7
100
AcDbLine
 10
339.8266383991
 20
40.7194184059
 30
0.0
 11
338.522820881
 21
40.7194184059
 31
0.0
  0
LINE
  5
233
330
226
100
AcDbEntity
  8
0
  6
Continuous
 62
     7
100
AcDbLine
 10
338.522820881
 20
40.7194184059
 30
0.0
 11
338.522820881
 21
30.260352346
 31
0.0
  0
LINE
  5
234
330
226
100
AcDbEntity
  8
0
  6
Continuous
 62
     7
100
AcDbLine
 10
338.522820881
 20
30.260352346
 30
0.0
 11
343.0040066221
 21
30.260352346
 31
0.0
  0
LINE
  5
235
330
226
100
AcDbEntity
  8
0
  6
Continuous
 62
     7
100
AcDbLine
 10
343.0040066221
 20
30.260352346
 30
0.0
 11
343.0040066221
 21
31.4532066711
 31
0.0
  0
LINE
  5
236
330
226
100
AcDbEntity
  8
0
  6
Continuous
 62
     7
100
AcDbLine
 10
343.0040066221
 20
31.4532066711
 30
0.0
 11
339.8266383991
 21
31.4532066711
 31
0.0
  0
LINE
  5
237
330
226
100
AcDbEntity
  8
0
  6
Continuous
 62
     7
100
AcDbLine
 10
339.8266383991
 20
31.4532066711
 30
0.0
 11
339.8266383991
 21
40.7194184059
 31
0.0
  0
LWPOLYLINE
  5
238
330
226
100
AcDbEntity
  8
0
  6
Continuous
 62
     7
100
AcDbPolyline
 90
        2
 70
     0
 43
0.2
 10
321.9403661644
 20
26.9168010391
 10
321.9403661644
 20
25.0597377898
  0
LWPOLYLINE
  5
239
330
226
100
AcDbEntity
  8
0
  6
Continuous
 62
     7
100
AcDbPolyline
 90
        2
 70
     0
 43
0.2
 10
321.9403661644
 20
25.0597377898
 10
322.7360821748
 20
25.0597377898
  0
LWPOLYLINE
  5
23A
330
226
100
AcDbEntity
  8
0
  6
Continuous
 62
     7
100
AcDbPolyline
 90
        2
 70
     0
 43
0.2
 10
322.7360821748
 20
25.0597377898
 10
322.7360821748
 20
25.2717193614
  0
LWPOLYLINE
  5
23B
330
226
100
AcDbEntity
  8
0
  6
Continuous
 62
     7
100
AcDbPolyline
 90
        2
 70
     0
 43
0.2
 10
322.7360821748
 20
25.2717193614
 10
322.1719756593
 20
25.2717193614
  0
LWPOLYLINE
  5
23C
330
226
100
AcDbEntity
  8
0
  6
Continuous
 62
     7
100
AcDbPolyline
 90
        2
 70
     0
 43
0.2
 10
322.1719756593
 20
25.2717193614
 10
322.1719756593
 20
26.9168010391
  0
LWPOLYLINE
  5
23D
330
226
100
AcDbEntity
  8
0
  6
Continuous
 62
     7
100
AcDbPolyline
 90
        2
 70
     0
 43
0.2
 10
322.1719756593
 20
26.9168010391
 10
321.9403661644
 20
26.9168010391
  0
SPLINE
  5
23E
330
226
100
AcDbEntity
  8
0
  6
Continuous
 62
     7
100
AcDbSpline
 70
     3
 71
     3
 72
    35
 73
    31
 74
     0
 42
0.000000001
 43
0.0000001
 40
0.0
 40
0.0
 40
0.0
 40
0.0
 40
1.0
 40
1.0
 40
1.0
 40
2.0
 40
2.0
 40
2.0
 40
3.0
 40
3.0
 40
3.0
 40
4.0
 40
4.0
 40
4.0
 40
5.0
 40
5.0
 40
5.0
 40
6.0
 40
6.0
 40
6.0
 40
7.0
 40
7.0
 40
7.0
 40
8.0
 40
8.0
 40
8.0
 40
9.0
 40
9.0
 40
9.0
 40
10.0
 40
10.0
 40
10.0
 40
10.0
 10
324.1343754303
 20
26.2122894457
 30
0.0
 10
324.1343754303
 20
26.2122894457
 30
0.0
 10
324.1343754303
 20
25.5501741665
 30
0.0
 10
324.1343754303
 20
25.5501741665
 30
0.0
 10
324.1343754303
 20
25.2350805712
 30
0.0
 10
324.2822391191
 20
25.0204819432
 30
0.0
 10
324.6223256034
 20
25.0204819432
 30
0.0
 10
324.9618886764
 20
25.0204819432
 30
0.0
 10
325.1100140709
 20
25.2350805712
 30
0.0
 10
325.1100140709
 20
25.5501741665
 30
0.0
 10
325.1100140709
 20
25.5501741665
 30
0.0
 10
325.1100140709
 20
26.2122894457
 30
0.0
 10
325.1100140709
 20
26.2122894457
 30
0.0
 10
325.1100140709
 20
26.2122894457
 30
0.0
 10
324.887956832
 20
26.2122894457
 30
0.0
 10
324.887956832
 20
26.2122894457
 30
0.0
 10
324.887956832
 20
26.2122894457
 30
0.0
 10
324.887956832
 20
25.5752979083
 30
0.0
 10
324.887956832
 20
25.5752979083
 30
0.0
 10
324.887956832
 20
25.3894869011
 30
0.0
 10
324.8412423746
 20
25.2267059906
 30
0.0
 10
324.6223256034
 20
25.2267059906
 30
0.0
 10
324.402885421
 20
25.2267059906
 30
0.0
 10
324.3561709636
 20
25.3894869011
 30
0.0
 10
324.3561709636
 20
25.5752979083
 30
0.0
 10
324.3561709636
 20
25.5752979083
 30
0.0
 10
324.3561709636
 20
26.2122894457
 30
0.0
 10
324.3561709636
 20
26.2122894457
 30
0.0
 10
324.3561709636
 20
26.2122894457
 30
0.0
 10
324.1343754303
 20
26.2122894457
 30
0.0
 10
324.1343754303
 20
26.2122894457
 30
0.0
  0
SPLINE
  5
23F
330
226
100
AcDbEntity
  8
0
  6
Continuous
 62
     7
100
AcDbSpline
 70
     3
 71
     3
 72
    35
 73
    31
 74
     0
 42
0.000000001
 43
0.0000001
 40
0.0
 40
0.0
 40
0.0
 40
0.0
 40
1.0
 40
1.0
 40
1.0
 40
2.0
 40
2.0
 40
2.0
 40
3.0
 40
3.0
 40
3.0
 40
4.0
 40
4.0
 40
4.0
 40
5.0
 40
5.0
 40
5.0
 40
6.0
 40
6.0
 40
6.0
 40
7.0
 40
7.0
 40
7.0
 40
8.0
 40
8.0
 40
8.0
 40
9.0
 40
9.0
 40
9.0
 40
10.0
 40
10.0
 40
10.0
 40
10.0
 10
327.5331466281
 20
26.1709399539
 30
0.0
 10
327.4446901205
 20
26.2222342601
 30
0.0
 10
327.3312407238
 20
26.2473580019
 30
0.0
 10
327.2276052888
 20
26.2473580019
 30
0.0
 10
326.8727324356
 20
26.2473580019
 30
0.0
 10
326.5972872454
 20
25.9835587129
 30
0.0
 10
326.5972872454
 20
25.6260688032
 30
0.0
 10
326.5972872454
 20
25.2811407645
 30
0.0
 10
326.8757420505
 20
25.0210053545
 30
0.0
 10
327.2153051235
 20
25.0210053545
 30
0.0
 10
327.3312407238
 20
25.0210053545
 30
0.0
 10
327.4319973967
 20
25.0429886286
 30
0.0
 10
327.5331466281
 20
25.0968999912
 30
0.0
 10
327.5331466281
 20
25.0968999912
 30
0.0
 10
327.5331466281
 20
25.3795420867
 30
0.0
 10
327.5331466281
 20
25.3795420867
 30
0.0
 10
327.4492699692
 20
25.2863748774
 30
0.0
 10
327.345765387
 20
25.2272294019
 30
0.0
 10
327.2176604743
 20
25.2272294019
 30
0.0
 10
326.9839573343
 20
25.2272294019
 30
0.0
 10
326.8186902202
 20
25.3994317156
 30
0.0
 10
326.8186902202
 20
25.6360136177
 30
0.0
 10
326.8186902202
 20
25.8479951893
 30
0.0
 10
326.9864435379
 20
26.040087132
 30
0.0
 10
327.2032666639
 20
26.040087132
 30
0.0
 10
327.3360822782
 20
26.040087132
 30
0.0
 10
327.4446901205
 20
25.9861757693
 30
0.0
 10
327.5331466281
 20
25.8851573907
 30
0.0
 10
327.5331466281
 20
25.8851573907
 30
0.0
 10
327.5331466281
 20
26.1709399539
 30
0.0
 10
327.5331466281
 20
26.1709399539
 30
0.0
  0
SPLINE
  5
240
330
226
100
AcDbEntity
  8
0
  6
Continuous
 62
     7
100
AcDbSpline
 70
     3
 71
     3
 72
    32
 73
    28
 74
     0
 42
0.000000001
 43
0.0000001
 40
0.0
 40
0.0
 40
0.0
 40
0.0
 40
1.0
 40
1.0
 40
1.0
 40
2.0
 40
2.0
 40
2.0
 40
3.0
 40
3.0
 40
3.0
 40
4.0
 40
4.0
 40
4.0
 40
5.0
 40
5.0
 40
5.0
 40
6.0
 40
6.0
 40
6.0
 40
7.0
 40
7.0
 40
7.0
 40
8.0
 40
8.0
 40
8.0
 40
9.0
 40
9.0
 40
9.0
 40
9.0
 10
330.0650178804
 20
25.5993748276
 30
0.0
 10
330.0650178804
 20
25.5993748276
 30
0.0
 10
330.0650178804
 20
25.6333965613
 30
0.0
 10
330.0650178804
 20
25.6333965613
 30
0.0
 10
330.0650178804
 20
25.9757075435
 30
0.0
 10
329.8921613025
 20
26.2473580019
 30
0.0
 10
329.5255116954
 20
26.2473580019
 30
0.0
 10
329.153889681
 20
26.2473580019
 30
0.0
 10
328.9641530891
 20
25.9809416564
 30
0.0
 10
328.9641530891
 20
25.6260688032
 30
0.0
 10
328.9641530891
 20
25.2863748774
 30
0.0
 10
329.1782283059
 20
25.0204819432
 30
0.0
 10
329.5303532498
 20
25.0204819432
 30
0.0
 10
329.754373281
 20
25.0204819432
 30
0.0
 10
329.9565408909
 20
25.1361558378
 30
0.0
 10
330.0650178804
 20
25.3355755385
 30
0.0
 10
330.0650178804
 20
25.3355755385
 30
0.0
 10
329.8773749337
 20
25.4423514412
 30
0.0
 10
329.8773749337
 20
25.4423514412
 30
0.0
 10
329.7938908332
 20
25.3036474499
 30
0.0
 10
329.7026864163
 20
25.2178079987
 30
0.0
 10
329.5331011591
 20
25.2178079987
 30
0.0
 10
329.3211195875
 20
25.2178079987
 30
0.0
 10
329.1881731204
 20
25.4025721833
 30
0.0
 10
329.1858177696
 20
25.5993748276
 30
0.0
 10
329.1858177696
 20
25.5993748276
 30
0.0
 10
330.0650178804
 20
25.5993748276
 30
0.0
 10
330.0650178804
 20
25.5993748276
 30
0.0
  0
SPLINE
  5
241
330
226
100
AcDbEntity
  8
0
  6
Continuous
 62
     7
100
AcDbSpline
 70
     3
 71
     3
 72
    14
 73
    10
 74
     0
 42
0.000000001
 43
0.0000001
 40
0.0
 40
0.0
 40
0.0
 40
0.0
 40
1.0
 40
1.0
 40
1.0
 40
2.0
 40
2.0
 40
2.0
 40
3.0
 40
3.0
 40
3.0
 40
3.0
 10
329.1978562292
 20
25.7668664397
 30
0.0
 10
329.2254661746
 20
25.9317409954
 30
0.0
 10
329.3533093817
 20
26.054742648
 30
0.0
 10
329.5255116954
 20
26.054742648
 30
0.0
 10
329.7026864163
 20
26.054742648
 30
0.0
 10
329.816135813
 20
25.9390687534
 30
0.0
 10
329.8433531999
 20
25.7668664397
 30
0.0
 10
329.8433531999
 20
25.7668664397
 30
0.0
 10
329.1978562292
 20
25.7668664397
 30
0.0
 10
329.1978562292
 20
25.7668664397
 30
0.0
  0
SPLINE
  5
242
330
226
100
AcDbEntity
  8
0
  6
Continuous
 62
     7
100
AcDbSpline
 70
     3
 71
     3
 72
    20
 73
    16
 74
     0
 42
0.000000001
 43
0.0000001
 40
0.0
 40
0.0
 40
0.0
 40
0.0
 40
1.0
 40
1.0
 40
1.0
 40
2.0
 40
2.0
 40
2.0
 40
3.0
 40
3.0
 40
3.0
 40
4.0
 40
4.0
 40
4.0
 40
5.0
 40
5.0
 40
5.0
 40
5.0
 10
332.0890493306
 20
25.9762309548
 30
0.0
 10
332.0890493306
 20
25.9762309548
 30
0.0
 10
332.5001888972
 20
25.4737561185
 30
0.0
 10
332.5001888972
 20
25.4737561185
 30
0.0
 10
332.3841224441
 20
25.3580822239
 30
0.0
 10
332.2463344226
 20
25.2277528132
 30
0.0
 10
332.0743938145
 20
25.2277528132
 30
0.0
 10
331.8969573879
 20
25.2277528132
 30
0.0
 10
331.7294657758
 20
25.3921039576
 30
0.0
 10
331.7294657758
 20
25.5690169729
 30
0.0
 10
331.7294657758
 20
25.7469768107
 30
0.0
 10
331.9392228494
 20
25.8731189311
 30
0.0
 10
332.0668043508
 20
25.9610520275
 30
0.0
 10
332.0668043508
 20
25.9610520275
 30
0.0
 10
332.0890493306
 20
25.9762309548
 30
0.0
 10
332.0890493306
 20
25.9762309548
 30
0.0
  0
SPLINE
  5
243
330
226
100
AcDbEntity
  8
0
  6
Continuous
 62
     7
100
AcDbSpline
 70
     3
 71
     3
 72
    23
 73
    19
 74
     0
 42
0.000000001
 43
0.0000001
 40
0.0
 40
0.0
 40
0.0
 40
0.0
 40
1.0
 40
1.0
 40
1.0
 40
2.0
 40
2.0
 40
2.0
 40
3.0
 40
3.0
 40
3.0
 40
4.0
 40
4.0
 40
4.0
 40
5.0
 40
5.0
 40
5.0
 40
6.0
 40
6.0
 40
6.0
 40
6.0
 10
332.1383808444
 20
26.2672476309
 30
0.0
 10
332.1383808444
 20
26.2672476309
 30
0.0
 10
332.0767491653
 20
26.3457593241
 30
0.0
 10
332.0767491653
 20
26.3457593241
 30
0.0
 10
332.0228378026
 20
26.4143262028
 30
0.0
 10
331.9660476779
 20
26.4834164928
 30
0.0
 10
331.9660476779
 20
26.5771071133
 30
0.0
 10
331.9660476779
 20
26.6959214757
 30
0.0
 10
332.0619627964
 20
26.7733863463
 30
0.0
 10
332.1729259894
 20
26.7733863463
 30
0.0
 10
332.2961893477
 20
26.7733863463
 30
0.0
 10
332.3894874098
 20
26.7022024111
 30
0.0
 10
332.3894874098
 20
26.5718730004
 30
0.0
 10
332.3894874098
 20
26.4368328882
 30
0.0
 10
332.2613824971
 20
26.3604148401
 30
0.0
 10
332.1678227294
 20
26.2866138485
 30
0.0
 10
332.1678227294
 20
26.2866138485
 30
0.0
 10
332.1383808444
 20
26.2672476309
 30
0.0
 10
332.1383808444
 20
26.2672476309
 30
0.0
  0
SPLINE
  5
244
330
226
100
AcDbEntity
  8
0
  6
Continuous
 62
     7
100
AcDbSpline
 70
     3
 71
     3
 72
    50
 73
    46
 74
     0
 42
0.000000001
 43
0.0000001
 40
0.0
 40
0.0
 40
0.0
 40
0.0
 40
1.0
 40
1.0
 40
1.0
 40
2.0
 40
2.0
 40
2.0
 40
3.0
 40
3.0
 40
3.0
 40
4.0
 40
4.0
 40
4.0
 40
5.0
 40
5.0
 40
5.0
 40
6.0
 40
6.0
 40
6.0
 40
7.0
 40
7.0
 40
7.0
 40
8.0
 40
8.0
 40
8.0
 40
9.0
 40
9.0
 40
9.0
 40
10.0
 40
10.0
 40
10.0
 40
11.0
 40
11.0
 40
11.0
 40
12.0
 40
12.0
 40
12.0
 40
13.0
 40
13.0
 40
13.0
 40
14.0
 40
14.0
 40
14.0
 40
15.0
 40
15.0
 40
15.0
 40
15.0
 10
332.8405370871
 20
25.0602612011
 30
0.0
 10
332.8405370871
 20
25.0602612011
 30
0.0
 10
333.1259270918
 20
25.0602612011
 30
0.0
 10
333.1259270918
 20
25.0602612011
 30
0.0
 10
333.1259270918
 20
25.0602612011
 30
0.0
 10
332.793560924
 20
25.471139062
 30
0.0
 10
332.793560924
 20
25.471139062
 30
0.0
 10
332.793560924
 20
25.471139062
 30
0.0
 10
333.0200671588
 20
25.7370319963
 30
0.0
 10
333.0200671588
 20
25.7370319963
 30
0.0
 10
333.0200671588
 20
25.7370319963
 30
0.0
 10
332.8718109116
 20
25.8898680923
 30
0.0
 10
332.8718109116
 20
25.8898680923
 30
0.0
 10
332.8718109116
 20
25.8898680923
 30
0.0
 10
332.6559037553
 20
25.6386306742
 30
0.0
 10
332.6559037553
 20
25.6386306742
 30
0.0
 10
332.6559037553
 20
25.6386306742
 30
0.0
 10
332.2688411079
 20
26.1065603655
 30
0.0
 10
332.2688411079
 20
26.1065603655
 30
0.0
 10
332.4242942604
 20
26.2206640263
 30
0.0
 10
332.6065722414
 20
26.3604148401
 30
0.0
 10
332.6065722414
 20
26.5697793553
 30
0.0
 10
332.6065722414
 20
26.8136890154
 30
0.0
 10
332.4045354843
 20
26.9571037083
 30
0.0
 10
332.1780292495
 20
26.9571037083
 30
0.0
 10
331.9338578837
 20
26.9571037083
 30
0.0
 10
331.7494862575
 20
26.8063612574
 30
0.0
 10
331.7494862575
 20
26.5498897263
 30
0.0
 10
331.7494862575
 20
26.3923429287
 30
0.0
 10
331.8481492853
 20
26.25468576
 30
0.0
 10
331.953485807
 20
26.1437225669
 30
0.0
 10
331.953485807
 20
26.1437225669
 30
0.0
 10
331.8379427652
 20
26.0599767609
 30
0.0
 10
331.8379427652
 20
26.0599767609
 30
0.0
 10
331.660244633
 20
25.9317409954
 30
0.0
 10
331.5129043554
 20
25.8040286411
 30
0.0
 10
331.5129043554
 20
25.5669233277
 30
0.0
 10
331.5129043554
 20
25.2465956195
 30
0.0
 10
331.7714695316
 20
25.0204819432
 30
0.0
 10
332.0818524253
 20
25.0204819432
 30
0.0
 10
332.3007691965
 20
25.0204819432
 30
0.0
 10
332.4979643992
 20
25.145577241
 30
0.0
 10
332.6382386243
 20
25.3114986192
 30
0.0
 10
332.6382386243
 20
25.3114986192
 30
0.0
 10
332.8405370871
 20
25.0602612011
 30
0.0
 10
332.8405370871
 20
25.0602612011
 30
0.0
  0
LWPOLYLINE
  5
245
330
226
100
AcDbEntity
  8
0
  6
Continuous
 62
     7
100
AcDbPolyline
 90
        2
 70
     0
 43
0.2
 10
334.7759811768
 20
26.9168010391
 10
334.5446333876
 20
26.9168010391
  0
LWPOLYLINE
  5
246
330
226
100
AcDbEntity
  8
0
  6
Continuous
 62
     7
100
AcDbPolyline
 90
        2
 70
     0
 43
0.2
 10
334.5446333876
 20
26.9168010391
 10
334.5446333876
 20
25.0597377898
  0
LWPOLYLINE
  5
247
330
226
100
AcDbEntity
  8
0
  6
Continuous
 62
     7
100
AcDbPolyline
 90
        2
 70
     0
 43
0.2
 10
334.5446333876
 20
25.0597377898
 10
335.3399568395
 20
25.0597377898
  0
LWPOLYLINE
  5
248
330
226
100
AcDbEntity
  8
0
  6
Continuous
 62
     7
100
AcDbPolyline
 90
        2
 70
     0
 43
0.2
 10
335.3399568395
 20
25.0597377898
 10
335.3399568395
 20
25.2717193614
  0
LWPOLYLINE
  5
249
330
226
100
AcDbEntity
  8
0
  6
Continuous
 62
     7
100
AcDbPolyline
 90
        2
 70
     0
 43
0.2
 10
335.3399568395
 20
25.2717193614
 10
334.7759811768
 20
25.2717193614
  0
LWPOLYLINE
  5
24A
330
226
100
AcDbEntity
  8
0
  6
Continuous
 62
     7
100
AcDbPolyline
 90
        2
 70
     0
 43
0.2
 10
334.7759811768
 20
25.2717193614
 10
334.7759811768
 20
26.9168010391
  0
LWPOLYLINE
  5
24B
330
226
100
AcDbEntity
  8
0
  6
Continuous
 62
     7
100
AcDbPolyline
 90
        2
 70
     0
 43
0.2
 10
337.019060251
 20
26.2122894457
 10
336.7979189819
 20
26.2122894457
  0
LWPOLYLINE
  5
24C
330
226
100
AcDbEntity
  8
0
  6
Continuous
 62
     7
100
AcDbPolyline
 90
        2
 70
     0
 43
0.2
 10
336.7979189819
 20
26.2122894457
 10
336.7979189819
 20
25.0602612011
  0
LWPOLYLINE
  5
24D
330
226
100
AcDbEntity
  8
0
  6
Continuous
 62
     7
100
AcDbPolyline
 90
        2
 70
     0
 43
0.2
 10
336.7979189819
 20
25.0602612011
 10
337.019060251
 20
25.0602612011
  0
LWPOLYLINE
  5
24E
330
226
100
AcDbEntity
  8
0
  6
Continuous
 62
     7
100
AcDbPolyline
 90
        2
 70
     0
 43
0.2
 10
337.019060251
 20
25.0602612011
 10
337.019060251
 20
26.2122894457
  0
SPLINE
  5
24F
330
226
100
AcDbEntity
  8
0
  6
Continuous
 62
     7
100
AcDbSpline
 70
     3
 71
     3
 72
    17
 73
    13
 74
     0
 42
0.000000001
 43
0.0000001
 40
0.0
 40
0.0
 40
0.0
 40
0.0
 40
1.0
 40
1.0
 40
1.0
 40
2.0
 40
2.0
 40
2.0
 40
3.0
 40
3.0
 40
3.0
 40
4.0
 40
4.0
 40
4.0
 40
4.0
 10
336.9086204693
 20
26.894817765
 30
0.0
 10
336.8246129576
 20
26.894817765
 30
0.0
 10
336.7560460788
 20
26.825727475
 30
0.0
 10
336.7560460788
 20
26.7398880238
 30
0.0
 10
336.7560460788
 20
26.6556188065
 30
0.0
 10
336.8246129576
 20
26.5896689842
 30
0.0
 10
336.9086204693
 20
26.5896689842
 30
0.0
 10
336.9923662753
 20
26.5896689842
 30
0.0
 10
337.0611948597
 20
26.6556188065
 30
0.0
 10
337.0611948597
 20
26.7398880238
 30
0.0
 10
337.0611948597
 20
26.825727475
 30
0.0
 10
336.9923662753
 20
26.894817765
 30
0.0
 10
336.9086204693
 20
26.894817765
 30
0.0
  0
SPLINE
  5
250
330
226
100
AcDbEntity
  8
0
  6
Continuous
 62
     7
100
AcDbSpline
 70
     3
 71
     3
 72
    17
 73
    13
 74
     0
 42
0.000000001
 43
0.0000001
 40
0.0
 40
0.0
 40
0.0
 40
0.0
 40
1.0
 40
1.0
 40
1.0
 40
2.0
 40
2.0
 40
2.0
 40
3.0
 40
3.0
 40
3.0
 40
4.0
 40
4.0
 40
4.0
 40
4.0
 10
339.1493441926
 20
25.2178079987
 30
0.0
 10
338.915379347
 20
25.2178079987
 30
0.0
 10
338.7850499363
 20
25.4198447558
 30
0.0
 10
338.7850499363
 20
25.6360136177
 30
0.0
 10
338.7850499363
 20
25.8506122457
 30
0.0
 10
338.9208751655
 20
26.0495085351
 30
0.0
 10
339.1493441926
 20
26.0495085351
 30
0.0
 10
339.3888048568
 20
26.0495085351
 30
0.0
 10
339.5243683804
 20
25.8605570602
 30
0.0
 10
339.5243683804
 20
25.6360136177
 30
0.0
 10
339.5243683804
 20
25.4098999414
 30
0.0
 10
339.3911602076
 20
25.2178079987
 30
0.0
 10
339.1493441926
 20
25.2178079987
 30
0.0
  0
SPLINE
  5
251
330
226
100
AcDbEntity
  8
0
  6
Continuous
 62
     7
100
AcDbSpline
 70
     3
 71
     3
 72
    50
 73
    46
 74
     0
 42
0.000000001
 43
0.0000001
 40
0.0
 40
0.0
 40
0.0
 40
0.0
 40
1.0
 40
1.0
 40
1.0
 40
2.0
 40
2.0
 40
2.0
 40
3.0
 40
3.0
 40
3.0
 40
4.0
 40
4.0
 40
4.0
 40
5.0
 40
5.0
 40
5.0
 40
6.0
 40
6.0
 40
6.0
 40
7.0
 40
7.0
 40
7.0
 40
8.0
 40
8.0
 40
8.0
 40
9.0
 40
9.0
 40
9.0
 40
10.0
 40
10.0
 40
10.0
 40
11.0
 40
11.0
 40
11.0
 40
12.0
 40
12.0
 40
12.0
 40
13.0
 40
13.0
 40
13.0
 40
14.0
 40
14.0
 40
14.0
 40
15.0
 40
15.0
 40
15.0
 40
15.0
 10
339.7334711899
 20
26.2128128569
 30
0.0
 10
339.7334711899
 20
26.2128128569
 30
0.0
 10
339.5118065095
 20
26.2128128569
 30
0.0
 10
339.5118065095
 20
26.2128128569
 30
0.0
 10
339.5118065095
 20
26.2128128569
 30
0.0
 10
339.5118065095
 20
26.0154868014
 30
0.0
 10
339.5118065095
 20
26.0154868014
 30
0.0
 10
339.5118065095
 20
26.0154868014
 30
0.0
 10
339.5070958079
 20
26.0154868014
 30
0.0
 10
339.5070958079
 20
26.0154868014
 30
0.0
 10
339.4157605382
 20
26.158378083
 30
0.0
 10
339.2778416638
 20
26.2468345907
 30
0.0
 10
339.1051159388
 20
26.2468345907
 30
0.0
 10
338.772749771
 20
26.2468345907
 30
0.0
 10
338.5636469615
 20
25.9589583823
 30
0.0
 10
338.5636469615
 20
25.6433413757
 30
0.0
 10
338.5636469615
 20
25.3135922644
 30
0.0
 10
338.7607113114
 20
25.0204819432
 30
0.0
 10
339.1155841646
 20
25.0204819432
 30
0.0
 10
339.2778416638
 20
25.0204819432
 30
0.0
 10
339.4178541833
 20
25.1089384508
 30
0.0
 10
339.5070958079
 20
25.2397912728
 30
0.0
 10
339.5070958079
 20
25.2397912728
 30
0.0
 10
339.5118065095
 20
25.2397912728
 30
0.0
 10
339.5118065095
 20
25.2397912728
 30
0.0
 10
339.5118065095
 20
25.2397912728
 30
0.0
 10
339.5118065095
 20
25.0204819432
 30
0.0
 10
339.5118065095
 20
25.0204819432
 30
0.0
 10
339.5118065095
 20
24.7839000411
 30
0.0
 10
339.4552780904
 20
24.5970422113
 30
0.0
 10
339.1820573981
 20
24.5970422113
 30
0.0
 10
338.9797589354
 20
24.5970422113
 30
0.0
 10
338.8371293594
 20
24.7153331624
 30
0.0
 10
338.8371293594
 20
24.9215572098
 30
0.0
 10
338.8371293594
 20
24.9215572098
 30
0.0
 10
338.615464679
 20
24.9215572098
 30
0.0
 10
338.615464679
 20
24.9215572098
 30
0.0
 10
338.6204370862
 20
24.5970422113
 30
0.0
 10
338.8515231698
 20
24.4002395671
 30
0.0
 10
339.171850878
 20
24.4002395671
 30
0.0
 10
339.6198909404
 20
24.4002395671
 30
0.0
 10
339.7334711899
 20
24.6854987189
 30
0.0
 10
339.7334711899
 20
25.0822444751
 30
0.0
 10
339.7334711899
 20
25.0822444751
 30
0.0
 10
339.7334711899
 20
26.2128128569
 30
0.0
 10
339.7334711899
 20
26.2128128569
 30
0.0
  0
SPLINE
  5
252
330
226
100
AcDbEntity
  8
0
  6
Continuous
 62
     7
100
AcDbSpline
 70
     3
 71
     3
 72
    44
 73
    40
 74
     0
 42
0.000000001
 43
0.0000001
 40
0.0
 40
0.0
 40
0.0
 40
0.0
 40
1.0
 40
1.0
 40
1.0
 40
2.0
 40
2.0
 40
2.0
 40
3.0
 40
3.0
 40
3.0
 40
4.0
 40
4.0
 40
4.0
 40
5.0
 40
5.0
 40
5.0
 40
6.0
 40
6.0
 40
6.0
 40
7.0
 40
7.0
 40
7.0
 40
8.0
 40
8.0
 40
8.0
 40
9.0
 40
9.0
 40
9.0
 40
10.0
 40
10.0
 40
10.0
 40
11.0
 40
11.0
 40
11.0
 40
12.0
 40
12.0
 40
12.0
 40
13.0
 40
13.0
 40
13.0
 40
13.0
 10
341.3023965253
 20
27.1978729007
 30
0.0
 10
341.3023965253
 20
27.1978729007
 30
0.0
 10
341.3023965253
 20
25.0597377898
 30
0.0
 10
341.3023965253
 20
25.0597377898
 30
0.0
 10
341.3023965253
 20
25.0597377898
 30
0.0
 10
341.5237995001
 20
25.0597377898
 30
0.0
 10
341.5237995001
 20
25.0597377898
 30
0.0
 10
341.5237995001
 20
25.0597377898
 30
0.0
 10
341.5237995001
 20
25.5894300131
 30
0.0
 10
341.5237995001
 20
25.5894300131
 30
0.0
 10
341.5237995001
 20
25.7993179395
 30
0.0
 10
341.5237995001
 20
26.0500319464
 30
0.0
 10
341.8090586519
 20
26.0500319464
 30
0.0
 10
342.0359574452
 20
26.0500319464
 30
0.0
 10
342.0629131266
 20
25.9170854793
 30
0.0
 10
342.0629131266
 20
25.7208062464
 30
0.0
 10
342.0629131266
 20
25.7208062464
 30
0.0
 10
342.0629131266
 20
25.0597377898
 30
0.0
 10
342.0629131266
 20
25.0597377898
 30
0.0
 10
342.0629131266
 20
25.0597377898
 30
0.0
 10
342.2848395126
 20
25.0597377898
 30
0.0
 10
342.2848395126
 20
25.0597377898
 30
0.0
 10
342.2848395126
 20
25.0597377898
 30
0.0
 10
342.2848395126
 20
25.7469768107
 30
0.0
 10
342.2848395126
 20
25.7469768107
 30
0.0
 10
342.2848395126
 20
26.027525261
 30
0.0
 10
342.2008320009
 20
26.2473580019
 30
0.0
 10
341.8757935911
 20
26.2473580019
 30
0.0
 10
341.7360427773
 20
26.2473580019
 30
0.0
 10
341.5978621973
 20
26.1808847684
 30
0.0
 10
341.5285102016
 20
26.0578831157
 30
0.0
 10
341.5285102016
 20
26.0578831157
 30
0.0
 10
341.5237995001
 20
26.0578831157
 30
0.0
 10
341.5237995001
 20
26.0578831157
 30
0.0
 10
341.5237995001
 20
26.0578831157
 30
0.0
 10
341.5237995001
 20
27.1978729007
 30
0.0
 10
341.5237995001
 20
27.1978729007
 30
0.0
 10
341.5237995001
 20
27.1978729007
 30
0.0
 10
341.3023965253
 20
27.1978729007
 30
0.0
 10
341.3023965253
 20
27.1978729007
 30
0.0
  0
LWPOLYLINE
  5
253
330
226
100
AcDbEntity
  8
0
  6
Continuous
 62
     7
100
AcDbPolyline
 90
        2
 70
     0
 43
0.2
 10
344.1246301895
 20
26.005541987
 10
344.341060757
 20
26.005541987
  0
LWPOLYLINE
  5
254
330
226
100
AcDbEntity
  8
0
  6
Continuous
 62
     7
100
AcDbPolyline
 90
        2
 70
     0
 43
0.2
 10
344.341060757
 20
26.005541987
 10
344.341060757
 20
26.2122894457
  0
LWPOLYLINE
  5
255
330
226
100
AcDbEntity
  8
0
  6
Continuous
 62
     7
100
AcDbPolyline
 90
        2
 70
     0
 43
0.2
 10
344.341060757
 20
26.2122894457
 10
344.1246301895
 20
26.2122894457
  0
LWPOLYLINE
  5
256
330
226
100
AcDbEntity
  8
0
  6
Continuous
 62
     7
100
AcDbPolyline
 90
        2
 70
     0
 43
0.2
 10
344.1246301895
 20
26.2122894457
 10
344.1246301895
 20
26.65300175
  0
LWPOLYLINE
  5
257
330
226
100
AcDbEntity
  8
0
  6
Continuous
 62
     7
100
AcDbPolyline
 90
        2
 70
     0
 43
0.2
 10
344.1246301895
 20
26.65300175
 10
343.9029655091
 20
26.65300175
  0
LWPOLYLINE
  5
258
330
226
100
AcDbEntity
  8
0
  6
Continuous
 62
     7
100
AcDbPolyline
 90
        2
 70
     0
 43
0.2
 10
343.9029655091
 20
26.65300175
 10
343.9029655091
 20
26.2122894457
  0
LWPOLYLINE
  5
259
330
226
100
AcDbEntity
  8
0
  6
Continuous
 62
     7
100
AcDbPolyline
 90
        2
 70
     0
 43
0.2
 10
343.9029655091
 20
26.2122894457
 10
343.7823192072
 20
26.2122894457
  0
LWPOLYLINE
  5
25A
330
226
100
AcDbEntity
  8
0
  6
Continuous
 62
     7
100
AcDbPolyline
 90
        2
 70
     0
 43
0.2
 10
343.7823192072
 20
26.2122894457
 10
343.7823192072
 20
26.005541987
  0
LWPOLYLINE
  5
25B
330
226
100
AcDbEntity
  8
0
  6
Continuous
 62
     7
100
AcDbPolyline
 90
        2
 70
     0
 43
0.2
 10
343.7823192072
 20
26.005541987
 10
343.9029655091
 20
26.005541987
  0
LWPOLYLINE
  5
25C
330
226
100
AcDbEntity
  8
0
  6
Continuous
 62
     7
100
AcDbPolyline
 90
        2
 70
     0
 43
0.2
 10
343.9029655091
 20
26.005541987
 10
343.9029655091
 20
25.0597377898
  0
LWPOLYLINE
  5
25D
330
226
100
AcDbEntity
  8
0
  6
Continuous
 62
     7
100
AcDbPolyline
 90
        2
 70
     0
 43
0.2
 10
343.9029655091
 20
25.0597377898
 10
344.1246301895
 20
25.0597377898
  0
LWPOLYLINE
  5
25E
330
226
100
AcDbEntity
  8
0
  6
Continuous
 62
     7
100
AcDbPolyline
 90
        2
 70
     0
 43
0.2
 10
344.1246301895
 20
25.0597377898
 10
344.1246301895
 20
26.005541987
  0
SPLINE
  5
25F
330
226
100
AcDbEntity
  8
0
  6
Continuous
 62
     7
100
AcDbSpline
 70
     3
 71
     3
 72
    20
 73
    16
 74
     0
 42
0.000000001
 43
0.0000001
 40
0.0
 40
0.0
 40
0.0
 40
0.0
 40
1.0
 40
1.0
 40
1.0
 40
2.0
 40
2.0
 40
2.0
 40
3.0
 40
3.0
 40
3.0
 40
4.0
 40
4.0
 40
4.0
 40
5.0
 40
5.0
 40
5.0
 40
5.0
 10
331.9066404967
 20
35.4206642332
 30
0.0
 10
331.9066404967
 20
35.4206642332
 30
0.0
 10
334.2229971512
 20
32.5911028109
 30
0.0
 10
334.2229971512
 20
32.5911028109
 30
0.0
 10
333.5713500978
 20
31.9389323462
 30
0.0
 10
332.7944768938
 20
31.2030160755
 30
0.0
 10
331.8232872491
 20
31.2030160755
 30
0.0
 10
330.8247493647
 20
31.2030160755
 30
0.0
 10
329.8814313711
 20
32.1325945228
 30
0.0
 10
329.8814313711
 20
33.1317866713
 30
0.0
 10
329.8814313711
 20
34.1309788198
 30
0.0
 10
331.0602844442
 20
34.8375840585
 30
0.0
 10
331.7818069046
 20
35.3374418384
 30
0.0
 10
331.7818069046
 20
35.3374418384
 30
0.0
 10
331.9066404967
 20
35.4206642332
 30
0.0
 10
331.9066404967
 20
35.4206642332
 30
0.0
  0
SPLINE
  5
260
330
226
100
AcDbEntity
  8
0
  6
Continuous
 62
     7
100
AcDbSpline
 70
     3
 71
     3
 72
    23
 73
    19
 74
     0
 42
0.000000001
 43
0.0000001
 40
0.0
 40
0.0
 40
0.0
 40
0.0
 40
1.0
 40
1.0
 40
1.0
 40
2.0
 40
2.0
 40
2.0
 40
3.0
 40
3.0
 40
3.0
 40
4.0
 40
4.0
 40
4.0
 40
5.0
 40
5.0
 40
5.0
 40
6.0
 40
6.0
 40
6.0
 40
6.0
 10
332.1840484793
 20
37.0584181529
 30
0.0
 10
332.1840484793
 20
37.0584181529
 30
0.0
 10
331.8375502067
 20
37.5017475137
 30
0.0
 10
331.8375502067
 20
37.5017475137
 30
0.0
 10
331.5317471618
 20
37.8898569837
 30
0.0
 10
331.2128588347
 20
38.2783590121
 30
0.0
 10
331.2128588347
 20
38.8053033262
 30
0.0
 10
331.2128588347
 20
39.4714750428
 30
0.0
 10
331.7541969591
 20
39.9151969621
 30
0.0
 10
332.3781032143
 20
39.9151969621
 30
0.0
 10
333.0718848763
 20
39.9151969621
 30
0.0
 10
333.5990908961
 20
39.5129553874
 30
0.0
 10
333.5990908961
 20
38.7779550864
 30
0.0
 10
333.5990908961
 20
38.0146905758
 30
0.0
 10
332.8778301414
 20
37.58457735
 30
0.0
 10
332.3507549745
 20
37.1688579346
 30
0.0
 10
332.3507549745
 20
37.1688579346
 30
0.0
 10
332.1840484793
 20
37.0584181529
 30
0.0
 10
332.1840484793
 20
37.0584181529
 30
0.0
  0
SPLINE
  5
261
330
226
100
AcDbEntity
  8
0
  6
Continuous
 62
     7
100
AcDbSpline
 70
     3
 71
     3
 72
    50
 73
    46
 74
     0
 42
0.000000001
 43
0.0000001
 40
0.0
 40
0.0
 40
0.0
 40
0.0
 40
1.0
 40
1.0
 40
1.0
 40
2.0
 40
2.0
 40
2.0
 40
3.0
 40
3.0
 40
3.0
 40
4.0
 40
4.0
 40
4.0
 40
5.0
 40
5.0
 40
5.0
 40
6.0
 40
6.0
 40
6.0
 40
7.0
 40
7.0
 40
7.0
 40
8.0
 40
8.0
 40
8.0
 40
9.0
 40
9.0
 40
9.0
 40
10.0
 40
10.0
 40
10.0
 40
11.0
 40
11.0
 40
11.0
 40
12.0
 40
12.0
 40
12.0
 40
13.0
 40
13.0
 40
13.0
 40
14.0
 40
14.0
 40
14.0
 40
15.0
 40
15.0
 40
15.0
 40
15.0
 10
336.1376356422
 20
30.2598289348
 30
0.0
 10
336.1376356422
 20
30.2598289348
 30
0.0
 10
337.7468636468
 20
30.2598289348
 30
0.0
 10
337.7468636468
 20
30.2598289348
 30
0.0
 10
337.7468636468
 20
30.2598289348
 30
0.0
 10
335.8738363531
 20
32.5769707062
 30
0.0
 10
335.8738363531
 20
32.5769707062
 30
0.0
 10
335.8738363531
 20
32.5769707062
 30
0.0
 10
337.1501747786
 20
34.0744504008
 30
0.0
 10
337.1501747786
 20
34.0744504008
 30
0.0
 10
337.1501747786
 20
34.0744504008
 30
0.0
 10
336.3179508309
 20
34.9354619693
 30
0.0
 10
336.3179508309
 20
34.9354619693
 30
0.0
 10
336.3179508309
 20
34.9354619693
 30
0.0
 10
335.0973557076
 20
33.5201578469
 30
0.0
 10
335.0973557076
 20
33.5201578469
 30
0.0
 10
335.0973557076
 20
33.5201578469
 30
0.0
 10
332.9194413388
 20
36.1555336813
 30
0.0
 10
332.9194413388
 20
36.1555336813
 30
0.0
 10
333.7930147782
 20
36.7935720412
 30
0.0
 10
334.8196860194
 20
37.58457735
 30
0.0
 10
334.8196860194
 20
38.7634304231
 30
0.0
 10
334.8196860194
 20
40.1371233482
 30
0.0
 10
333.6817898795
 20
40.9416064976
 30
0.0
 10
332.4064982766
 20
40.9416064976
 30
0.0
 10
331.0330670573
 20
40.9416064976
 30
0.0
 10
329.9921328585
 20
40.0953812979
 30
0.0
 10
329.9921328585
 20
38.6527289358
 30
0.0
 10
329.9921328585
 20
37.7651542444
 30
0.0
 10
330.547472235
 20
36.9882810403
 30
0.0
 10
331.1436376918
 20
36.3638513739
 30
0.0
 10
331.1436376918
 20
36.3638513739
 30
0.0
 10
330.4917289328
 20
35.8922578035
 30
0.0
 10
330.4917289328
 20
35.8922578035
 30
0.0
 10
329.4931910484
 20
35.1709970488
 30
0.0
 10
328.6603128365
 20
34.4497362942
 30
0.0
 10
328.6603128365
 20
33.1181779778
 30
0.0
 10
328.6603128365
 20
31.3145026798
 30
0.0
 10
330.1173590091
 20
30.0379025487
 30
0.0
 10
331.8648984465
 20
30.0379025487
 30
0.0
 10
333.0997565274
 20
30.0379025487
 30
0.0
 10
334.2091267521
 20
30.7460780212
 30
0.0
 10
335.000001208
 20
31.6746096459
 30
0.0
 10
335.000001208
 20
31.6746096459
 30
0.0
 10
336.1376356422
 20
30.2598289348
 30
0.0
 10
336.1376356422
 20
30.2598289348
 30
0.0
  0
LINE
  5
262
330
226
100
AcDbEntity
  8
0
  6
Continuous
 62
     7
100
AcDbLine
 10
321.9404970172
 20
28.2337038394
 30
0.0
 11
344.3544077449
 21
28.2337038394
 31
0.0
  0
LINE
  5
263
330
226
100
AcDbEntity
  8
0
  6
Continuous
 62
     7
100
AcDbLine
 10
344.3544077449
 20
28.2337038394
 30
0.0
 11
344.3544077449
 21
50.6476145671
 31
0.0
  0
LINE
  5
264
330
226
100
AcDbEntity
  8
0
  6
Continuous
 62
     7
100
AcDbLine
 10
344.3544077449
 20
50.6476145671
 30
0.0
 11
321.9404970172
 21
50.6476145671
 31
0.0
  0
LINE
  5
265
330
226
100
AcDbEntity
  8
0
  6
Continuous
 62
     7
100
AcDbLine
 10
321.9404970172
 20
50.6476145671
 30
0.0
 11
321.9404970172
 21
28.2337038394
 31
0.0
  0
ENDBLK
  5
266
330
226
100
AcDbEntity
  8
0
  6
ByBlock
 62
     0
100
AcDbBlockEnd
  0
BLOCK
  5
27B
330
227
100
AcDbEntity
  8
0
100
AcDbBlockBegin
  2
*T4
 70
     1
 10
0.0
 20
0.0
 30
0.0
  3
*T4
  1
*T4
  0
MTEXT
  5
27C
330
227
100
AcDbEntity
  8
0
  6
Continuous
 62
     0
100
AcDbMText
 10
30.28622003006668
 20
-3.0
 30
0.0
 40
3.0
 41
40.18162670675557
 71
     4
 72
     5
  1
213_C_013
 73
     1
 44
1.0
  0
MTEXT
  5
27D
330
227
100
AcDbEntity
  8
0
  6
Continuous
 62
     0
100
AcDbMText
 10
70.58784673682226
 20
-0.06
 30
0.0
 40
3.5
 41
20.03081335337778
 71
     1
 72
     5
  1
Rev:00
 73
     1
 44
1.0
  0
MTEXT
  5
27E
330
227
100
AcDbEntity
  8
0
  6
Continuous
 62
     0
100
AcDbMText
 10
30.28622003006668
 20
-6.06
 30
0.0
 40
3.5
 41
40.18162670675557
 71
     1
 72
     5
  1
Scale:1:1
 73
     1
 44
1.0
  0
MTEXT
  5
27F
330
227
100
AcDbEntity
  8
0
  6
Continuous
 62
     0
100
AcDbMText
 10
70.58784673682226
 20
-9.0
 30
0.0
 40
3.5
 41
20.03081335337778
 71
     4
 72
     5
  1
A3
 73
     1
 44
1.0
  0
MTEXT
  5
280
330
227
100
AcDbEntity
  8
0
  6
Continuous
 62
     0
100
AcDbMText
 10
30.28622003006668
 20
-17.0
 30
0.0
 40
3.5
 41
60.33244006013336
 71
     4
 72
     5
  1
BRIGHT 1.0
 73
     1
 44
1.0
  0
MTEXT
  5
281
330
227
100
AcDbEntity
  8
0
  6
Continuous
 62
     0
100
AcDbMText
 10
30.28622003006668
 20
-24.5
 30
0.0
 40
2.5
 41
60.33244006013336
 71
     4
 72
     5
  1
DATE:12/02/2014
 73
     1
 44
1.0
  0
MTEXT
  5
282
330
227
100
AcDbEntity
  8
0
  6
Continuous
 62
     0
100
AcDbMText
 10
0.06
 20
-27.06
 30
0.0
 40
1.85
 41
90.55866009020004
 71
     1
 72
     5
  1
Any integral or partial reproductions are prohibited \Pwithout prior authorisation of L & L Luce & Light s.r.l., \Pin accordance with the law in force. \PAll rights reserved.
 73
     1
 44
1.0
  0
LINE
  5
283
330
227
100
AcDbEntity
  8
0
  6
Continuous
 62
     0
370
    -2
100
AcDbLine
 10
0.0
 20
0.0
 30
0.0
 11
10.07540667668889
 21
0.0
 31
0.0
  0
LINE
  5
284
330
227
100
AcDbEntity
  8
0
  6
Continuous
 62
     0
370
    -2
100
AcDbLine
 10
10.07540667668889
 20
0.0
 30
0.0
 11
20.15081335337779
 21
0.0
 31
0.0
  0
LINE
  5
285
330
227
100
AcDbEntity
  8
0
  6
Continuous
 62
     0
370
    -2
100
AcDbLine
 10
20.15081335337779
 20
0.0
 30
0.0
 11
30.22622003006668
 21
0.0
 31
0.0
  0
LINE
  5
286
330
227
100
AcDbEntity
  8
0
  6
Continuous
 62
     0
370
    -2
100
AcDbLine
 10
0.0
 20
0.0
 30
0.0
 11
0.0
 21
-6.0
 31
0.0
  0
LINE
  5
287
330
227
100
AcDbEntity
  8
0
  6
Continuous
 62
     0
370
    -2
100
AcDbLine
 10
0.0
 20
-6.0
 30
0.0
 11
0.0
 21
-12.0
 31
0.0
  0
LINE
  5
288
330
227
100
AcDbEntity
  8
0
  6
Continuous
 62
     0
370
    -2
100
AcDbLine
 10
0.0
 20
-12.0
 30
0.0
 11
0.0
 21
-22.0
 31
0.0
  0
LINE
  5
289
330
227
100
AcDbEntity
  8
0
  6
Continuous
 62
     0
370
    -2
100
AcDbLine
 10
0.0
 20
-22.0
 30
0.0
 11
0.0
 21
-27.0
 31
0.0
  0
LINE
  5
28A
330
227
100
AcDbEntity
  8
0
  6
Continuous
 62
     0
370
    -2
100
AcDbLine
 10
30.22622003006668
 20
0.0
 30
0.0
 11
70.52784673682226
 21
0.0
 31
0.0
  0
LINE
  5
28B
330
227
100
AcDbEntity
  8
0
  6
Continuous
 62
     0
370
    -2
100
AcDbLine
 10
30.22622003006668
 20
0.0
 30
0.0
 11
30.22622003006668
 21
-6.0
 31
0.0
  0
LINE
  5
28C
330
227
100
AcDbEntity
  8
0
  6
Continuous
 62
     0
370
    -2
100
AcDbLine
 10
70.52784673682226
 20
0.0
 30
0.0
 11
90.67866009020004
 21
0.0
 31
0.0
  0
LINE
  5
489
330
227
100
AcDbEntity
  8
0
  6
Continuous
 62
     0
370
    -2
100
AcDbLine
 10
70.52784673682226
 20
0.0
 30
0.0
 11
70.52784673682226
 21
-6.0
 31
0.0
  0
LINE
  5
48A
330
227
100
AcDbEntity
  8
0
  6
Continuous
 62
     0
370
    -2
100
AcDbLine
 10
90.67866009020004
 20
0.0
 30
0.0
 11
90.67866009020004
 21
-6.0
 31
0.0
  0
LINE
  5
48B
330
227
100
AcDbEntity
  8
0
  6
Continuous
 62
     0
370
    -2
100
AcDbLine
 10
30.22622003006668
 20
-6.0
 30
0.0
 11
70.52784673682226
 21
-6.0
 31
0.0
  0
LINE
  5
48C
330
227
100
AcDbEntity
  8
0
  6
Continuous
 62
     0
370
    -2
100
AcDbLine
 10
30.22622003006668
 20
-6.0
 30
0.0
 11
30.22622003006668
 21
-12.0
 31
0.0
  0
LINE
  5
48D
330
227
100
AcDbEntity
  8
0
  6
Continuous
 62
     0
370
    -2
100
AcDbLine
 10
70.52784673682226
 20
-6.0
 30
0.0
 11
90.67866009020004
 21
-6.0
 31
0.0
  0
LINE
  5
48E
330
227
100
AcDbEntity
  8
0
  6
Continuous
 62
     0
370
    -2
100
AcDbLine
 10
70.52784673682226
 20
-6.0
 30
0.0
 11
70.52784673682226
 21
-12.0
 31
0.0
  0
LINE
  5
48F
330
227
100
AcDbEntity
  8
0
  6
Continuous
 62
     0
370
    -2
100
AcDbLine
 10
90.67866009020004
 20
-6.0
 30
0.0
 11
90.67866009020004
 21
-12.0
 31
0.0
  0
LINE
  5
490
330
227
100
AcDbEntity
  8
0
  6
Continuous
 62
     0
370
    -2
100
AcDbLine
 10
30.22622003006668
 20
-12.0
 30
0.0
 11
70.52784673682226
 21
-12.0
 31
0.0
  0
LINE
  5
491
330
227
100
AcDbEntity
  8
0
  6
Continuous
 62
     0
370
    -2
100
AcDbLine
 10
70.52784673682226
 20
-12.0
 30
0.0
 11
90.67866009020003
 21
-12.0
 31
0.0
  0
LINE
  5
492
330
227
100
AcDbEntity
  8
0
  6
Continuous
 62
     0
370
    -2
100
AcDbLine
 10
30.22622003006668
 20
-12.0
 30
0.0
 11
30.22622003006668
 21
-22.0
 31
0.0
  0
LINE
  5
493
330
227
100
AcDbEntity
  8
0
  6
Continuous
 62
     0
370
    -2
100
AcDbLine
 10
90.67866009020004
 20
-12.0
 30
0.0
 11
90.67866009020004
 21
-22.0
 31
0.0
  0
LINE
  5
494
330
227
100
AcDbEntity
  8
0
  6
Continuous
 62
     0
370
    -2
100
AcDbLine
 10
30.22622003006668
 20
-22.0
 30
0.0
 11
70.52784673682226
 21
-22.0
 31
0.0
  0
LINE
  5
495
330
227
100
AcDbEntity
  8
0
  6
Continuous
 62
     0
370
    -2
100
AcDbLine
 10
70.52784673682226
 20
-22.0
 30
0.0
 11
90.67866009020003
 21
-22.0
 31
0.0
  0
LINE
  5
496
330
227
100
AcDbEntity
  8
0
  6
Continuous
 62
     0
370
    -2
100
AcDbLine
 10
30.22622003006668
 20
-22.0
 30
0.0
 11
30.22622003006668
 21
-27.0
 31
0.0
  0
LINE
  5
497
330
227
100
AcDbEntity
  8
0
  6
Continuous
 62
     0
370
    -2
100
AcDbLine
 10
90.67866009020004
 20
-22.0
 30
0.0
 11
90.67866009020004
 21
-27.0
 31
0.0
  0
LINE
  5
498
330
227
100
AcDbEntity
  8
0
  6
Continuous
 62
     0
370
    -2
100
AcDbLine
 10
0.0
 20
-27.0
 30
0.0
 11
10.07540667668889
 21
-27.0
 31
0.0
  0
LINE
  5
499
330
227
100
AcDbEntity
  8
0
  6
Continuous
 62
     0
370
    -2
100
AcDbLine
 10
10.07540667668889
 20
-27.0
 30
0.0
 11
20.15081335337779
 21
-27.0
 31
0.0
  0
LINE
  5
49A
330
227
100
AcDbEntity
  8
0
  6
Continuous
 62
     0
370
    -2
100
AcDbLine
 10
20.15081335337779
 20
-27.0
 30
0.0
 11
30.22622003006668
 21
-27.0
 31
0.0
  0
LINE
  5
49B
330
227
100
AcDbEntity
  8
0
  6
Continuous
 62
     0
370
    -2
100
AcDbLine
 10
30.22622003006668
 20
-27.0
 30
0.0
 11
70.52784673682226
 21
-27.0
 31
0.0
  0
LINE
  5
49C
330
227
100
AcDbEntity
  8
0
  6
Continuous
 62
     0
370
    -2
100
AcDbLine
 10
70.52784673682226
 20
-27.0
 30
0.0
 11
90.67866009020004
 21
-27.0
 31
0.0
  0
LINE
  5
49D
330
227
100
AcDbEntity
  8
0
  6
Continuous
 62
     0
370
    -2
100
AcDbLine
 10
0.0
 20
-27.0
 30
0.0
 11
0.0
 21
-40.0
 31
0.0
  0
LINE
  5
49E
330
227
100
AcDbEntity
  8
0
  6
Continuous
 62
     0
370
    -2
100
AcDbLine
 10
90.67866009020004
 20
-27.0
 30
0.0
 11
90.67866009020004
 21
-40.0
 31
0.0
  0
LINE
  5
49F
330
227
100
AcDbEntity
  8
0
  6
Continuous
 62
     0
370
    -2
100
AcDbLine
 10
0.0
 20
-40.0
 30
0.0
 11
10.07540667668889
 21
-40.0
 31
0.0
  0
LINE
  5
4A0
330
227
100
AcDbEntity
  8
0
  6
Continuous
 62
     0
370
    -2
100
AcDbLine
 10
10.07540667668889
 20
-40.0
 30
0.0
 11
20.15081335337779
 21
-40.0
 31
0.0
  0
LINE
  5
4A1
330
227
100
AcDbEntity
  8
0
  6
Continuous
 62
     0
370
    -2
100
AcDbLine
 10
20.15081335337779
 20
-40.0
 30
0.0
 11
30.22622003006668
 21
-40.0
 31
0.0
  0
LINE
  5
4A2
330
227
100
AcDbEntity
  8
0
  6
Continuous
 62
     0
370
    -2
100
AcDbLine
 10
30.22622003006668
 20
-40.0
 30
0.0
 11
70.52784673682226
 21
-40.0
 31
0.0
  0
LINE
  5
4A3
330
227
100
AcDbEntity
  8
0
  6
Continuous
 62
     0
370
    -2
100
AcDbLine
 10
70.52784673682226
 20
-40.0
 30
0.0
 11
90.67866009020004
 21
-40.0
 31
0.0
  0
ENDBLK
  5
28D
330
227
100
AcDbEntity
  8
0
100
AcDbBlockEnd
  0
ENDSEC
  0
SECTION
  2
ENTITIES
  0
MTEXT
  5
28E
330
221
100
AcDbEntity
  8
0
  6
Continuous
 62
     2
100
AcDbMText
 10
1.6467220993
 20
53.595027386
 30
0.0
 40
4.0
 41
2.2857142857
 71
     1
 72
     1
  1
1
  7
TEXTSTYLE_2
 73
     1
 44
0.9
  0
MTEXT
  5
28F
330
221
100
AcDbEntity
  8
0
  6
Continuous
 62
     2
100
AcDbMText
 10
1.6467220993
 20
153.595027386
 30
0.0
 40
4.0
 41
3.1428571429
 71
     1
 72
     1
  1
2
  7
TEXTSTYLE_2
 73
     1
 44
0.9
  0
MTEXT
  5
290
330
221
100
AcDbEntity
  8
0
  6
Continuous
 62
     2
100
AcDbMText
 10
1.6467220993
 20
253.595027386
 30
0.0
 40
4.0
 41
2.8571428571
 71
     1
 72
     1
  1
3
  7
TEXTSTYLE_2
 73
     1
 44
0.9
  0
MTEXT
  5
291
330
221
100
AcDbEntity
  8
0
  6
Continuous
 62
     2
100
AcDbMText
 10
414.6467220993
 20
60.6268709614
 30
0.0
 40
4.0
 41
2.2857142857
 71
     1
 72
     1
  1
1
  7
TEXTSTYLE_2
 73
     1
 44
0.9
  0
MTEXT
  5
292
330
221
100
AcDbEntity
  8
0
  6
Continuous
 62
     2
100
AcDbMText
 10
414.6467220993
 20
160.6268709614
 30
0.0
 40
4.0
 41
3.1428571429
 71
     1
 72
     1
  1
2
  7
TEXTSTYLE_2
 73
     1
 44
0.9
  0
MTEXT
  5
293
330
221
100
AcDbEntity
  8
0
  6
Continuous
 62
     2
100
AcDbMText
 10
414.6467220993
 20
260.6268709614
 30
0.0
 40
4.0
 41
2.8571428571
 71
     1
 72
     1
  1
3
  7
TEXTSTYLE_2
 73
     1
 44
0.9
  0
MTEXT
  5
294
330
221
100
AcDbEntity
  8
0
  6
Continuous
 62
     2
100
AcDbMText
 10
362.154890719
 20
5.35876025
 30
0.0
 40
4.0
 41
3.6
 71
     1
 72
     1
  1
A
  7
TEXTSTYLE_3
 73
     1
 44
0.9
  0
MTEXT
  5
295
330
221
100
AcDbEntity
  8
0
  6
Continuous
 62
     2
100
AcDbMText
 10
262.154890719
 20
5.35876025
 30
0.0
 40
4.0
 41
3.6
 71
     1
 72
     1
  1
B
  7
TEXTSTYLE_3
 73
     1
 44
0.9
  0
MTEXT
  5
296
330
221
100
AcDbEntity
  8
0
  6
Continuous
 62
     2
100
AcDbMText
 10
162.154890719
 20
5.35876025
 30
0.0
 40
4.0
 41
3.6
 71
     1
 72
     1
  1
C
  7
TEXTSTYLE_3
 73
     1
 44
0.9
  0
MTEXT
  5
297
330
221
100
AcDbEntity
  8
0
  6
Continuous
 62
     2
100
AcDbMText
 10
55.7978688212
 20
5.5353441916
 30
0.0
 40
4.0
 41
3.6
 71
     1
 72
     1
  1
D
  7
TEXTSTYLE_3
 73
     1
 44
0.9
  0
MTEXT
  5
298
330
221
100
AcDbEntity
  8
0
  6
Continuous
 62
     2
100
AcDbMText
 10
362.154890719
 20
295.35876025
 30
0.0
 40
4.0
 41
3.6
 71
     1
 72
     1
  1
A
  7
TEXTSTYLE_3
 73
     1
 44
0.9
  0
MTEXT
  5
299
330
221
100
AcDbEntity
  8
0
  6
Continuous
 62
     2
100
AcDbMText
 10
262.154890719
 20
295.35876025
 30
0.0
 40
4.0
 41
3.6
 71
     1
 72
     1
  1
B
  7
TEXTSTYLE_3
 73
     1
 44
0.9
  0
MTEXT
  5
29A
330
221
100
AcDbEntity
  8
0
  6
Continuous
 62
     2
100
AcDbMText
 10
162.154890719
 20
295.35876025
 30
0.0
 40
4.0
 41
3.6
 71
     1
 72
     1
  1
C
  7
TEXTSTYLE_3
 73
     1
 44
0.9
  0
MTEXT
  5
29B
330
221
100
AcDbEntity
  8
0
  6
Continuous
 62
     2
100
AcDbMText
 10
53.9878834197
 20
295.579490177
 30
0.0
 40
4.0
 41
3.6
 71
     1
 72
     1
  1
D
  7
TEXTSTYLE_3
 73
     1
 44
0.9
  0
INSERT
  5
29E
330
221
100
AcDbEntity
  8
0
  6
Continuous
 62
     2
100
AcDbBlockReference
  2
LOGO2_BL0
 10
333.1473869546
 20
37.5239270671
 30
0.0
  0
INSERT
  5
29F
330
221
100
AcDbEntity
  8
0
  6
Continuous
 62
     2
100
AcDbBlockReference
  2
*T4
 10
319.3213399098
 20
51.0239270671
 30
0.0
  0
LINE
  5
2A2
330
221
100
AcDbEntity
  8
0
  6
Continuous
 62
     7
100
AcDbLine
 10
0.0
 20
0.0
 30
0.0
 11
0.0
 21
297.0
 31
0.0
  0
LWPOLYLINE
  5
2A3
330
221
100
AcDbEntity
  8
0
  6
Continuous
 62
     7
100
AcDbPolyline
 90
        2
 70
     0
 43
0.1000000003
 10
7.0536312849
 20
0.0
 10
7.0536312849
 20
297.0
  0
LWPOLYLINE
  5
2A4
330
221
100
AcDbEntity
  8
0
  6
Continuous
 62
     7
100
AcDbPolyline
 90
        2
 70
     0
 43
0.4999999952
 10
10.0536312849
 20
10.0318435754
 10
10.0536312849
 20
287.0
  0
LINE
  5
2A5
330
221
100
AcDbEntity
  8
0
  6
Continuous
 62
     7
100
AcDbLine
 10
0.0
 20
0.0
 30
0.0
 11
420.0
 21
0.0
 31
0.0
  0
LWPOLYLINE
  5
2A6
330
221
100
AcDbEntity
  8
0
  6
Continuous
 62
     7
100
AcDbPolyline
 90
        2
 70
     0
 43
0.1000000003
 10
0.0
 20
7.0318435754
 10
420.0
 20
7.0318435754
  0
LWPOLYLINE
  5
2A7
330
221
100
AcDbEntity
  8
0
  6
Continuous
 62
     7
100
AcDbPolyline
 90
        2
 70
     0
 43
0.4999999952
 10
10.0536312849
 20
10.0318435754
 10
410.0
 20
10.0318435754
  0
LINE
  5
2A8
330
221
100
AcDbEntity
  8
0
  6
Continuous
 62
     7
100
AcDbLine
 10
113.0
 20
297.0
 30
0.0
 11
113.0
 21
290.0
 31
0.0
  0
LINE
  5
2A9
330
221
100
AcDbEntity
  8
0
  6
Continuous
 62
     7
100
AcDbLine
 10
113.0
 20
7.0
 30
0.0
 11
113.0
 21
0.0
 31
0.0
  0
LWPOLYLINE
  5
2AA
330
221
100
AcDbEntity
  8
0
  6
Continuous
 62
     7
100
AcDbPolyline
 90
        2
 70
     0
 43
0.1000000003
 10
123.0
 20
10.0
 10
123.0
 20
0.0
  0
LWPOLYLINE
  5
2AB
330
221
100
AcDbEntity
  8
0
  6
Continuous
 62
     7
100
AcDbPolyline
 90
        2
 70
     0
 43
0.1000000003
 10
123.0
 20
287.0
 10
123.0
 20
297.0
  0
LINE
  5
2AC
330
221
100
AcDbEntity
  8
0
  6
Continuous
 62
     7
100
AcDbLine
 10
0.0
 20
99.9681564246
 30
0.0
 11
7.0
 21
99.9681564246
 31
0.0
  0
LINE
  5
2AD
330
221
100
AcDbEntity
  8
0
  6
Continuous
 62
     7
100
AcDbLine
 10
413.0
 20
107.0
 30
0.0
 11
420.0
 21
107.0
 31
0.0
  0
LWPOLYLINE
  5
2AE
330
221
100
AcDbEntity
  8
0
  6
Continuous
 62
     7
100
AcDbPolyline
 90
        2
 70
     0
 43
0.1000000003
 10
210.0
 20
10.0
 10
210.0
 20
0.0
  0
LWPOLYLINE
  5
2AF
330
221
100
AcDbEntity
  8
0
  6
Continuous
 62
     7
100
AcDbPolyline
 90
        2
 70
     0
 43
0.1000000003
 10
210.0
 20
287.0
 10
210.0
 20
297.0
  0
LWPOLYLINE
  5
2B0
330
221
100
AcDbEntity
  8
0
  6
Continuous
 62
     7
100
AcDbPolyline
 90
        2
 70
     0
 43
0.1000000003
 10
10.0
 20
148.5
 10
0.0
 20
148.5
  0
LWPOLYLINE
  5
2B1
330
221
100
AcDbEntity
  8
0
  6
Continuous
 62
     7
100
AcDbPolyline
 90
        2
 70
     0
 43
0.1000000003
 10
410.0
 20
148.5
 10
420.0
 20
148.5
  0
LINE
  5
2B2
330
221
100
AcDbEntity
  8
0
  6
Continuous
 62
     7
100
AcDbLine
 10
0.0
 20
199.9681564246
 30
0.0
 11
7.0
 21
199.9681564246
 31
0.0
  0
LWPOLYLINE
  5
2B3
330
221
100
AcDbEntity
  8
0
  6
Continuous
 62
     7
100
AcDbPolyline
 90
        2
 70
     0
 43
0.1000000003
 10
10.0
 20
202.9681564246
 10
0.0
 20
202.9681564246
  0
LWPOLYLINE
  5
2B4
330
221
100
AcDbEntity
  8
0
  6
Continuous
 62
     7
100
AcDbPolyline
 90
        2
 70
     0
 43
0.1000000003
 10
410.0
 20
210.0
 10
420.0
 20
210.0
  0
LINE
  5
2B5
330
221
100
AcDbEntity
  8
0
  6
Continuous
 62
     7
100
AcDbLine
 10
313.0
 20
297.0
 30
0.0
 11
313.0
 21
290.0
 31
0.0
  0
LINE
  5
2B6
330
221
100
AcDbEntity
  8
0
  6
Continuous
 62
     7
100
AcDbLine
 10
313.0
 20
7.0
 30
0.0
 11
313.0
 21
0.0
 31
0.0
  0
LWPOLYLINE
  5
2B7
330
221
100
AcDbEntity
  8
0
  6
Continuous
 62
     7
100
AcDbPolyline
 90
        2
 70
     0
 43
0.4999999952
 10
10.0536312849
 20
287.0
 10
410.0
 20
287.0
  0
LWPOLYLINE
  5
2B8
330
221
100
AcDbEntity
  8
0
  6
Continuous
 62
     7
100
AcDbPolyline
 90
        2
 70
     0
 43
0.1000000003
 10
0.0
 20
290.0
 10
420.0
 20
290.0
  0
LINE
  5
2B9
330
221
100
AcDbEntity
  8
0
  6
Continuous
 62
     7
100
AcDbLine
 10
0.0
 20
297.0
 30
0.0
 11
420.0
 21
297.0
 31
0.0
  0
LWPOLYLINE
  5
2BA
330
221
100
AcDbEntity
  8
0
  6
Continuous
 62
     7
100
AcDbPolyline
 90
        2
 70
     0
 43
0.4999999952
 10
410.0
 20
10.0318435754
 10
410.0
 20
287.0
  0
LWPOLYLINE
  5
2BB
330
221
100
AcDbEntity
  8
0
  6
Continuous
 62
     7
100
AcDbPolyline
 90
        2
 70
     0
 43
0.1000000003
 10
413.0
 20
0.0
 10
413.0
 20
297.0
  0
LINE
  5
2BC
330
221
100
AcDbEntity
  8
0
  6
Continuous
 62
     7
100
AcDbLine
 10
420.0
 20
0.0
 30
0.0
 11
420.0
 21
297.0
 31
0.0
  0
LINE
  5
2BD
330
221
100
AcDbEntity
  8
02___PRT_ALL_AXES
  6
Continuous
 62
     7
100
AcDbLine
 10
90.49479889596552
 20
169.0823426384671
 30
0.0
 11
97.49479889596552
 21
169.0823426384671
 31
0.0
  0
LINE
  5
2BE
330
221
100
AcDbEntity
  8
7_ALL_FEATURES
  6
Continuous
 62
     7
100
AcDbLine
 10
90.49479889596552
 20
169.0823426384671
 30
0.0
 11
97.49479889596552
 21
169.0823426384671
 31
0.0
  0
LINE
  5
2BF
330
221
100
AcDbEntity
  8
02___PRT_ALL_AXES
  6
Continuous
 62
     9
100
AcDbLine
 10
100.9230021262322
 20
172.5823426384671
 30
0.0
 11
98.32492591483219
 21
172.5823426384671
 31
0.0
  0
LINE
  5
2C0
330
221
100
AcDbEntity
  8
02___PRT_ALL_AXES
  6
Continuous
 62
     9
100
AcDbLine
 10
87.06659566563219
 20
172.5823426384671
 30
0.0
 11
89.66467187703219
 21
172.5823426384671
 31
0.0
  0
LINE
  5
2C1
330
221
100
AcDbEntity
  8
02___PRT_ALL_AXES
  6
Continuous
 62
     9
100
AcDbLine
 10
91.39672268456553
 20
172.5823426384671
 30
0.0
 11
96.59287510729885
 21
172.5823426384671
 31
0.0
  0
LINE
  5
2C2
330
221
100
AcDbEntity
  8
02___PRT_ALL_AXES
  6
Continuous
 62
     7
100
AcDbLine
 10
100.9230021262322
 20
173.0823426384671
 30
0.0
 11
98.32492591483219
 21
173.0823426384671
 31
0.0
  0
LINE
  5
2C3
330
221
100
AcDbEntity
  8
02___PRT_ALL_AXES
  6
Continuous
 62
     7
100
AcDbLine
 10
87.06659566563219
 20
173.0823426384671
 30
0.0
 11
89.66467187703219
 21
173.0823426384671
 31
0.0
  0
LINE
  5
2C4
330
221
100
AcDbEntity
  8
02___PRT_ALL_AXES
  6
Continuous
 62
     7
100
AcDbLine
 10
91.39672268456553
 20
173.0823426384671
 30
0.0
 11
96.59287510729885
 21
173.0823426384671
 31
0.0
  0
LINE
  5
2C5
330
221
100
AcDbEntity
  8
02___PRT_ALL_AXES
  6
Continuous
 62
     7
100
AcDbLine
 10
75.1267183226322
 20
220.3823426384672
 30
0.0
 11
75.1267183226322
 21
219.6323426384672
 31
0.0
  0
LINE
  5
2C6
330
221
100
AcDbEntity
  8
02___PRT_ALL_AXES
  6
Continuous
 62
     7
100
AcDbLine
 10
100.9230021262322
 20
178.5823426384671
 30
0.0
 11
87.06659566563219
 21
178.5823426384671
 31
0.0
  0
LINE
  5
2C7
330
221
100
AcDbEntity
  8
7_ALL_FEATURES
  6
Continuous
 62
     7
100
AcDbLine
 10
79.6267183226322
 20
211.6323426384672
 30
0.0
 11
79.6267183226322
 21
207.5823426384671
 31
0.0
  0
LINE
  5
2C8
330
221
100
AcDbEntity
  8
7_ALL_FEATURES
  6
Continuous
 62
     7
100
AcDbLine
 10
79.6267183226322
 20
205.0823426384671
 30
0.0
 11
79.6267183226322
 21
202.0823426384671
 31
0.0
  0
LINE
  5
2C9
330
221
100
AcDbEntity
  8
7_ALL_FEATURES
  6
Continuous
 62
     7
100
AcDbLine
 10
79.6267183226322
 20
192.0823426384671
 30
0.0
 11
79.6267183226322
 21
189.5823426384671
 31
0.0
  0
LINE
  5
2CA
330
221
100
AcDbEntity
  8
7_ALL_FEATURES
  6
Continuous
 62
     7
100
AcDbLine
 10
79.6267183226322
 20
187.0823426384671
 30
0.0
 11
79.6267183226322
 21
185.0823426384671
 31
0.0
  0
LINE
  5
2CB
330
221
100
AcDbEntity
  8
02___PRT_ALL_AXES
  6
Continuous
 62
     7
100
AcDbLine
 10
79.6267183226322
 20
185.0823426384671
 30
0.0
 11
79.6267183226322
 21
187.0823426384671
 31
0.0
  0
LINE
  5
2CC
330
221
100
AcDbEntity
  8
02___PRT_ALL_AXES
  6
Continuous
 62
     7
100
AcDbLine
 10
79.6267183226322
 20
189.5823426384671
 30
0.0
 11
79.6267183226322
 21
192.0823426384671
 31
0.0
  0
LINE
  5
2CD
330
221
100
AcDbEntity
  8
02___PRT_ALL_AXES
  6
Continuous
 62
     7
100
AcDbLine
 10
79.6267183226322
 20
202.0823426384671
 30
0.0
 11
79.6267183226322
 21
205.0823426384671
 31
0.0
  0
LINE
  5
2CE
330
221
100
AcDbEntity
  8
02___PRT_ALL_AXES
  6
Continuous
 62
     7
100
AcDbLine
 10
79.6267183226322
 20
207.5823426384671
 30
0.0
 11
79.6267183226322
 21
219.6323426384672
 31
0.0
  0
LINE
  5
2CF
330
221
100
AcDbEntity
  8
7_ALL_FEATURES
  6
Continuous
 62
     7
100
AcDbLine
 10
80.2267183226322
 20
192.0823426384671
 30
0.0
 11
80.2267183226322
 21
202.0823426384671
 31
0.0
  0
LINE
  5
2D0
330
221
100
AcDbEntity
  8
02___PRT_ALL_AXES
  6
Continuous
 62
     7
100
AcDbLine
 10
100.9230021262322
 20
181.5823426384671
 30
0.0
 11
87.06659566563219
 21
181.5823426384671
 31
0.0
  0
LINE
  5
2D1
330
221
100
AcDbEntity
  8
7_ALL_FEATURES
  6
Continuous
 62
     7
100
AcDbLine
 10
81.2267183226322
 20
207.5823426384671
 30
0.0
 11
81.2267183226322
 21
207.3323426384671
 31
0.0
  0
LINE
  5
2D2
330
221
100
AcDbEntity
  8
7_ALL_FEATURES
  6
Continuous
 62
     7
100
AcDbLine
 10
81.2267183226322
 20
205.3323426384671
 30
0.0
 11
81.2267183226322
 21
205.0823426384671
 31
0.0
  0
LINE
  5
2D3
330
221
100
AcDbEntity
  8
7_ALL_FEATURES
  6
Continuous
 62
     7
100
AcDbLine
 10
81.2267183226322
 20
189.5823426384671
 30
0.0
 11
81.2267183226322
 21
189.3323426384671
 31
0.0
  0
LINE
  5
2D4
330
221
100
AcDbEntity
  8
7_ALL_FEATURES
  6
Continuous
 62
     7
100
AcDbLine
 10
81.2267183226322
 20
187.3323426384671
 30
0.0
 11
81.2267183226322
 21
187.0823426384671
 31
0.0
  0
LINE
  5
2D5
330
221
100
AcDbEntity
  8
02___PRT_ALL_AXES
  6
Continuous
 62
     7
100
AcDbLine
 10
79.6267183226322
 20
185.0823426384671
 30
0.0
 11
105.6267183226322
 21
185.0823426384671
 31
0.0
  0
LINE
  5
2D6
330
221
100
AcDbEntity
  8
7_ALL_FEATURES
  6
Continuous
 62
     7
100
AcDbLine
 10
79.6267183226322
 20
187.0823426384671
 30
0.0
 11
105.6267183226322
 21
187.0823426384671
 31
0.0
  0
LINE
  5
2D7
330
221
100
AcDbEntity
  8
02___PRT_ALL_AXES
  6
Continuous
 62
     7
100
AcDbLine
 10
81.01566628189886
 20
187.3323426384671
 30
0.0
 11
105.1267183226322
 21
187.3323426384671
 31
0.0
  0
LINE
  5
2D8
330
221
100
AcDbEntity
  8
02___PRT_ALL_AXES
  6
Continuous
 62
     7
100
AcDbLine
 10
87.06659566563219
 20
185.0823426384671
 30
0.0
 11
87.06659566563219
 21
181.5823426384671
 31
0.0
  0
LINE
  5
2D9
330
221
100
AcDbEntity
  8
02___PRT_ALL_AXES
  6
Continuous
 62
     7
100
AcDbLine
 10
87.06659566563219
 20
171.8771805368671
 30
0.0
 11
87.06659566563219
 21
178.5823426384671
 31
0.0
  0
LINE
  5
2DA
330
221
100
AcDbEntity
  8
02___PRT_ALL_AXES
  6
Continuous
 62
     7
100
AcDbLine
 10
87.99479889596552
 20
178.5823426384671
 30
0.0
 11
87.99479889596552
 21
181.5823426384671
 31
0.0
  0
LINE
  5
2DB
330
221
100
AcDbEntity
  8
7_ALL_FEATURES
  6
Continuous
 62
     7
100
AcDbLine
 10
88.72287406343219
 20
211.6323426384672
 30
0.0
 11
88.72287406343219
 21
218.6323426384672
 31
0.0
  0
LINE
  5
2DC
330
221
100
AcDbEntity
  8
02___PRT_ALL_AXES
  6
Continuous
 62
     7
100
AcDbLine
 10
81.01566628189886
 20
189.3323426384671
 30
0.0
 11
105.1267183226322
 21
189.3323426384671
 31
0.0
  0
LINE
  5
2DD
330
221
100
AcDbEntity
  8
7_ALL_FEATURES
  6
Continuous
 62
     7
100
AcDbLine
 10
105.6267183226322
 20
189.5823426384671
 30
0.0
 11
79.6267183226322
 21
189.5823426384671
 31
0.0
  0
LINE
  5
2DE
330
221
100
AcDbEntity
  8
02___PRT_ALL_AXES
  6
Continuous
 62
     7
100
AcDbLine
 10
89.66467187703219
 20
172.5823426384671
 30
0.0
 11
89.66467187703219
 21
173.0823426384671
 31
0.0
  0
LINE
  5
2DF
330
221
100
AcDbEntity
  8
7_ALL_FEATURES
  6
Continuous
 62
     7
100
AcDbLine
 10
79.6267183226322
 20
192.0823426384671
 30
0.0
 11
80.2267183226322
 21
192.0823426384671
 31
0.0
  0
LINE
  5
2E0
330
221
100
AcDbEntity
  8
7_ALL_FEATURES
  6
Continuous
 62
     7
100
AcDbLine
 10
105.0267183226322
 20
192.0823426384671
 30
0.0
 11
105.6267183226322
 21
192.0823426384671
 31
0.0
  0
LINE
  5
2E1
330
221
100
AcDbEntity
  8
02___PRT_ALL_AXES
  6
Continuous
 62
     7
100
AcDbLine
 10
91.39672268456553
 20
172.5823426384671
 30
0.0
 11
91.39672268456553
 21
173.0823426384671
 31
0.0
  0
LINE
  5
2E2
330
221
100
AcDbEntity
  8
02___PRT_ALL_AXES
  6
Continuous
 62
     7
100
AcDbLine
 10
93.99479889596552
 20
185.0823426384671
 30
0.0
 11
93.99479889596552
 21
181.5823426384671
 31
0.0
  0
LINE
  5
2E3
330
221
100
AcDbEntity
  8
02___PRT_ALL_AXES
  6
Continuous
 62
     7
100
AcDbLine
 10
93.99479889596552
 20
178.5823426384671
 30
0.0
 11
93.99479889596552
 21
174.0823426384671
 31
0.0
  0
LINE
  5
2E4
330
221
100
AcDbEntity
  8
7_ALL_FEATURES
  6
Continuous
 62
     7
100
AcDbLine
 10
96.53056258183219
 20
211.6323426384672
 30
0.0
 11
96.53056258183219
 21
218.6323426384672
 31
0.0
  0
LINE
  5
2E5
330
221
100
AcDbEntity
  8
02___PRT_ALL_AXES
  6
Continuous
 62
     7
100
AcDbLine
 10
96.59287510729885
 20
172.5823426384671
 30
0.0
 11
96.59287510729885
 21
173.0823426384671
 31
0.0
  0
LINE
  5
2E6
330
221
100
AcDbEntity
  8
02___PRT_ALL_AXES
  6
Continuous
 62
     7
100
AcDbLine
 10
98.32492591483219
 20
172.5823426384671
 30
0.0
 11
98.32492591483219
 21
173.0823426384671
 31
0.0
  0
LINE
  5
2E7
330
221
100
AcDbEntity
  8
02___PRT_ALL_AXES
  6
Continuous
 62
     7
100
AcDbLine
 10
99.99479889596552
 20
178.5823426384671
 30
0.0
 11
99.99479889596552
 21
181.5823426384671
 31
0.0
  0
LINE
  5
2E8
330
221
100
AcDbEntity
  8
02___PRT_ALL_AXES
  6
Continuous
 62
     7
100
AcDbLine
 10
100.9230021262322
 20
185.0823426384671
 30
0.0
 11
100.9230021262322
 21
181.5823426384671
 31
0.0
  0
LINE
  5
2E9
330
221
100
AcDbEntity
  8
02___PRT_ALL_AXES
  6
Continuous
 62
     7
100
AcDbLine
 10
100.9230021262322
 20
171.8771805368671
 30
0.0
 11
100.9230021262322
 21
178.5823426384671
 31
0.0
  0
LINE
  5
2EA
330
221
100
AcDbEntity
  8
7_ALL_FEATURES
  6
Continuous
 62
     7
100
AcDbLine
 10
79.6267183226322
 20
202.0823426384671
 30
0.0
 11
80.2267183226322
 21
202.0823426384671
 31
0.0
  0
LINE
  5
2EB
330
221
100
AcDbEntity
  8
7_ALL_FEATURES
  6
Continuous
 62
     7
100
AcDbLine
 10
105.0267183226322
 20
202.0823426384671
 30
0.0
 11
105.6267183226322
 21
202.0823426384671
 31
0.0
  0
LINE
  5
2EC
330
221
100
AcDbEntity
  8
7_ALL_FEATURES
  6
Continuous
 62
     7
100
AcDbLine
 10
79.6267183226322
 20
205.0823426384671
 30
0.0
 11
105.6267183226322
 21
205.0823426384671
 31
0.0
  0
LINE
  5
2ED
330
221
100
AcDbEntity
  8
02___PRT_ALL_AXES
  6
Continuous
 62
     7
100
AcDbLine
 10
81.01566628189886
 20
205.3323426384671
 30
0.0
 11
105.1267183226322
 21
205.3323426384671
 31
0.0
  0
LINE
  5
2EE
330
221
100
AcDbEntity
  8
7_ALL_FEATURES
  6
Continuous
 62
     7
100
AcDbLine
 10
104.0267183226322
 20
207.5823426384671
 30
0.0
 11
104.0267183226322
 21
207.3323426384671
 31
0.0
  0
LINE
  5
2EF
330
221
100
AcDbEntity
  8
7_ALL_FEATURES
  6
Continuous
 62
     7
100
AcDbLine
 10
104.0267183226322
 20
205.3323426384671
 30
0.0
 11
104.0267183226322
 21
205.0823426384671
 31
0.0
  0
LINE
  5
2F0
330
221
100
AcDbEntity
  8
7_ALL_FEATURES
  6
Continuous
 62
     7
100
AcDbLine
 10
104.0267183226322
 20
189.5823426384671
 30
0.0
 11
104.0267183226322
 21
189.3323426384671
 31
0.0
  0
LINE
  5
2F1
330
221
100
AcDbEntity
  8
7_ALL_FEATURES
  6
Continuous
 62
     7
100
AcDbLine
 10
104.0267183226322
 20
187.3323426384671
 30
0.0
 11
104.0267183226322
 21
187.0823426384671
 31
0.0
  0
LINE
  5
2F2
330
221
100
AcDbEntity
  8
7_ALL_FEATURES
  6
Continuous
 62
     7
100
AcDbLine
 10
105.0267183226322
 20
192.0823426384671
 30
0.0
 11
105.0267183226322
 21
202.0823426384671
 31
0.0
  0
LINE
  5
2F3
330
221
100
AcDbEntity
  8
02___PRT_ALL_AXES
  6
Continuous
 62
     7
100
AcDbLine
 10
81.01566628189886
 20
207.3323426384671
 30
0.0
 11
105.1267183226322
 21
207.3323426384671
 31
0.0
  0
LINE
  5
2F4
330
221
100
AcDbEntity
  8
7_ALL_FEATURES
  6
Continuous
 62
     7
100
AcDbLine
 10
105.6267183226322
 20
207.5823426384671
 30
0.0
 11
79.6267183226322
 21
207.5823426384671
 31
0.0
  0
LINE
  5
2F5
330
221
100
AcDbEntity
  8
7_ALL_FEATURES
  6
Continuous
 62
     7
100
AcDbLine
 10
105.6267183226322
 20
187.0823426384671
 30
0.0
 11
105.6267183226322
 21
185.0823426384671
 31
0.0
  0
LINE
  5
2F6
330
221
100
AcDbEntity
  8
02___PRT_ALL_AXES
  6
Continuous
 62
     7
100
AcDbLine
 10
105.6267183226322
 20
185.0823426384671
 30
0.0
 11
105.6267183226322
 21
187.0823426384671
 31
0.0
  0
LINE
  5
2F7
330
221
100
AcDbEntity
  8
02___PRT_ALL_AXES
  6
Continuous
 62
     7
100
AcDbLine
 10
105.6267183226322
 20
189.5823426384671
 30
0.0
 11
105.6267183226322
 21
192.0823426384671
 31
0.0
  0
LINE
  5
2F8
330
221
100
AcDbEntity
  8
02___PRT_ALL_AXES
  6
Continuous
 62
     7
100
AcDbLine
 10
105.6267183226322
 20
202.0823426384671
 30
0.0
 11
105.6267183226322
 21
205.0823426384671
 31
0.0
  0
LINE
  5
2F9
330
221
100
AcDbEntity
  8
02___PRT_ALL_AXES
  6
Continuous
 62
     7
100
AcDbLine
 10
105.6267183226322
 20
207.5823426384671
 30
0.0
 11
105.6267183226322
 21
219.6323426384672
 31
0.0
  0
LINE
  5
2FA
330
221
100
AcDbEntity
  8
7_ALL_FEATURES
  6
Continuous
 62
     7
100
AcDbLine
 10
79.6267183226322
 20
211.6323426384672
 30
0.0
 11
105.6267183226322
 21
211.6323426384672
 31
0.0
  0
LINE
  5
2FB
330
221
100
AcDbEntity
  8
02___PRT_ALL_AXES
  6
Continuous
 62
     7
100
AcDbLine
 10
110.1267183226322
 20
220.3823426384672
 30
0.0
 11
110.1267183226322
 21
219.6323426384672
 31
0.0
  0
LINE
  5
2FC
330
221
100
AcDbEntity
  8
7_ALL_FEATURES
  6
Continuous
 62
     7
100
AcDbLine
 10
96.53056258183219
 20
218.6323426384672
 30
0.0
 11
88.72287406343219
 21
218.6323426384672
 31
0.0
  0
LINE
  5
2FD
330
221
100
AcDbEntity
  8
02___PRT_ALL_AXES
  6
Continuous
 62
     7
100
AcDbLine
 10
75.1267183226322
 20
219.6323426384672
 30
0.0
 11
110.1267183226322
 21
219.6323426384672
 31
0.0
  0
LINE
  5
2FE
330
221
100
AcDbEntity
  8
02___PRT_ALL_AXES
  6
Continuous
 62
     7
100
AcDbLine
 10
75.1267183226322
 20
220.3823426384672
 30
0.0
 11
110.1267183226322
 21
220.3823426384672
 31
0.0
  0
LINE
  5
2FF
330
221
100
AcDbEntity
  8
7_ALL_FEATURES
  6
Continuous
 62
     7
100
AcDbLine
 10
80.53257471456553
 20
221.1195048737338
 30
0.0
 11
75.1267183226322
 21
220.3823426384672
 31
0.0
  0
LINE
  5
300
330
221
100
AcDbEntity
  8
02___PRT_ALL_AXES
  6
Continuous
 62
     7
100
AcDbLine
 10
75.1267183226322
 20
220.3823426384672
 30
0.0
 11
80.53257471456553
 21
221.1195048737338
 31
0.0
  0
LINE
  5
301
330
221
100
AcDbEntity
  8
7_ALL_FEATURES
  6
Continuous
 62
     7
100
AcDbLine
 10
80.53257471456553
 20
221.1195048737338
 30
0.0
 11
80.72173320116553
 21
221.1323426384672
 31
0.0
  0
LINE
  5
302
330
221
100
AcDbEntity
  8
7_ALL_FEATURES
  6
Continuous
 62
     9
100
AcDbLine
 10
104.7208619306989
 20
221.1195048737338
 30
0.0
 11
80.53257471456553
 21
221.1195048737338
 31
0.0
  0
LINE
  5
303
330
221
100
AcDbEntity
  8
7_ALL_FEATURES
  6
Continuous
 62
     7
100
AcDbLine
 10
104.5317034440989
 20
221.1323426384672
 30
0.0
 11
80.72173320116553
 21
221.1323426384672
 31
0.0
  0
LINE
  5
304
330
221
100
AcDbEntity
  8
7_ALL_FEATURES
  6
Continuous
 62
     7
100
AcDbLine
 10
104.7208619306989
 20
221.1195048737338
 30
0.0
 11
104.5317034440989
 21
221.1323426384672
 31
0.0
  0
LINE
  5
305
330
221
100
AcDbEntity
  8
02___PRT_ALL_AXES
  6
Continuous
 62
     7
100
AcDbLine
 10
110.1267183226322
 20
220.3823426384672
 30
0.0
 11
104.7208619306989
 21
221.1195048737338
 31
0.0
  0
LINE
  5
306
330
221
100
AcDbEntity
  8
7_ALL_FEATURES
  6
Continuous
 62
     7
100
AcDbLine
 10
104.7208619306989
 20
221.1195048737338
 30
0.0
 11
110.1267183226322
 21
220.3823426384672
 31
0.0
  0
LINE
  5
307
330
221
100
AcDbEntity
  8
02___PRT_ALL_AXES
  6
Continuous
 62
     7
100
AcDbLine
 10
182.0956489016322
 20
169.0823426384671
 30
0.0
 11
189.0956489016322
 21
169.0823426384671
 31
0.0
  0
LINE
  5
308
330
221
100
AcDbEntity
  8
7_ALL_FEATURES
  6
Continuous
 62
     7
100
AcDbLine
 10
182.0956489016322
 20
169.0823426384671
 30
0.0
 11
189.0956489016322
 21
169.0823426384671
 31
0.0
  0
LINE
  5
309
330
221
100
AcDbEntity
  8
02___PRT_ALL_AXES
  6
Continuous
 62
     9
100
AcDbLine
 10
178.5956489016322
 20
172.5823426384671
 30
0.0
 11
179.0956489016322
 21
172.5823426384671
 31
0.0
  0
LINE
  5
30A
330
221
100
AcDbEntity
  8
02___PRT_ALL_AXES
  6
Continuous
 62
     9
100
AcDbLine
 10
180.0956489016322
 20
172.5823426384671
 30
0.0
 11
184.5956489016322
 21
172.5823426384671
 31
0.0
  0
LINE
  5
30B
330
221
100
AcDbEntity
  8
02___PRT_ALL_AXES
  6
Continuous
 62
     9
100
AcDbLine
 10
186.5956489016322
 20
172.5823426384671
 30
0.0
 11
191.0956489016322
 21
172.5823426384671
 31
0.0
  0
LINE
  5
30C
330
221
100
AcDbEntity
  8
02___PRT_ALL_AXES
  6
Continuous
 62
     9
100
AcDbLine
 10
192.0956489016322
 20
172.5823426384671
 30
0.0
 11
192.5956489016322
 21
172.5823426384671
 31
0.0
  0
LINE
  5
30D
330
221
100
AcDbEntity
  8
02___PRT_ALL_AXES
  6
Continuous
 62
     7
100
AcDbLine
 10
178.5956489016322
 20
173.0823426384671
 30
0.0
 11
179.0956489016322
 21
173.0823426384671
 31
0.0
  0
LINE
  5
30E
330
221
100
AcDbEntity
  8
02___PRT_ALL_AXES
  6
Continuous
 62
     7
100
AcDbLine
 10
180.0956489016322
 20
173.0823426384671
 30
0.0
 11
184.5956489016322
 21
173.0823426384671
 31
0.0
  0
LINE
  5
30F
330
221
100
AcDbEntity
  8
02___PRT_ALL_AXES
  6
Continuous
 62
     7
100
AcDbLine
 10
186.5956489016322
 20
173.0823426384671
 30
0.0
 11
191.0956489016322
 21
173.0823426384671
 31
0.0
  0
LINE
  5
310
330
221
100
AcDbEntity
  8
02___PRT_ALL_AXES
  6
Continuous
 62
     7
100
AcDbLine
 10
192.0956489016322
 20
173.0823426384671
 30
0.0
 11
192.5956489016322
 21
173.0823426384671
 31
0.0
  0
LINE
  5
311
330
221
100
AcDbEntity
  8
02___PRT_ALL_AXES
  6
Continuous
 62
     7
100
AcDbLine
 10
164.3368784184989
 20
219.6323426384672
 30
0.0
 11
164.3368784184989
 21
220.3823426384672
 31
0.0
  0
LINE
  5
312
330
221
100
AcDbEntity
  8
02___PRT_ALL_AXES
  6
Continuous
 62
     7
100
AcDbLine
 10
193.5956489016322
 20
178.5823426384671
 30
0.0
 11
177.5956489016322
 21
178.5823426384671
 31
0.0
  0
LINE
  5
313
330
221
100
AcDbEntity
  8
02___PRT_ALL_AXES
  6
Continuous
 62
     7
100
AcDbLine
 10
178.5956489016322
 20
173.0823426384671
 30
0.0
 11
177.5956489016322
 21
174.0823426384671
 31
0.0
  0
LINE
  5
314
330
221
100
AcDbEntity
  8
02___PRT_ALL_AXES
  6
Continuous
 62
     7
100
AcDbLine
 10
168.8368784184989
 20
185.0823426384671
 30
0.0
 11
168.8368784184989
 21
187.0823426384671
 31
0.0
  0
LINE
  5
315
330
221
100
AcDbEntity
  8
02___PRT_ALL_AXES
  6
Continuous
 62
     7
100
AcDbLine
 10
168.8368784184989
 20
189.5823426384671
 30
0.0
 11
168.8368784184989
 21
205.0823426384671
 31
0.0
  0
LINE
  5
316
330
221
100
AcDbEntity
  8
02___PRT_ALL_AXES
  6
Continuous
 62
     7
100
AcDbLine
 10
168.8368784184989
 20
207.5823426384671
 30
0.0
 11
168.8368784184989
 21
211.6323426384672
 31
0.0
  0
LINE
  5
317
330
221
100
AcDbEntity
  8
02___PRT_ALL_AXES
  6
Continuous
 62
     7
100
AcDbLine
 10
168.8368784184989
 20
218.6323426384672
 30
0.0
 11
168.8368784184989
 21
219.6323426384672
 31
0.0
  0
LINE
  5
318
330
221
100
AcDbEntity
  8
7_ALL_FEATURES
  6
Continuous
 62
     7
100
AcDbLine
 10
169.4368784184988
 20
211.6323426384672
 30
0.0
 11
169.4368784184988
 21
218.6323426384672
 31
0.0
  0
LINE
  5
319
330
221
100
AcDbEntity
  8
02___PRT_ALL_AXES
  6
Continuous
 62
     7
100
AcDbLine
 10
193.5956489016322
 20
181.5823426384671
 30
0.0
 11
177.5956489016322
 21
181.5823426384671
 31
0.0
  0
LINE
  5
31A
330
221
100
AcDbEntity
  8
7_ALL_FEATURES
  6
Continuous
 62
     7
100
AcDbLine
 10
170.4368784184988
 20
207.5823426384671
 30
0.0
 11
170.4368784184988
 21
207.3323426384671
 31
0.0
  0
LINE
  5
31B
330
221
100
AcDbEntity
  8
7_ALL_FEATURES
  6
Continuous
 62
     7
100
AcDbLine
 10
170.4368784184988
 20
205.3323426384671
 30
0.0
 11
170.4368784184988
 21
205.0823426384671
 31
0.0
  0
LINE
  5
31C
330
221
100
AcDbEntity
  8
7_ALL_FEATURES
  6
Continuous
 62
     7
100
AcDbLine
 10
170.4368784184988
 20
189.5823426384671
 30
0.0
 11
170.4368784184988
 21
189.3323426384671
 31
0.0
  0
LINE
  5
31D
330
221
100
AcDbEntity
  8
7_ALL_FEATURES
  6
Continuous
 62
     7
100
AcDbLine
 10
170.4368784184988
 20
187.3323426384671
 30
0.0
 11
170.4368784184988
 21
187.0823426384671
 31
0.0
  0
LINE
  5
31E
330
221
100
AcDbEntity
  8
02___PRT_ALL_AXES
  6
Continuous
 62
     7
100
AcDbLine
 10
168.8368784184989
 20
185.0823426384671
 30
0.0
 11
194.8368784184989
 21
185.0823426384671
 31
0.0
  0
LINE
  5
31F
330
221
100
AcDbEntity
  8
7_ALL_FEATURES
  6
Continuous
 62
     7
100
AcDbLine
 10
168.8368784184989
 20
187.0823426384671
 30
0.0
 11
194.8368784184989
 21
187.0823426384671
 31
0.0
  0
LINE
  5
320
330
221
100
AcDbEntity
  8
02___PRT_ALL_AXES
  6
Continuous
 62
     7
100
AcDbLine
 10
169.3535122520989
 20
187.3323426384671
 30
0.0
 11
177.2072487888989
 21
187.3323426384671
 31
0.0
  0
LINE
  5
321
330
221
100
AcDbEntity
  8
02___PRT_ALL_AXES
  6
Continuous
 62
     7
100
AcDbLine
 10
186.4665080481655
 20
187.3323426384671
 30
0.0
 11
194.3340488314322
 21
187.3323426384671
 31
0.0
  0
LINE
  5
322
330
221
100
AcDbEntity
  8
02___PRT_ALL_AXES
  6
Continuous
 62
     7
100
AcDbLine
 10
177.5956489016322
 20
185.0823426384671
 30
0.0
 11
177.5956489016322
 21
181.5823426384671
 31
0.0
  0
LINE
  5
323
330
221
100
AcDbEntity
  8
02___PRT_ALL_AXES
  6
Continuous
 62
     7
100
AcDbLine
 10
177.5956489016322
 20
178.5823426384671
 30
0.0
 11
177.5956489016322
 21
174.0823426384671
 31
0.0
  0
LINE
  5
324
330
221
100
AcDbEntity
  8
7_ALL_FEATURES
  6
Continuous
 62
     7
100
AcDbLine
 10
177.9330341592988
 20
192.0823426384671
 30
0.0
 11
177.9330341592988
 21
202.0823426384671
 31
0.0
  0
LINE
  5
325
330
221
100
AcDbEntity
  8
02___PRT_ALL_AXES
  6
Continuous
 62
     7
100
AcDbLine
 10
169.3535122520989
 20
189.3323426384671
 30
0.0
 11
177.2072487888989
 21
189.3323426384671
 31
0.0
  0
LINE
  5
326
330
221
100
AcDbEntity
  8
02___PRT_ALL_AXES
  6
Continuous
 62
     7
100
AcDbLine
 10
186.4665080481655
 20
189.3323426384671
 30
0.0
 11
194.3340488314322
 21
189.3323426384671
 31
0.0
  0
LINE
  5
327
330
221
100
AcDbEntity
  8
7_ALL_FEATURES
  6
Continuous
 62
     7
100
AcDbLine
 10
194.8368784184989
 20
189.5823426384671
 30
0.0
 11
168.8368784184989
 21
189.5823426384671
 31
0.0
  0
LINE
  5
328
330
221
100
AcDbEntity
  8
02___PRT_ALL_AXES
  6
Continuous
 62
     7
100
AcDbLine
 10
178.5956489016322
 20
172.5823426384671
 30
0.0
 11
178.5956489016322
 21
173.0823426384671
 31
0.0
  0
LINE
  5
329
330
221
100
AcDbEntity
  8
02___PRT_ALL_AXES
  6
Continuous
 62
     7
100
AcDbLine
 10
179.0956489016322
 20
172.5823426384671
 30
0.0
 11
179.0956489016322
 21
173.0823426384671
 31
0.0
  0
LINE
  5
32A
330
221
100
AcDbEntity
  8
02___PRT_ALL_AXES
  6
Continuous
 62
     7
100
AcDbLine
 10
179.5956489016322
 20
181.5823426384671
 30
0.0
 11
179.5956489016322
 21
178.5823426384671
 31
0.0
  0
LINE
  5
32B
330
221
100
AcDbEntity
  8
7_ALL_FEATURES
  6
Continuous
 62
     7
100
AcDbLine
 10
177.9330341592988
 20
192.0823426384671
 30
0.0
 11
185.7407226776989
 21
192.0823426384671
 31
0.0
  0
LINE
  5
32C
330
221
100
AcDbEntity
  8
02___PRT_ALL_AXES
  6
Continuous
 62
     7
100
AcDbLine
 10
180.0956489016322
 20
172.5823426384671
 30
0.0
 11
180.0956489016322
 21
173.0823426384671
 31
0.0
  0
LINE
  5
32D
330
221
100
AcDbEntity
  8
02___PRT_ALL_AXES
  6
Continuous
 62
     7
100
AcDbLine
 10
181.5956489016322
 20
185.0823426384671
 30
0.0
 11
181.5956489016322
 21
181.5823426384671
 31
0.0
  0
LINE
  5
32E
330
221
100
AcDbEntity
  8
02___PRT_ALL_AXES
  6
Continuous
 62
     7
100
AcDbLine
 10
181.5956489016322
 20
178.5823426384671
 30
0.0
 11
181.5956489016322
 21
174.0823426384671
 31
0.0
  0
LINE
  5
32F
330
221
100
AcDbEntity
  8
02___PRT_ALL_AXES
  6
Continuous
 62
     7
100
AcDbLine
 10
184.5956489016322
 20
172.5823426384671
 30
0.0
 11
184.5956489016322
 21
173.0823426384671
 31
0.0
  0
LINE
  5
330
330
221
100
AcDbEntity
  8
7_ALL_FEATURES
  6
Continuous
 62
     7
100
AcDbLine
 10
185.7407226776989
 20
192.0823426384671
 30
0.0
 11
185.7407226776989
 21
202.0823426384671
 31
0.0
  0
LINE
  5
331
330
221
100
AcDbEntity
  8
02___PRT_ALL_AXES
  6
Continuous
 62
     7
100
AcDbLine
 10
186.5956489016322
 20
172.5823426384671
 30
0.0
 11
186.5956489016322
 21
173.0823426384671
 31
0.0
  0
LINE
  5
332
330
221
100
AcDbEntity
  8
02___PRT_ALL_AXES
  6
Continuous
 62
     7
100
AcDbLine
 10
189.5956489016322
 20
185.0823426384671
 30
0.0
 11
189.5956489016322
 21
181.5823426384671
 31
0.0
  0
LINE
  5
333
330
221
100
AcDbEntity
  8
02___PRT_ALL_AXES
  6
Continuous
 62
     7
100
AcDbLine
 10
189.5956489016322
 20
178.5823426384671
 30
0.0
 11
189.5956489016322
 21
174.0823426384671
 31
0.0
  0
LINE
  5
334
330
221
100
AcDbEntity
  8
7_ALL_FEATURES
  6
Continuous
 62
     7
100
AcDbLine
 10
177.9330341592988
 20
202.0823426384671
 30
0.0
 11
185.7407226776989
 21
202.0823426384671
 31
0.0
  0
LINE
  5
335
330
221
100
AcDbEntity
  8
02___PRT_ALL_AXES
  6
Continuous
 62
     7
100
AcDbLine
 10
191.0956489016322
 20
172.5823426384671
 30
0.0
 11
191.0956489016322
 21
173.0823426384671
 31
0.0
  0
LINE
  5
336
330
221
100
AcDbEntity
  8
02___PRT_ALL_AXES
  6
Continuous
 62
     7
100
AcDbLine
 10
191.5956489016322
 20
181.5823426384671
 30
0.0
 11
191.5956489016322
 21
178.5823426384671
 31
0.0
  0
LINE
  5
337
330
221
100
AcDbEntity
  8
02___PRT_ALL_AXES
  6
Continuous
 62
     7
100
AcDbLine
 10
192.0956489016322
 20
172.5823426384671
 30
0.0
 11
192.0956489016322
 21
173.0823426384671
 31
0.0
  0
LINE
  5
338
330
221
100
AcDbEntity
  8
7_ALL_FEATURES
  6
Continuous
 62
     7
100
AcDbLine
 10
168.8368784184989
 20
205.0823426384671
 30
0.0
 11
194.8368784184989
 21
205.0823426384671
 31
0.0
  0
LINE
  5
339
330
221
100
AcDbEntity
  8
02___PRT_ALL_AXES
  6
Continuous
 62
     7
100
AcDbLine
 10
169.3535122520989
 20
205.3323426384671
 30
0.0
 11
177.2072487888989
 21
205.3323426384671
 31
0.0
  0
LINE
  5
33A
330
221
100
AcDbEntity
  8
02___PRT_ALL_AXES
  6
Continuous
 62
     7
100
AcDbLine
 10
186.4665080481655
 20
205.3323426384671
 30
0.0
 11
194.3340488314322
 21
205.3323426384671
 31
0.0
  0
LINE
  5
33B
330
221
100
AcDbEntity
  8
02___PRT_ALL_AXES
  6
Continuous
 62
     7
100
AcDbLine
 10
192.5956489016322
 20
172.5823426384671
 30
0.0
 11
192.5956489016322
 21
173.0823426384671
 31
0.0
  0
LINE
  5
33C
330
221
100
AcDbEntity
  8
7_ALL_FEATURES
  6
Continuous
 62
     7
100
AcDbLine
 10
193.2368784184988
 20
207.5823426384671
 30
0.0
 11
193.2368784184988
 21
207.3323426384671
 31
0.0
  0
LINE
  5
33D
330
221
100
AcDbEntity
  8
7_ALL_FEATURES
  6
Continuous
 62
     7
100
AcDbLine
 10
193.2368784184988
 20
205.3323426384671
 30
0.0
 11
193.2368784184988
 21
205.0823426384671
 31
0.0
  0
LINE
  5
33E
330
221
100
AcDbEntity
  8
7_ALL_FEATURES
  6
Continuous
 62
     7
100
AcDbLine
 10
193.2368784184988
 20
189.5823426384671
 30
0.0
 11
193.2368784184988
 21
189.3323426384671
 31
0.0
  0
LINE
  5
33F
330
221
100
AcDbEntity
  8
7_ALL_FEATURES
  6
Continuous
 62
     7
100
AcDbLine
 10
193.2368784184988
 20
187.3323426384671
 30
0.0
 11
193.2368784184988
 21
187.0823426384671
 31
0.0
  0
LINE
  5
340
330
221
100
AcDbEntity
  8
02___PRT_ALL_AXES
  6
Continuous
 62
     7
100
AcDbLine
 10
193.5956489016322
 20
185.0823426384671
 30
0.0
 11
193.5956489016322
 21
181.5823426384671
 31
0.0
  0
LINE
  5
341
330
221
100
AcDbEntity
  8
02___PRT_ALL_AXES
  6
Continuous
 62
     7
100
AcDbLine
 10
193.5956489016322
 20
178.5823426384671
 30
0.0
 11
193.5956489016322
 21
174.0823426384671
 31
0.0
  0
LINE
  5
342
330
221
100
AcDbEntity
  8
7_ALL_FEATURES
  6
Continuous
 62
     7
100
AcDbLine
 10
194.2368784184988
 20
211.6323426384672
 30
0.0
 11
194.2368784184988
 21
218.6323426384672
 31
0.0
  0
LINE
  5
343
330
221
100
AcDbEntity
  8
02___PRT_ALL_AXES
  6
Continuous
 62
     7
100
AcDbLine
 10
169.3535122520989
 20
207.3323426384671
 30
0.0
 11
177.2072487888989
 21
207.3323426384671
 31
0.0
  0
LINE
  5
344
330
221
100
AcDbEntity
  8
02___PRT_ALL_AXES
  6
Continuous
 62
     7
100
AcDbLine
 10
186.4665080481655
 20
207.3323426384671
 30
0.0
 11
194.3340488314322
 21
207.3323426384671
 31
0.0
  0
LINE
  5
345
330
221
100
AcDbEntity
  8
7_ALL_FEATURES
  6
Continuous
 62
     7
100
AcDbLine
 10
194.8368784184989
 20
207.5823426384671
 30
0.0
 11
168.8368784184989
 21
207.5823426384671
 31
0.0
  0
LINE
  5
346
330
221
100
AcDbEntity
  8
02___PRT_ALL_AXES
  6
Continuous
 62
     7
100
AcDbLine
 10
194.8368784184989
 20
185.0823426384671
 30
0.0
 11
194.8368784184989
 21
187.0823426384671
 31
0.0
  0
LINE
  5
347
330
221
100
AcDbEntity
  8
02___PRT_ALL_AXES
  6
Continuous
 62
     7
100
AcDbLine
 10
194.8368784184989
 20
189.5823426384671
 30
0.0
 11
194.8368784184989
 21
205.0823426384671
 31
0.0
  0
LINE
  5
348
330
221
100
AcDbEntity
  8
02___PRT_ALL_AXES
  6
Continuous
 62
     7
100
AcDbLine
 10
194.8368784184989
 20
207.5823426384671
 30
0.0
 11
194.8368784184989
 21
211.6323426384672
 31
0.0
  0
LINE
  5
349
330
221
100
AcDbEntity
  8
02___PRT_ALL_AXES
  6
Continuous
 62
     7
100
AcDbLine
 10
194.8368784184989
 20
218.6323426384672
 30
0.0
 11
194.8368784184989
 21
219.6323426384672
 31
0.0
  0
LINE
  5
34A
330
221
100
AcDbEntity
  8
7_ALL_FEATURES
  6
Continuous
 62
     7
100
AcDbLine
 10
168.8368784184989
 20
211.6323426384672
 30
0.0
 11
194.8368784184989
 21
211.6323426384672
 31
0.0
  0
LINE
  5
34B
330
221
100
AcDbEntity
  8
02___PRT_ALL_AXES
  6
Continuous
 62
     7
100
AcDbLine
 10
199.3368784184989
 20
219.6323426384672
 30
0.0
 11
199.3368784184989
 21
220.3823426384672
 31
0.0
  0
LINE
  5
34C
330
221
100
AcDbEntity
  8
02___PRT_ALL_AXES
  6
Continuous
 62
     7
100
AcDbLine
 10
192.5956489016322
 20
173.0823426384671
 30
0.0
 11
193.5956489016322
 21
174.0823426384671
 31
0.0
  0
LINE
  5
34D
330
221
100
AcDbEntity
  8
7_ALL_FEATURES
  6
Continuous
 62
     7
100
AcDbLine
 10
194.8368103483655
 20
218.6323426384672
 30
0.0
 11
194.2368784184988
 21
218.6323426384672
 31
0.0
  0
LINE
  5
34E
330
221
100
AcDbEntity
  8
7_ALL_FEATURES
  6
Continuous
 62
     7
100
AcDbLine
 10
169.4368784184988
 20
218.6323426384672
 30
0.0
 11
168.8369464886322
 21
218.6323426384672
 31
0.0
  0
LINE
  5
34F
330
221
100
AcDbEntity
  8
02___PRT_ALL_AXES
  6
Continuous
 62
     7
100
AcDbLine
 10
164.3369120824989
 20
219.6323426384672
 30
0.0
 11
199.3368447545655
 21
219.6323426384672
 31
0.0
  0
LINE
  5
350
330
221
100
AcDbEntity
  8
02___PRT_ALL_AXES
  6
Continuous
 62
     7
100
AcDbLine
 10
164.3368784184989
 20
220.3823426384672
 30
0.0
 11
199.3368784184989
 21
220.3823426384672
 31
0.0
  0
LINE
  5
351
330
221
100
AcDbEntity
  8
02___PRT_ALL_AXES
  6
Continuous
 62
     7
100
AcDbLine
 10
164.3368784184989
 20
220.3823426384672
 30
0.0
 11
169.7427348104322
 21
221.1195048737338
 31
0.0
  0
LINE
  5
352
330
221
100
AcDbEntity
  8
7_ALL_FEATURES
  6
Continuous
 62
     7
100
AcDbLine
 10
169.7427348104322
 20
221.1195048737338
 30
0.0
 11
169.9318932970322
 21
221.1323426384672
 31
0.0
  0
LINE
  5
353
330
221
100
AcDbEntity
  8
7_ALL_FEATURES
  6
Continuous
 62
     9
100
AcDbLine
 10
193.9310220265655
 20
221.1195048737338
 30
0.0
 11
169.7427348104322
 21
221.1195048737338
 31
0.0
  0
LINE
  5
354
330
221
100
AcDbEntity
  8
7_ALL_FEATURES
  6
Continuous
 62
     7
100
AcDbLine
 10
193.7417254702989
 20
221.1323426384672
 30
0.0
 11
169.9320313666989
 21
221.1323426384672
 31
0.0
  0
LINE
  5
355
330
221
100
AcDbEntity
  8
7_ALL_FEATURES
  6
Continuous
 62
     7
100
AcDbLine
 10
193.9310220265655
 20
221.1195048737338
 30
0.0
 11
193.7418635399655
 21
221.1323426384672
 31
0.0
  0
LINE
  5
356
330
221
100
AcDbEntity
  8
02___PRT_ALL_AXES
  6
Continuous
 62
     7
100
AcDbLine
 10
199.3368784184989
 20
220.3823426384672
 30
0.0
 11
193.9310220265655
 21
221.1195048737338
 31
0.0
  0
LINE
  5
357
330
221
100
AcDbEntity
  8
02___PRT_ALL_AXES
  6
Continuous
 62
     7
100
AcDbLine
 10
370.9242161632
 20
90.3186477299
 30
0.0
 11
359.4591605506
 21
87.7002850873
 31
0.0
  0
LINE
  5
358
330
221
100
AcDbEntity
  8
02___PRT_ALL_AXES
  6
Continuous
 62
     7
100
AcDbLine
 10
370.3262085407
 20
94.4558656517
 30
0.0
 11
358.8611529282
 21
91.8375030091
 31
0.0
  0
LINE
  5
359
330
221
100
AcDbEntity
  8
02___PRT_ALL_AXES
  6
Continuous
 62
     7
100
AcDbLine
 10
359.4591605506
 20
87.7002850873
 30
0.0
 11
350.9867230933
 21
89.792537008
 31
0.0
  0
LINE
  5
35A
330
221
100
AcDbEntity
  8
02___PRT_ALL_AXES
  6
Continuous
 62
     7
100
AcDbLine
 10
354.2388490952
 20
81.9148845247
 30
0.0
 11
353.7408991151
 21
82.2285221766
 31
0.0
  0
LINE
  5
35B
330
221
100
AcDbEntity
  8
02___PRT_ALL_AXES
  6
Continuous
 62
     7
100
AcDbLine
 10
358.8611529282
 20
91.8375030091
 30
0.0
 11
350.3887154708
 21
93.9297549298
 31
0.0
  0
LINE
  5
35C
330
221
100
AcDbEntity
  8
02___PRT_ALL_AXES
  6
Continuous
 62
     7
100
AcDbLine
 10
322.8808468493
 20
145.5260198021
 30
0.0
 11
322.7313449437
 21
146.5603242826
 31
0.0
  0
LINE
  5
35D
330
221
100
AcDbEntity
  8
02___PRT_ALL_AXES
  6
Continuous
 62
     7
100
AcDbLine
 10
371.1280063161
 20
95.717957934
 30
0.0
 11
373.9168343184
 21
95.0292622932
 31
0.0
  0
LINE
  5
35E
330
221
100
AcDbEntity
  8
7_ALL_FEATURES
  6
Continuous
 62
     7
100
AcDbLine
 10
345.5488702874
 20
103.7081793578
 30
0.0
 11
337.2801012051
 21
105.7501357701
 31
0.0
  0
LINE
  5
35F
330
221
100
AcDbEntity
  8
02___PRT_ALL_AXES
  6
Continuous
 62
     7
100
AcDbLine
 10
336.4484741234
 20
98.8446929048
 30
0.0
 11
336.1461570126
 21
100.9362243871
 31
0.0
  0
LINE
  5
360
330
221
100
AcDbEntity
  8
02___PRT_ALL_AXES
  6
Continuous
 62
     7
100
AcDbLine
 10
335.5514626897
 20
105.0505197874
 30
0.0
 11
332.5581112777
 21
125.7595319176
 31
0.0
  0
LINE
  5
361
330
221
100
AcDbEntity
  8
02___PRT_ALL_AXES
  6
Continuous
 62
     7
100
AcDbLine
 10
331.9634169548
 20
129.8738273179
 30
0.0
 11
330.4916058812
 21
140.056311491
 31
0.0
  0
LINE
  5
362
330
221
100
AcDbEntity
  8
7_ALL_FEATURES
  6
Continuous
 62
     7
100
AcDbLine
 10
337.2801012051
 20
105.7501357701
 30
0.0
 11
335.2867424635
 21
119.5408621759
 31
0.0
  0
LINE
  5
363
330
221
100
AcDbEntity
  8
02___PRT_ALL_AXES
  6
Continuous
 62
     7
100
AcDbLine
 10
334.2605299157
 20
148.0590204389
 30
0.0
 11
334.1072075965
 21
149.1197558256
 31
0.0
  0
LINE
  5
364
330
221
100
AcDbEntity
  8
7_ALL_FEATURES
  6
Continuous
 62
     7
100
AcDbLine
 10
359.5145745999
 20
132.9408525396
 30
0.0
 11
367.6610600398
 21
137.0705214653
 31
0.0
  0
LINE
  5
365
330
221
100
AcDbEntity
  8
7_ALL_FEATURES
  6
Continuous
 62
     7
100
AcDbLine
 10
345.5488702874
 20
103.7081793578
 30
0.0
 11
343.5555115458
 21
117.4989057636
 31
0.0
  0
LINE
  5
366
330
221
100
AcDbEntity
  8
02___PRT_ALL_AXES
  6
Continuous
 62
     7
100
AcDbLine
 10
350.3802599159
 20
93.9882533033
 30
0.0
 11
350.3887154708
 21
93.9297549298
 31
0.0
  0
LINE
  5
367
330
221
100
AcDbEntity
  8
02___PRT_ALL_AXES
  6
Continuous
 62
     7
100
AcDbLine
 10
350.9867230933
 20
89.792537008
 30
0.0
 11
351.883734527
 21
83.5867101254
 31
0.0
  0
LINE
  5
368
330
221
100
AcDbEntity
  8
02___PRT_ALL_AXES
  6
Continuous
 62
     7
100
AcDbLine
 10
353.5443482767
 20
91.1233892042
 30
0.0
 11
353.2405002263
 21
93.2255122414
 31
0.0
  0
LINE
  5
369
330
221
100
AcDbEntity
  8
02___PRT_ALL_AXES
  6
Continuous
 62
     7
100
AcDbLine
 10
355.3599023848
 20
80.7335066942
 30
0.0
 11
355.2602344477
 21
81.4230430145
 31
0.0
  0
LINE
  5
36A
330
221
100
AcDbEntity
  8
02___PRT_ALL_AXES
  6
Continuous
 62
     7
100
AcDbLine
 10
357.4780117491
 20
80.2104437141
 30
0.0
 11
357.378343812
 21
80.8999800344
 31
0.0
  0
LINE
  5
36B
330
221
100
AcDbEntity
  8
02___PRT_ALL_AXES
  6
Continuous
 62
     7
100
AcDbLine
 10
358.436754353
 20
94.7736351337
 30
0.0
 11
358.8611529282
 21
91.8375030091
 31
0.0
  0
LINE
  5
36C
330
221
100
AcDbEntity
  8
02___PRT_ALL_AXES
  6
Continuous
 62
     7
100
AcDbLine
 10
359.4591605506
 20
87.7002850873
 30
0.0
 11
360.3561719844
 21
81.4944582047
 31
0.0
  0
LINE
  5
36D
330
221
100
AcDbEntity
  8
02___PRT_ALL_AXES
  6
Continuous
 62
     7
100
AcDbLine
 10
364.9545716503
 20
80.4077352348
 30
0.0
 11
364.8549037132
 21
81.0972715551
 31
0.0
  0
LINE
  5
36E
330
221
100
AcDbEntity
  8
7_ALL_FEATURES
  6
Continuous
 62
     7
100
AcDbLine
 10
359.5145745999
 20
132.9408525396
 30
0.0
 11
358.3031725384
 21
141.3217395572
 31
0.0
  0
LINE
  5
36F
330
221
100
AcDbEntity
  8
02___PRT_ALL_AXES
  6
Continuous
 62
     7
100
AcDbLine
 10
367.8208355534
 20
81.0623258955
 30
0.0
 11
367.7211676164
 21
81.7518622157
 31
0.0
  0
LINE
  5
370
330
221
100
AcDbEntity
  8
02___PRT_ALL_AXES
  6
Continuous
 62
     7
100
AcDbLine
 10
350.9867230933
 20
89.792537008
 30
0.0
 11
353.1775434731
 21
93.2410592889
 31
0.0
  0
LINE
  5
371
330
221
100
AcDbEntity
  8
02___PRT_ALL_AXES
  6
Continuous
 62
     7
100
AcDbLine
 10
369.7600523843
 20
98.3727244151
 30
0.0
 11
370.3262085407
 21
94.4558656517
 31
0.0
  0
LINE
  5
372
330
221
100
AcDbEntity
  8
02___PRT_ALL_AXES
  6
Continuous
 62
     7
100
AcDbLine
 10
370.9242161632
 20
90.3186477299
 30
0.0
 11
371.8212275969
 21
84.1128208473
 31
0.0
  0
LINE
  5
373
330
221
100
AcDbEntity
  8
02___PRT_ALL_AXES
  6
Continuous
 62
     7
100
AcDbLine
 10
371.359209135
 20
93.698410097
 30
0.0
 11
371.0785493623
 21
95.6401088283
 31
0.0
  0
LINE
  5
374
330
221
100
AcDbEntity
  8
02___PRT_ALL_AXES
  6
Continuous
 62
     7
100
AcDbLine
 10
363.2060543028
 20
152.2685049532
 30
0.0
 11
363.0563564913
 21
153.3041647764
 31
0.0
  0
LINE
  5
375
330
221
100
AcDbEntity
  8
02___PRT_ALL_AXES
  6
Continuous
 62
     7
100
AcDbLine
 10
373.2424632164
 20
83.8106923477
 30
0.0
 11
373.1427952793
 21
84.5002286679
 31
0.0
  0
LINE
  5
376
330
221
100
AcDbEntity
  8
02___PRT_ALL_AXES
  6
Continuous
 62
     7
100
AcDbLine
 10
373.9906177552
 20
84.9883459885
 30
0.0
 11
373.8909498181
 21
85.6778823088
 31
0.0
  0
LINE
  5
377
330
221
100
AcDbEntity
  8
02___PRT_ALL_AXES
  6
Continuous
 62
     7
100
AcDbLine
 10
374.0397961182
 20
85.6385593279
 30
0.0
 11
373.9956406569
 21
85.9440416644
 31
0.0
  0
LINE
  5
378
330
221
100
AcDbEntity
  8
7_ALL_FEATURES
  6
Continuous
 62
     7
100
AcDbLine
 10
367.6610600398
 20
137.0705214653
 30
0.0
 11
366.6126143935
 21
144.3240211777
 31
0.0
  0
LINE
  5
379
330
221
100
AcDbEntity
  8
02___PRT_ALL_AXES
  6
Continuous
 62
     7
100
AcDbLine
 10
373.1077758691
 20
100.6266008395
 30
0.0
 11
373.3188266959
 21
99.1664802149
 31
0.0
  0
LINE
  5
37A
330
221
100
AcDbEntity
  8
02___PRT_ALL_AXES
  6
Continuous
 62
     7
100
AcDbLine
 10
373.9168343184
 20
95.0292622932
 30
0.0
 11
374.8138457521
 21
88.8234354106
 31
0.0
  0
LINE
  5
37B
330
221
100
AcDbEntity
  8
02___PRT_ALL_AXES
  6
Continuous
 62
     7
100
AcDbLine
 10
375.0473393165
 20
104.4239048392
 30
0.0
 11
374.7387303604
 21
106.5589654233
 31
0.0
  0
LINE
  5
37C
330
221
100
AcDbEntity
  8
02___PRT_ALL_AXES
  6
Continuous
 62
     7
100
AcDbLine
 10
374.1503278827
 20
110.6297317219
 30
0.0
 11
371.1506846256
 21
131.3822729538
 31
0.0
  0
LINE
  5
37D
330
221
100
AcDbEntity
  8
02___PRT_ALL_AXES
  6
Continuous
 62
     7
100
AcDbLine
 10
370.5622821479
 20
135.4530392524
 30
0.0
 11
369.0887089607
 21
145.6477143197
 31
0.0
  0
LINE
  5
37E
330
221
100
AcDbEntity
  8
02___PRT_ALL_AXES
  6
Continuous
 62
     9
100
AcDbLine
 10
374.0397961182
 20
85.6385593279
 30
0.0
 11
373.9906177552
 21
84.9883459885
 31
0.0
  0
LINE
  5
37F
330
221
100
AcDbEntity
  8
02___PRT_ALL_AXES
  6
Continuous
 62
     7
100
AcDbLine
 10
373.3188266959
 20
99.1664802149
 30
0.0
 11
370.3262085407
 21
94.4558656517
 31
0.0
  0
LINE
  5
380
330
221
100
AcDbEntity
  8
02___PRT_ALL_AXES
  6
Continuous
 62
     7
100
AcDbLine
 10
374.8408576861
 20
153.0364974062
 30
0.0
 11
374.6913557805
 21
154.0708018867
 31
0.0
  0
LINE
  5
381
330
221
100
AcDbEntity
  8
02___PRT_ALL_AXES
  6
Continuous
 62
     7
100
AcDbLine
 10
373.9168343184
 20
95.0292622932
 30
0.0
 11
370.9242161632
 21
90.3186477299
 31
0.0
  0
CIRCLE
  5
382
330
221
100
AcDbEntity
  8
02___PRT_ALL_AXES
  6
Continuous
 62
     7
100
AcDbCircle
 10
92.62671832263219
 20
101.2889310475338
 30
0.0
 40
17.5
  0
CIRCLE
  5
383
330
221
100
AcDbEntity
  8
7_ALL_FEATURES
  6
Continuous
 62
     9
100
AcDbCircle
 10
92.62671832263219
 20
101.2889310475338
 30
0.0
 40
12.09414360806667
  0
CIRCLE
  5
384
330
221
100
AcDbEntity
  8
7_ALL_FEATURES
  6
Continuous
 62
     9
100
AcDbCircle
 10
92.62671832263219
 20
101.2889310475338
 30
0.0
 40
11.90498512146667
  0
CIRCLE
  5
385
330
221
100
AcDbEntity
  8
02___PRT_ALL_AXES
  6
Continuous
 62
     7
100
AcDbCircle
 10
92.62671832263219
 20
101.2889310475338
 30
0.0
 40
10.0
  0
CIRCLE
  5
386
330
221
100
AcDbEntity
  8
7_ALL_FEATURES
  6
Continuous
 62
     7
100
AcDbCircle
 10
92.62671832263219
 20
101.2889310475338
 30
0.0
 40
9.75
  0
CIRCLE
  5
387
330
221
100
AcDbEntity
  8
7_ALL_FEATURES
  6
Continuous
 62
     7
100
AcDbCircle
 10
92.62671832263219
 20
101.2889310475338
 30
0.0
 40
9.649999999999999
  0
ARC
  5
388
330
221
100
AcDbEntity
  8
02___PRT_ALL_AXES
  6
Continuous
 62
     7
100
AcDbCircle
 10
97.49479889596552
 20
172.5823426384671
 30
0.0
 40
3.5
100
AcDbArc
 50
270.0
 51
348.4316348940999
  0
ARC
  5
389
330
221
100
AcDbEntity
  8
02___PRT_ALL_AXES
  6
Continuous
 62
     7
100
AcDbCircle
 10
90.49479889596552
 20
172.5823426384671
 30
0.0
 40
3.5
100
AcDbArc
 50
191.5683651059001
 51
270.0
  0
ARC
  5
38A
330
221
100
AcDbEntity
  8
02___PRT_ALL_AXES
  6
Continuous
 62
     7
100
AcDbCircle
 10
105.1267183226322
 20
188.3323426384671
 30
0.0
 40
1.0
100
AcDbArc
 50
270.0
 51
90.0
  0
ARC
  5
38B
330
221
100
AcDbEntity
  8
02___PRT_ALL_AXES
  6
Continuous
 62
     7
100
AcDbCircle
 10
105.1267183226322
 20
206.3323426384671
 30
0.0
 40
1.0
100
AcDbArc
 50
270.0
 51
90.0
  0
ARC
  5
38C
330
221
100
AcDbEntity
  8
02___PRT_ALL_AXES
  6
Continuous
 62
     7
100
AcDbCircle
 10
189.0956489016322
 20
172.5823426384671
 30
0.0
 40
3.5
100
AcDbArc
 50
270.0
 51
0.0
  0
ARC
  5
38D
330
221
100
AcDbEntity
  8
02___PRT_ALL_AXES
  6
Continuous
 62
     7
100
AcDbCircle
 10
182.0956489016322
 20
172.5823426384671
 30
0.0
 40
3.5
100
AcDbArc
 50
180.0
 51
270.0
  0
ARC
  5
38E
330
221
100
AcDbEntity
  8
7_ALL_FEATURES
  6
Continuous
 62
     7
100
AcDbCircle
 10
182.0956489016322
 20
172.5823426384671
 30
0.0
 40
3.5
100
AcDbArc
 50
180.0
 51
270.0
  0
ARC
  5
38F
330
221
100
AcDbEntity
  8
7_ALL_FEATURES
  6
Continuous
 62
     7
100
AcDbCircle
 10
189.0956489016322
 20
172.5823426384671
 30
0.0
 40
3.5
100
AcDbArc
 50
270.0
 51
0.0
  0
ARC
  5
390
330
221
100
AcDbEntity
  8
02___PRT_ALL_AXES
  6
Continuous
 62
     7
100
AcDbCircle
 10
194.3368784184989
 20
188.3323426384671
 30
0.0
 40
1.0
100
AcDbArc
 50
270.0
 51
90.0
  0
ARC
  5
391
330
221
100
AcDbEntity
  8
02___PRT_ALL_AXES
  6
Continuous
 62
     7
100
AcDbCircle
 10
169.3368784184989
 20
188.3323426384671
 30
0.0
 40
1.0
100
AcDbArc
 50
90.0
 51
270.0
  0
ARC
  5
392
330
221
100
AcDbEntity
  8
02___PRT_ALL_AXES
  6
Continuous
 62
     7
100
AcDbCircle
 10
194.3368784184989
 20
206.3323426384671
 30
0.0
 40
1.0
100
AcDbArc
 50
270.0
 51
90.0
  0
ARC
  5
393
330
221
100
AcDbEntity
  8
02___PRT_ALL_AXES
  6
Continuous
 62
     7
100
AcDbCircle
 10
169.3368784184989
 20
206.3323426384671
 30
0.0
 40
1.0
100
AcDbArc
 50
90.0
 51
270.0
  0
ARC
  5
394
330
221
100
AcDbEntity
  8
7_ALL_FEATURES
  6
Continuous
 62
     7
100
AcDbCircle
 10
345.9308681383
 20
174.9229483009
 30
0.0
 40
44.124967329
100
AcDbArc
 50
285.1697172513
 51
287.9403930022
  0
ARC
  5
395
330
221
100
AcDbEntity
  8
7_ALL_FEATURES
  6
Continuous
 62
     7
100
AcDbCircle
 10
344.0205949415
 20
180.4463982806
 30
0.0
 40
34.9873483139
100
AcDbArc
 50
269.8308297242
 51
272.8587734196
  0
ARC
  5
396
330
221
100
AcDbEntity
  8
7_ALL_FEATURES
  6
Continuous
 62
     7
100
AcDbCircle
 10
345.1919212216
 20
178.7347560305
 30
0.0
 40
33.1091687991
100
AcDbArc
 50
286.1402360337
 51
286.421494678
  0
ARC
  5
397
330
221
100
AcDbEntity
  8
02___PRT_ALL_AXES
  6
Continuous
 62
     7
100
AcDbCircle
 10
361.8009168974
 20
94.9854207643
 30
0.0
 40
15.0898018695
100
AcDbArc
 50
235.3381685473
 51
237.7354871209
  0
ARC
  5
398
330
221
100
AcDbEntity
  8
7_ALL_FEATURES
  6
Continuous
 62
     7
100
AcDbCircle
 10
341.9034220232
 20
160.2160063326
 30
0.0
 40
14.5858961779
100
AcDbArc
 50
255.0198821021
 51
256.1373160877
  0
ARC
  5
399
330
221
100
AcDbEntity
  8
7_ALL_FEATURES
  6
Continuous
 62
     7
100
AcDbCircle
 10
344.2325902218
 20
114.3561198281
 30
0.0
 40
13.6946441459
100
AcDbArc
 50
249.4245225978
 51
249.6289368265
  0
ARC
  5
39A
330
221
100
AcDbEntity
  8
7_ALL_FEATURES
  6
Continuous
 62
     7
100
AcDbCircle
 10
340.6445444832
 20
139.1794273487
 30
0.0
 40
13.6946441354
100
AcDbArc
 50
249.4245225977
 51
249.6289368266
  0
ARC
  5
39B
330
221
100
AcDbEntity
  8
7_ALL_FEATURES
  6
Continuous
 62
     7
100
AcDbCircle
 10
339.7676433016
 20
144.5731518108
 30
0.0
 40
13.4909028865
100
AcDbArc
 50
248.4330434332
 51
250.4042370958
  0
ARC
  5
39C
330
221
100
AcDbEntity
  8
7_ALL_FEATURES
  6
Continuous
 62
     7
100
AcDbCircle
 10
360.110734352
 20
145.8436207242
 30
0.0
 40
11.5747466096
100
AcDbArc
 50
309.5887949116
 51
310.5277178078
  0
ARC
  5
39D
330
221
100
AcDbEntity
  8
7_ALL_FEATURES
  6
Continuous
 62
     7
100
AcDbCircle
 10
360.3764313959
 20
145.5311708096
 30
0.0
 40
11.1646019312
100
AcDbArc
 50
310.5332643019
 51
310.803565019
  0
ARC
  5
39E
330
221
100
AcDbEntity
  8
7_ALL_FEATURES
  6
Continuous
 62
     7
100
AcDbCircle
 10
337.8483569889
 20
140.3444228546
 30
0.0
 40
8.8435400788
100
AcDbArc
 50
240.1565928999999
 51
242.6449018603
  0
ARC
  5
39F
330
221
100
AcDbEntity
  8
7_ALL_FEATURES
  6
Continuous
 62
     7
100
AcDbCircle
 10
363.122096931
 20
142.7522655698
 30
0.0
 40
7.2543306544
100
AcDbArc
 50
318.6098229219
 51
320.8952184282
  0
ARC
  5
3A0
330
221
100
AcDbEntity
  8
02___PRT_ALL_AXES
  6
Continuous
 62
     7
100
AcDbCircle
 10
368.1274891525
 20
84.7840863797
 30
0.0
 40
5.973733981
100
AcDbArc
 50
2.0102815736
 51
8.223699832300001
  0
ARC
  5
3A1
330
221
100
AcDbEntity
  8
7_ALL_FEATURES
  6
Continuous
 62
     7
100
AcDbCircle
 10
339.1829088357
 20
147.9865394751
 30
0.0
 40
5.4160072834
100
AcDbArc
 50
138.645701518
 51
140.6435078024
  0
ARC
  5
3A2
330
221
100
AcDbEntity
  8
7_ALL_FEATURES
  6
Continuous
 62
     7
100
AcDbCircle
 10
358.5106104989
 20
150.782309452
 30
0.0
 40
5.4133900034
100
AcDbArc
 50
55.7869981572
 51
57.8035374478
  0
ARC
  5
3A3
330
221
100
AcDbEntity
  8
7_ALL_FEATURES
  6
Continuous
 62
     7
100
AcDbCircle
 10
335.818512485
 20
137.3679056213
 30
0.0
 40
5.2339404795
100
AcDbArc
 50
227.9336149429
 51
229.4613468708
  0
ARC
  5
3A4
330
221
100
AcDbEntity
  8
7_ALL_FEATURES
  6
Continuous
 62
     7
100
AcDbCircle
 10
365.3236963179
 20
141.210552259
 30
0.0
 40
4.5617542291
100
AcDbArc
 50
330.328623534
 51
334.5301074152
  0
ARC
  5
3A5
330
221
100
AcDbEntity
  8
7_ALL_FEATURES
  6
Continuous
 62
     7
100
AcDbCircle
 10
334.4227719004
 20
136.1236026655
 30
0.0
 40
3.3582593152
100
AcDbArc
 50
209.9808180996
 51
215.1031858196
  0
ARC
  5
3A6
330
221
100
AcDbEntity
  8
02___PRT_ALL_AXES
  6
Continuous
 62
     7
100
AcDbCircle
 10
336.7498245986
 20
150.1136292793
 30
0.0
 40
3.2396959941
100
AcDbArc
 50
221.3143667659
 51
222.0095380065
  0
ARC
  5
3A7
330
221
100
AcDbEntity
  8
7_ALL_FEATURES
  6
Continuous
 62
     7
100
AcDbCircle
 10
366.706813439
 20
140.6873809235
 30
0.0
 40
3.0780266109
100
AcDbArc
 50
347.8836998834001
 51
351.3985101762
  0
ARC
  5
3A8
330
221
100
AcDbEntity
  8
7_ALL_FEATURES
  6
Continuous
 62
     7
100
AcDbCircle
 10
333.8216910716
 20
135.8450513904
 30
0.0
 40
2.6933777505
100
AcDbArc
 50
188.2462589744
 51
195.782712851
  0
ARC
  5
3A9
330
221
100
AcDbEntity
  8
7_ALL_FEATURES
  6
Continuous
 62
     9
100
AcDbCircle
 10
361.0912951924
 20
152.1274200153
 30
0.0
 40
2.5056268782
100
AcDbArc
 50
29.8958548781
 51
30.9789922595
  0
ARC
  5
3AA
330
221
100
AcDbEntity
  8
7_ALL_FEATURES
  6
Continuous
 62
     7
100
AcDbCircle
 10
361.3189530263
 20
152.0522614234
 30
0.0
 40
2.3142802617
100
AcDbArc
 50
33.8016625994
 51
35.8715221725
  0
SPLINE
  5
3AB
330
221
100
AcDbEntity
  8
02___PRT_ALL_AXES
  6
Continuous
 62
     7
100
AcDbSpline
210
0.0
220
0.0
230
1.0
 70
     8
 71
     3
 72
    13
 73
     9
 74
     0
 42
0.000000001
 43
0.0000001
 40
0.0
 40
0.0
 40
0.0
 40
0.0
 40
0.2578105924
 40
0.5107112855
 40
0.6351316947
 40
0.7578624331
 40
0.8792895076
 40
1.0
 40
1.0
 40
1.0
 40
1.0
 10
80.08678211863219
 20
188.3323426384671
 30
0.0
 10
80.08678211863219
 20
188.2026095471338
 30
0.0
 10
80.13380461109887
 20
187.9432049912672
 30
0.0
 10
80.30572547549886
 20
187.6640928862005
 30
0.0
 10
80.49521617629885
 20
187.4963102810671
 30
0.0
 10
80.65699889583219
 20
187.4028940922672
 30
0.0
 10
80.83268864896553
 20
187.3453329418671
 30
0.0
 10
80.95492345056553
 20
187.3323599002671
 30
0.0
 10
81.01566628189886
 20
187.3323599002671
 30
0.0
  0
SPLINE
  5
3AC
330
221
100
AcDbEntity
  8
02___PRT_ALL_AXES
  6
Continuous
 62
     7
100
AcDbSpline
210
0.0
220
0.0
230
1.0
 70
     8
 71
     3
 72
    13
 73
     9
 74
     0
 42
0.000000001
 43
0.0000001
 40
0.0
 40
0.0
 40
0.0
 40
0.0
 40
0.1207104924
 40
0.2421375669
 40
0.3648683053
 40
0.4892887145
 40
0.7421894076
 40
1.0
 40
1.0
 40
1.0
 40
1.0
 10
81.01566628189886
 20
189.3323253766671
 30
0.0
 10
80.95492345056553
 20
189.3323253766671
 30
0.0
 10
80.83268864896553
 20
189.3193523350672
 30
0.0
 10
80.65699889583219
 20
189.2617911846671
 30
0.0
 10
80.49521617629885
 20
189.1683749958005
 30
0.0
 10
80.30572547549886
 20
189.0005923907338
 30
0.0
 10
80.13380461109887
 20
188.7214802856005
 30
0.0
 10
80.08678211863219
 20
188.4620757298005
 30
0.0
 10
80.08678211863219
 20
188.3323426384671
 30
0.0
  0
SPLINE
  5
3AD
330
221
100
AcDbEntity
  8
02___PRT_ALL_AXES
  6
Continuous
 62
     7
100
AcDbSpline
210
0.0
220
0.0
230
1.0
 70
     8
 71
     3
 72
    13
 73
     9
 74
     0
 42
0.000000001
 43
0.0000001
 40
0.0
 40
0.0
 40
0.0
 40
0.0
 40
0.2578105924
 40
0.5107112855
 40
0.6351316947
 40
0.7578624331
 40
0.8792895076
 40
1.0
 40
1.0
 40
1.0
 40
1.0
 10
80.08678211863219
 20
206.3323426384671
 30
0.0
 10
80.08678211863219
 20
206.2026095471338
 30
0.0
 10
80.13380461109887
 20
205.9432049912672
 30
0.0
 10
80.30572547549886
 20
205.6640928862005
 30
0.0
 10
80.49521617629885
 20
205.4963102810671
 30
0.0
 10
80.65699889583219
 20
205.4028940922672
 30
0.0
 10
80.83268864896553
 20
205.3453329418671
 30
0.0
 10
80.95492345056553
 20
205.3323599002671
 30
0.0
 10
81.01566628189886
 20
205.3323599002671
 30
0.0
  0
SPLINE
  5
3AE
330
221
100
AcDbEntity
  8
02___PRT_ALL_AXES
  6
Continuous
 62
     7
100
AcDbSpline
210
0.0
220
0.0
230
1.0
 70
     8
 71
     3
 72
    13
 73
     9
 74
     0
 42
0.000000001
 43
0.0000001
 40
0.0
 40
0.0
 40
0.0
 40
0.0
 40
0.1207104924
 40
0.2421375669
 40
0.3648683053
 40
0.4892887145
 40
0.7421894076
 40
1.0
 40
1.0
 40
1.0
 40
1.0
 10
81.01566628189886
 20
207.3323253766671
 30
0.0
 10
80.95492345056553
 20
207.3323253766671
 30
0.0
 10
80.83268864896553
 20
207.3193523350672
 30
0.0
 10
80.65699889583219
 20
207.2617911846671
 30
0.0
 10
80.49521617629885
 20
207.1683749958005
 30
0.0
 10
80.30572547549886
 20
207.0005923907338
 30
0.0
 10
80.13380461109887
 20
206.7214802856005
 30
0.0
 10
80.08678211863219
 20
206.4620757298005
 30
0.0
 10
80.08678211863219
 20
206.3323426384671
 30
0.0
  0
SPLINE
  5
3AF
330
221
100
AcDbEntity
  8
02___PRT_ALL_AXES
  6
Continuous
 62
     7
100
AcDbSpline
210
0.0
220
0.0
230
1.0
 70
     8
 71
     3
 72
    11
 73
     7
 74
     0
 42
0.000000001
 43
0.0000001
 40
0.0
 40
0.0
 40
0.0
 40
0.0
 40
0.2528641712
 40
0.5038317346
 40
0.7528115376
 40
1.0
 40
1.0
 40
1.0
 40
1.0
 10
93.99479889596552
 20
174.0823426384671
 30
0.0
 10
94.19904519289886
 20
173.9644209839338
 30
0.0
 10
94.61287245643219
 20
173.7410101062005
 30
0.0
 10
95.25378398089886
 20
173.4524211040005
 30
0.0
 10
95.91314291316553
 20
173.2237317106005
 30
0.0
 10
96.36539959496552
 20
173.1198663665338
 30
0.0
 10
96.59287510729885
 20
173.0823426384671
 30
0.0
  0
SPLINE
  5
3B0
330
221
100
AcDbEntity
  8
02___PRT_ALL_AXES
  6
Continuous
 62
     7
100
AcDbSpline
210
0.0
220
0.0
230
1.0
 70
     8
 71
     3
 72
    11
 73
     7
 74
     0
 42
0.000000001
 43
0.0000001
 40
0.0
 40
0.0
 40
0.0
 40
0.0
 40
0.2528641712
 40
0.5038317346
 40
0.7528115376
 40
1.0
 40
1.0
 40
1.0
 40
1.0
 10
87.06659566563219
 20
174.0823426384671
 30
0.0
 10
87.27084196256553
 20
173.9644209839338
 30
0.0
 10
87.68466922616552
 20
173.7410101062005
 30
0.0
 10
88.32558075063218
 20
173.4524211040005
 30
0.0
 10
88.98493968289885
 20
173.2237317106005
 30
0.0
 10
89.43719636469885
 20
173.1198663665338
 30
0.0
 10
89.66467187703219
 20
173.0823426384671
 30
0.0
  0
SPLINE
  5
3B1
330
221
100
AcDbEntity
  8
02___PRT_ALL_AXES
  6
Continuous
 62
     7
100
AcDbSpline
210
0.0
220
0.0
230
1.0
 70
     8
 71
     3
 72
    11
 73
     7
 74
     0
 42
0.000000001
 43
0.0000001
 40
0.0
 40
0.0
 40
0.0
 40
0.0
 40
0.2471884812
 40
0.4961682871
 40
0.7471358372
 40
1.0
 40
1.0
 40
1.0
 40
1.0
 10
91.39672268456553
 20
173.0823426384671
 30
0.0
 10
91.62419821416552
 20
173.1198663694005
 30
0.0
 10
92.0764549154322
 20
173.2237317197338
 30
0.0
 10
92.73581385249886
 20
173.4524211230672
 30
0.0
 10
93.37672535896553
 20
173.7410101218005
 30
0.0
 10
93.79055260576553
 20
173.9644209878671
 30
0.0
 10
93.99479889596552
 20
174.0823426384671
 30
0.0
  0
SPLINE
  5
3B2
330
221
100
AcDbEntity
  8
02___PRT_ALL_AXES
  6
Continuous
 62
     7
100
AcDbSpline
210
0.0
220
0.0
230
1.0
 70
     8
 71
     3
 72
    19
 73
    15
 74
     0
 42
0.000000001
 43
0.0000001
 40
0.0
 40
0.0
 40
0.0
 40
0.0
 40
0.067939647
 40
0.1343369129
 40
0.1986396402
 40
0.2610648807
 40
0.3817414899
 40
0.5000607139
 40
0.6183763092
 40
0.739024176
 40
0.8014382043
 40
0.865725454
 40
0.9320917545
 40
1.0
 40
1.0
 40
1.0
 40
1.0
 10
89.66467187703219
 20
172.5823426384671
 30
0.0
 10
89.66467187703219
 20
172.5264569879338
 30
0.0
 10
89.68105871383219
 20
172.4153120230671
 30
0.0
 10
89.74923349416552
 20
172.2648521358672
 30
0.0
 10
89.84864652896553
 20
172.1391653722005
 30
0.0
 10
90.00609041056552
 20
172.0084235386672
 30
0.0
 10
90.23608162523219
 20
171.9037832337338
 30
0.0
 10
90.53084684616553
 20
171.8638047493338
 30
0.0
 10
90.82557556983218
 20
171.9038691740672
 30
0.0
 10
91.05550638269885
 20
172.0085485772005
 30
0.0
 10
91.21288547189886
 20
172.1392984652671
 30
0.0
 10
91.31222839783219
 20
172.2649794559338
 30
0.0
 10
91.3803494060322
 20
172.4153898473338
 30
0.0
 10
91.39672268456553
 20
172.5264828181338
 30
0.0
 10
91.39672268456553
 20
172.5823426384671
 30
0.0
  0
SPLINE
  5
3B3
330
221
100
AcDbEntity
  8
02___PRT_ALL_AXES
  6
Continuous
 62
     7
100
AcDbSpline
210
0.0
220
0.0
230
1.0
 70
     8
 71
     3
 72
    11
 73
     7
 74
     0
 42
0.000000001
 43
0.0000001
 40
0.0
 40
0.0
 40
0.0
 40
0.0
 40
0.2471884812
 40
0.4961682871
 40
0.7471358372
 40
1.0
 40
1.0
 40
1.0
 40
1.0
 10
98.32492591483219
 20
173.0823426384671
 30
0.0
 10
98.55240144443219
 20
173.1198663694005
 30
0.0
 10
99.00465814569885
 20
173.2237317197338
 30
0.0
 10
99.66401708276553
 20
173.4524211230672
 30
0.0
 10
100.3049285892322
 20
173.7410101218005
 30
0.0
 10
100.7187558360989
 20
173.9644209878671
 30
0.0
 10
100.9230021262322
 20
174.0823426384671
 30
0.0
  0
SPLINE
  5
3B4
330
221
100
AcDbEntity
  8
02___PRT_ALL_AXES
  6
Continuous
 62
     7
100
AcDbSpline
210
0.0
220
0.0
230
1.0
 70
     8
 71
     3
 72
    19
 73
    15
 74
     0
 42
0.000000001
 43
0.0000001
 40
0.0
 40
0.0
 40
0.0
 40
0.0
 40
0.0679313718
 40
0.134330414
 40
0.1986328954
 40
0.2610542132
 40
0.3817238737
 40
0.5000536105
 40
0.6183773004
 40
0.7390372629
 40
0.8014553941
 40
0.8657396837
 40
0.9320963707
 40
1.0
 40
1.0
 40
1.0
 40
1.0
 10
96.59287510729885
 20
172.5823426384671
 30
0.0
 10
96.59287510729885
 20
172.5264637869338
 30
0.0
 10
96.60926084803219
 20
172.4153247750005
 30
0.0
 10
96.6774261496322
 20
172.2648666988005
 30
0.0
 10
96.77683571229886
 20
172.1391792122005
 30
0.0
 10
96.93427003983219
 20
172.0084408621338
 30
0.0
 10
97.16425470596552
 20
171.9037877164671
 30
0.0
 10
97.45903037596553
 20
171.8638040094671
 30
0.0
 10
97.75378472289886
 20
171.9038678241338
 30
0.0
 10
97.98373431516552
 20
172.0085586066672
 30
0.0
 10
98.14111531976552
 20
172.1393242171338
 30
0.0
 10
98.24044405263218
 20
172.2650071074671
 30
0.0
 10
98.30855624143219
 20
172.4154050945338
 30
0.0
 10
98.32492591483219
 20
172.5264866073338
 30
0.0
 10
98.32492591483219
 20
172.5823426384671
 30
0.0
  0
SPLINE
  5
3B5
330
221
100
AcDbEntity
  8
02___PRT_ALL_AXES
  6
Continuous
 62
     7
100
AcDbSpline
210
0.0
220
0.0
230
1.0
 70
     8
 71
     3
 72
    17
 73
    13
 74
     0
 42
0.000000001
 43
0.0000001
 40
0.0
 40
0.0
 40
0.0
 40
0.0
 40
0.1722171181
 40
0.3389583269
 40
0.4944789344
 40
0.634267601
 40
0.7546954941
 40
0.8539308511
 40
0.8959220497
 40
0.9334950989
 40
0.9676785033
 40
1.0
 40
1.0
 40
1.0
 40
1.0
 10
186.0961376777655
 20
188.3323426384671
 30
0.0
 10
186.0961376777655
 20
188.3973815800671
 30
0.0
 10
186.1007522886322
 20
188.5254404912005
 30
0.0
 10
186.1212292916322
 20
188.7112390052005
 30
0.0
 10
186.1545111877655
 20
188.8827518152005
 30
0.0
 10
186.1992390251655
 20
189.0336034662005
 30
0.0
 10
186.2536961000322
 20
189.1583313444671
 30
0.0
 10
186.3085465579655
 20
189.2416566159338
 30
0.0
 10
186.3568668008988
 20
189.2891903034005
 30
0.0
 10
186.3924120458322
 20
189.3137859820005
 30
0.0
 10
186.4290730042322
 20
189.3288978526005
 30
0.0
 10
186.4543016196322
 20
189.3323253766671
 30
0.0
 10
186.4665080481655
 20
189.3323253766671
 30
0.0
  0
SPLINE
  5
3B6
330
221
100
AcDbEntity
  8
02___PRT_ALL_AXES
  6
Continuous
 62
     7
100
AcDbSpline
210
0.0
220
0.0
230
1.0
 70
     8
 71
     3
 72
    17
 73
    13
 74
     0
 42
0.000000001
 43
0.0000001
 40
0.0
 40
0.0
 40
0.0
 40
0.0
 40
0.1722171181
 40
0.3389583269
 40
0.4944789344
 40
0.634267601
 40
0.7546954941
 40
0.8539308511
 40
0.8959220497
 40
0.9334950989
 40
0.9676785033
 40
1.0
 40
1.0
 40
1.0
 40
1.0
 10
177.5776191592322
 20
188.3323426384671
 30
0.0
 10
177.5776191592322
 20
188.3973815800671
 30
0.0
 10
177.5730045484322
 20
188.5254404912005
 30
0.0
 10
177.5525275454322
 20
188.7112390052005
 30
0.0
 10
177.5192456492322
 20
188.8827518152005
 30
0.0
 10
177.4745178118322
 20
189.0336034662005
 30
0.0
 10
177.4200607370322
 20
189.1583313444671
 30
0.0
 10
177.3652102790988
 20
189.2416566159338
 30
0.0
 10
177.3168900360988
 20
189.2891903034005
 30
0.0
 10
177.2813447911655
 20
189.3137859820005
 30
0.0
 10
177.2446838327655
 20
189.3288978526005
 30
0.0
 10
177.2194552173655
 20
189.3323253766671
 30
0.0
 10
177.2072487888989
 20
189.3323253766671
 30
0.0
  0
SPLINE
  5
3B7
330
221
100
AcDbEntity
  8
02___PRT_ALL_AXES
  6
Continuous
 62
     7
100
AcDbSpline
210
0.0
220
0.0
230
1.0
 70
     8
 71
     3
 72
    17
 73
    13
 74
     0
 42
0.000000001
 43
0.0000001
 40
0.0
 40
0.0
 40
0.0
 40
0.0
 40
0.0323214967
 40
0.0665049011
 40
0.1040779503
 40
0.1460691489
 40
0.2453045059
 40
0.365732399
 40
0.5055210656
 40
0.6610416731
 40
0.8277828819
 40
1.0
 40
1.0
 40
1.0
 40
1.0
 10
186.4665080481655
 20
187.3323599002671
 30
0.0
 10
186.4543016196322
 20
187.3323599002671
 30
0.0
 10
186.4290730042322
 20
187.3357874243338
 30
0.0
 10
186.3924120458322
 20
187.3508992949338
 30
0.0
 10
186.3568668008988
 20
187.3754949735338
 30
0.0
 10
186.3085465579655
 20
187.4230286610005
 30
0.0
 10
186.2536961000322
 20
187.5063539324672
 30
0.0
 10
186.1992390251655
 20
187.6310818107338
 30
0.0
 10
186.1545111877655
 20
187.7819334616671
 30
0.0
 10
186.1212292916322
 20
187.9534462717338
 30
0.0
 10
186.1007522886322
 20
188.1392447856671
 30
0.0
 10
186.0961376777655
 20
188.2673036968005
 30
0.0
 10
186.0961376777655
 20
188.3323426384671
 30
0.0
  0
SPLINE
  5
3B8
330
221
100
AcDbEntity
  8
02___PRT_ALL_AXES
  6
Continuous
 62
     7
100
AcDbSpline
210
0.0
220
0.0
230
1.0
 70
     8
 71
     3
 72
    17
 73
    13
 74
     0
 42
0.000000001
 43
0.0000001
 40
0.0
 40
0.0
 40
0.0
 40
0.0
 40
0.0323214967
 40
0.0665049011
 40
0.1040779503
 40
0.1460691489
 40
0.2453045059
 40
0.365732399
 40
0.5055210656
 40
0.6610416731
 40
0.8277828819
 40
1.0
 40
1.0
 40
1.0
 40
1.0
 10
177.2072487888989
 20
187.3323599002671
 30
0.0
 10
177.2194552173655
 20
187.3323599002671
 30
0.0
 10
177.2446838327655
 20
187.3357874243338
 30
0.0
 10
177.2813447911655
 20
187.3508992949338
 30
0.0
 10
177.3168900360988
 20
187.3754949735338
 30
0.0
 10
177.3652102790988
 20
187.4230286610005
 30
0.0
 10
177.4200607370322
 20
187.5063539324672
 30
0.0
 10
177.4745178118322
 20
187.6310818107338
 30
0.0
 10
177.5192456492322
 20
187.7819334616671
 30
0.0
 10
177.5525275454322
 20
187.9534462717338
 30
0.0
 10
177.5730045484322
 20
188.1392447856671
 30
0.0
 10
177.5776191592322
 20
188.2673036968005
 30
0.0
 10
177.5776191592322
 20
188.3323426384671
 30
0.0
  0
SPLINE
  5
3B9
330
221
100
AcDbEntity
  8
02___PRT_ALL_AXES
  6
Continuous
 62
     7
100
AcDbSpline
210
0.0
220
0.0
230
1.0
 70
     8
 71
     3
 72
    17
 73
    13
 74
     0
 42
0.000000001
 43
0.0000001
 40
0.0
 40
0.0
 40
0.0
 40
0.0
 40
0.1722171181
 40
0.3389583269
 40
0.4944789344
 40
0.634267601
 40
0.7546954941
 40
0.8539308511
 40
0.8959220497
 40
0.9334950989
 40
0.9676785033
 40
1.0
 40
1.0
 40
1.0
 40
1.0
 10
186.8368784184989
 20
188.3323426384671
 30
0.0
 10
186.8368784184989
 20
188.2673036968005
 30
0.0
 10
186.8322638076989
 20
188.1392447856671
 30
0.0
 10
186.8117868046989
 20
187.9534462717338
 30
0.0
 10
186.7785049084989
 20
187.7819334616671
 30
0.0
 10
186.7337770710988
 20
187.6310818107338
 30
0.0
 10
186.6793199962989
 20
187.5063539324672
 30
0.0
 10
186.6244695382989
 20
187.4230286610005
 30
0.0
 10
186.5761492953655
 20
187.3754949735338
 30
0.0
 10
186.5406040504322
 20
187.3508992949338
 30
0.0
 10
186.5039430920322
 20
187.3357874243338
 30
0.0
 10
186.4787144766322
 20
187.3323599002671
 30
0.0
 10
186.4665080481655
 20
187.3323599002671
 30
0.0
  0
SPLINE
  5
3BA
330
221
100
AcDbEntity
  8
02___PRT_ALL_AXES
  6
Continuous
 62
     7
100
AcDbSpline
210
0.0
220
0.0
230
1.0
 70
     8
 71
     3
 72
    17
 73
    13
 74
     0
 42
0.000000001
 43
0.0000001
 40
0.0
 40
0.0
 40
0.0
 40
0.0
 40
0.0323214967
 40
0.0665049011
 40
0.1040779503
 40
0.1460691489
 40
0.2453045059
 40
0.365732399
 40
0.5055210656
 40
0.6610416731
 40
0.8277828819
 40
1.0
 40
1.0
 40
1.0
 40
1.0
 10
186.4665080481655
 20
189.3323253766671
 30
0.0
 10
186.4787144766322
 20
189.3323253766671
 30
0.0
 10
186.5039430920322
 20
189.3288978526005
 30
0.0
 10
186.5406040504322
 20
189.3137859820005
 30
0.0
 10
186.5761492953655
 20
189.2891903034005
 30
0.0
 10
186.6244695382989
 20
189.2416566159338
 30
0.0
 10
186.6793199962989
 20
189.1583313444671
 30
0.0
 10
186.7337770710988
 20
189.0336034662005
 30
0.0
 10
186.7785049084989
 20
188.8827518152005
 30
0.0
 10
186.8117868046989
 20
188.7112390052005
 30
0.0
 10
186.8322638076989
 20
188.5254404912005
 30
0.0
 10
186.8368784184989
 20
188.3973815800671
 30
0.0
 10
186.8368784184989
 20
188.3323426384671
 30
0.0
  0
SPLINE
  5
3BB
330
221
100
AcDbEntity
  8
02___PRT_ALL_AXES
  6
Continuous
 62
     7
100
AcDbSpline
210
0.0
220
0.0
230
1.0
 70
     8
 71
     3
 72
    17
 73
    13
 74
     0
 42
0.000000001
 43
0.0000001
 40
0.0
 40
0.0
 40
0.0
 40
0.0
 40
0.1722171181
 40
0.3389583269
 40
0.4944789344
 40
0.634267601
 40
0.7546954941
 40
0.8539308511
 40
0.8959220497
 40
0.9334950989
 40
0.9676785033
 40
1.0
 40
1.0
 40
1.0
 40
1.0
 10
176.8368784184989
 20
188.3323426384671
 30
0.0
 10
176.8368784184989
 20
188.2673036968005
 30
0.0
 10
176.8414930293655
 20
188.1392447856671
 30
0.0
 10
176.8619700323655
 20
187.9534462717338
 30
0.0
 10
176.8952519284989
 20
187.7819334616671
 30
0.0
 10
176.9399797659655
 20
187.6310818107338
 30
0.0
 10
176.9944368407655
 20
187.5063539324672
 30
0.0
 10
177.0492872986989
 20
187.4230286610005
 30
0.0
 10
177.0976075416322
 20
187.3754949735338
 30
0.0
 10
177.1331527865655
 20
187.3508992949338
 30
0.0
 10
177.1698137449655
 20
187.3357874243338
 30
0.0
 10
177.1950423604322
 20
187.3323599002671
 30
0.0
 10
177.2072487888989
 20
187.3323599002671
 30
0.0
  0
SPLINE
  5
3BC
330
221
100
AcDbEntity
  8
02___PRT_ALL_AXES
  6
Continuous
 62
     7
100
AcDbSpline
210
0.0
220
0.0
230
1.0
 70
     8
 71
     3
 72
    17
 73
    13
 74
     0
 42
0.000000001
 43
0.0000001
 40
0.0
 40
0.0
 40
0.0
 40
0.0
 40
0.0323214967
 40
0.0665049011
 40
0.1040779503
 40
0.1460691489
 40
0.2453045059
 40
0.365732399
 40
0.5055210656
 40
0.6610416731
 40
0.8277828819
 40
1.0
 40
1.0
 40
1.0
 40
1.0
 10
177.2072487888989
 20
189.3323253766671
 30
0.0
 10
177.1950423604322
 20
189.3323253766671
 30
0.0
 10
177.1698137449655
 20
189.3288978526005
 30
0.0
 10
177.1331527865655
 20
189.3137859820005
 30
0.0
 10
177.0976075416322
 20
189.2891903034005
 30
0.0
 10
177.0492872986989
 20
189.2416566159338
 30
0.0
 10
176.9944368407655
 20
189.1583313444671
 30
0.0
 10
176.9399797659655
 20
189.0336034662005
 30
0.0
 10
176.8952519284989
 20
188.8827518152005
 30
0.0
 10
176.8619700323655
 20
188.7112390052005
 30
0.0
 10
176.8414930293655
 20
188.5254404912005
 30
0.0
 10
176.8368784184989
 20
188.3973815800671
 30
0.0
 10
176.8368784184989
 20
188.3323426384671
 30
0.0
  0
SPLINE
  5
3BD
330
221
100
AcDbEntity
  8
02___PRT_ALL_AXES
  6
Continuous
 62
     7
100
AcDbSpline
210
0.0
220
0.0
230
1.0
 70
     8
 71
     3
 72
    17
 73
    13
 74
     0
 42
0.000000001
 43
0.0000001
 40
0.0
 40
0.0
 40
0.0
 40
0.0
 40
0.1722171181
 40
0.3389583269
 40
0.4944789344
 40
0.634267601
 40
0.7546954941
 40
0.8539308511
 40
0.8959220497
 40
0.9334950989
 40
0.9676785033
 40
1.0
 40
1.0
 40
1.0
 40
1.0
 10
186.0961376777655
 20
206.3323426384671
 30
0.0
 10
186.0961376777655
 20
206.3973815800671
 30
0.0
 10
186.1007522886322
 20
206.5254404912005
 30
0.0
 10
186.1212292916322
 20
206.7112390052005
 30
0.0
 10
186.1545111877655
 20
206.8827518152005
 30
0.0
 10
186.1992390251655
 20
207.0336034662005
 30
0.0
 10
186.2536961000322
 20
207.1583313444671
 30
0.0
 10
186.3085465579655
 20
207.2416566159338
 30
0.0
 10
186.3568668008988
 20
207.2891903034005
 30
0.0
 10
186.3924120458322
 20
207.3137859820005
 30
0.0
 10
186.4290730042322
 20
207.3288978526005
 30
0.0
 10
186.4543016196322
 20
207.3323253766671
 30
0.0
 10
186.4665080481655
 20
207.3323253766671
 30
0.0
  0
SPLINE
  5
3BE
330
221
100
AcDbEntity
  8
02___PRT_ALL_AXES
  6
Continuous
 62
     7
100
AcDbSpline
210
0.0
220
0.0
230
1.0
 70
     8
 71
     3
 72
    17
 73
    13
 74
     0
 42
0.000000001
 43
0.0000001
 40
0.0
 40
0.0
 40
0.0
 40
0.0
 40
0.1722171181
 40
0.3389583269
 40
0.4944789344
 40
0.634267601
 40
0.7546954941
 40
0.8539308511
 40
0.8959220497
 40
0.9334950989
 40
0.9676785033
 40
1.0
 40
1.0
 40
1.0
 40
1.0
 10
177.5776191592322
 20
206.3323426384671
 30
0.0
 10
177.5776191592322
 20
206.3973815800671
 30
0.0
 10
177.5730045484322
 20
206.5254404912005
 30
0.0
 10
177.5525275454322
 20
206.7112390052005
 30
0.0
 10
177.5192456492322
 20
206.8827518152005
 30
0.0
 10
177.4745178118322
 20
207.0336034662005
 30
0.0
 10
177.4200607370322
 20
207.1583313444671
 30
0.0
 10
177.3652102790988
 20
207.2416566159338
 30
0.0
 10
177.3168900360988
 20
207.2891903034005
 30
0.0
 10
177.2813447911655
 20
207.3137859820005
 30
0.0
 10
177.2446838327655
 20
207.3288978526005
 30
0.0
 10
177.2194552173655
 20
207.3323253766671
 30
0.0
 10
177.2072487888989
 20
207.3323253766671
 30
0.0
  0
SPLINE
  5
3BF
330
221
100
AcDbEntity
  8
02___PRT_ALL_AXES
  6
Continuous
 62
     7
100
AcDbSpline
210
0.0
220
0.0
230
1.0
 70
     8
 71
     3
 72
    17
 73
    13
 74
     0
 42
0.000000001
 43
0.0000001
 40
0.0
 40
0.0
 40
0.0
 40
0.0
 40
0.0323214967
 40
0.0665049011
 40
0.1040779503
 40
0.1460691489
 40
0.2453045059
 40
0.365732399
 40
0.5055210656
 40
0.6610416731
 40
0.8277828819
 40
1.0
 40
1.0
 40
1.0
 40
1.0
 10
186.4665080481655
 20
205.3323599002671
 30
0.0
 10
186.4543016196322
 20
205.3323599002671
 30
0.0
 10
186.4290730042322
 20
205.3357874243338
 30
0.0
 10
186.3924120458322
 20
205.3508992949338
 30
0.0
 10
186.3568668008988
 20
205.3754949735338
 30
0.0
 10
186.3085465579655
 20
205.4230286610005
 30
0.0
 10
186.2536961000322
 20
205.5063539324672
 30
0.0
 10
186.1992390251655
 20
205.6310818107338
 30
0.0
 10
186.1545111877655
 20
205.7819334616671
 30
0.0
 10
186.1212292916322
 20
205.9534462717338
 30
0.0
 10
186.1007522886322
 20
206.1392447856671
 30
0.0
 10
186.0961376777655
 20
206.2673036968005
 30
0.0
 10
186.0961376777655
 20
206.3323426384671
 30
0.0
  0
SPLINE
  5
3C0
330
221
100
AcDbEntity
  8
02___PRT_ALL_AXES
  6
Continuous
 62
     7
100
AcDbSpline
210
0.0
220
0.0
230
1.0
 70
     8
 71
     3
 72
    17
 73
    13
 74
     0
 42
0.000000001
 43
0.0000001
 40
0.0
 40
0.0
 40
0.0
 40
0.0
 40
0.0323214967
 40
0.0665049011
 40
0.1040779503
 40
0.1460691489
 40
0.2453045059
 40
0.365732399
 40
0.5055210656
 40
0.6610416731
 40
0.8277828819
 40
1.0
 40
1.0
 40
1.0
 40
1.0
 10
177.2072487888989
 20
205.3323599002671
 30
0.0
 10
177.2194552173655
 20
205.3323599002671
 30
0.0
 10
177.2446838327655
 20
205.3357874243338
 30
0.0
 10
177.2813447911655
 20
205.3508992949338
 30
0.0
 10
177.3168900360988
 20
205.3754949735338
 30
0.0
 10
177.3652102790988
 20
205.4230286610005
 30
0.0
 10
177.4200607370322
 20
205.5063539324672
 30
0.0
 10
177.4745178118322
 20
205.6310818107338
 30
0.0
 10
177.5192456492322
 20
205.7819334616671
 30
0.0
 10
177.5525275454322
 20
205.9534462717338
 30
0.0
 10
177.5730045484322
 20
206.1392447856671
 30
0.0
 10
177.5776191592322
 20
206.2673036968005
 30
0.0
 10
177.5776191592322
 20
206.3323426384671
 30
0.0
  0
SPLINE
  5
3C1
330
221
100
AcDbEntity
  8
02___PRT_ALL_AXES
  6
Continuous
 62
     7
100
AcDbSpline
210
0.0
220
0.0
230
1.0
 70
     8
 71
     3
 72
    17
 73
    13
 74
     0
 42
0.000000001
 43
0.0000001
 40
0.0
 40
0.0
 40
0.0
 40
0.0
 40
0.1722171181
 40
0.3389583269
 40
0.4944789344
 40
0.634267601
 40
0.7546954941
 40
0.8539308511
 40
0.8959220497
 40
0.9334950989
 40
0.9676785033
 40
1.0
 40
1.0
 40
1.0
 40
1.0
 10
186.8368784184989
 20
206.3323426384671
 30
0.0
 10
186.8368784184989
 20
206.2673036968005
 30
0.0
 10
186.8322638076989
 20
206.1392447856671
 30
0.0
 10
186.8117868046989
 20
205.9534462717338
 30
0.0
 10
186.7785049084989
 20
205.7819334616671
 30
0.0
 10
186.7337770710988
 20
205.6310818107338
 30
0.0
 10
186.6793199962989
 20
205.5063539324672
 30
0.0
 10
186.6244695382989
 20
205.4230286610005
 30
0.0
 10
186.5761492953655
 20
205.3754949735338
 30
0.0
 10
186.5406040504322
 20
205.3508992949338
 30
0.0
 10
186.5039430920322
 20
205.3357874243338
 30
0.0
 10
186.4787144766322
 20
205.3323599002671
 30
0.0
 10
186.4665080481655
 20
205.3323599002671
 30
0.0
  0
SPLINE
  5
3C2
330
221
100
AcDbEntity
  8
02___PRT_ALL_AXES
  6
Continuous
 62
     7
100
AcDbSpline
210
0.0
220
0.0
230
1.0
 70
     8
 71
     3
 72
    17
 73
    13
 74
     0
 42
0.000000001
 43
0.0000001
 40
0.0
 40
0.0
 40
0.0
 40
0.0
 40
0.0323214967
 40
0.0665049011
 40
0.1040779503
 40
0.1460691489
 40
0.2453045059
 40
0.365732399
 40
0.5055210656
 40
0.6610416731
 40
0.8277828819
 40
1.0
 40
1.0
 40
1.0
 40
1.0
 10
186.4665080481655
 20
207.3323253766671
 30
0.0
 10
186.4787144766322
 20
207.3323253766671
 30
0.0
 10
186.5039430920322
 20
207.3288978526005
 30
0.0
 10
186.5406040504322
 20
207.3137859820005
 30
0.0
 10
186.5761492953655
 20
207.2891903034005
 30
0.0
 10
186.6244695382989
 20
207.2416566159338
 30
0.0
 10
186.6793199962989
 20
207.1583313444671
 30
0.0
 10
186.7337770710988
 20
207.0336034662005
 30
0.0
 10
186.7785049084989
 20
206.8827518152005
 30
0.0
 10
186.8117868046989
 20
206.7112390052005
 30
0.0
 10
186.8322638076989
 20
206.5254404912005
 30
0.0
 10
186.8368784184989
 20
206.3973815800671
 30
0.0
 10
186.8368784184989
 20
206.3323426384671
 30
0.0
  0
SPLINE
  5
3C3
330
221
100
AcDbEntity
  8
02___PRT_ALL_AXES
  6
Continuous
 62
     7
100
AcDbSpline
210
0.0
220
0.0
230
1.0
 70
     8
 71
     3
 72
    17
 73
    13
 74
     0
 42
0.000000001
 43
0.0000001
 40
0.0
 40
0.0
 40
0.0
 40
0.0
 40
0.1722171181
 40
0.3389583269
 40
0.4944789344
 40
0.634267601
 40
0.7546954941
 40
0.8539308511
 40
0.8959220497
 40
0.9334950989
 40
0.9676785033
 40
1.0
 40
1.0
 40
1.0
 40
1.0
 10
176.8368784184989
 20
206.3323426384671
 30
0.0
 10
176.8368784184989
 20
206.2673036968005
 30
0.0
 10
176.8414930293655
 20
206.1392447856671
 30
0.0
 10
176.8619700323655
 20
205.9534462717338
 30
0.0
 10
176.8952519284989
 20
205.7819334616671
 30
0.0
 10
176.9399797659655
 20
205.6310818107338
 30
0.0
 10
176.9944368407655
 20
205.5063539324672
 30
0.0
 10
177.0492872986989
 20
205.4230286610005
 30
0.0
 10
177.0976075416322
 20
205.3754949735338
 30
0.0
 10
177.1331527865655
 20
205.3508992949338
 30
0.0
 10
177.1698137449655
 20
205.3357874243338
 30
0.0
 10
177.1950423604322
 20
205.3323599002671
 30
0.0
 10
177.2072487888989
 20
205.3323599002671
 30
0.0
  0
SPLINE
  5
3C4
330
221
100
AcDbEntity
  8
02___PRT_ALL_AXES
  6
Continuous
 62
     7
100
AcDbSpline
210
0.0
220
0.0
230
1.0
 70
     8
 71
     3
 72
    17
 73
    13
 74
     0
 42
0.000000001
 43
0.0000001
 40
0.0
 40
0.0
 40
0.0
 40
0.0
 40
0.0323214967
 40
0.0665049011
 40
0.1040779503
 40
0.1460691489
 40
0.2453045059
 40
0.365732399
 40
0.5055210656
 40
0.6610416731
 40
0.8277828819
 40
1.0
 40
1.0
 40
1.0
 40
1.0
 10
177.2072487888989
 20
207.3323253766671
 30
0.0
 10
177.1950423604322
 20
207.3323253766671
 30
0.0
 10
177.1698137449655
 20
207.3288978526005
 30
0.0
 10
177.1331527865655
 20
207.3137859820005
 30
0.0
 10
177.0976075416322
 20
207.2891903034005
 30
0.0
 10
177.0492872986989
 20
207.2416566159338
 30
0.0
 10
176.9944368407655
 20
207.1583313444671
 30
0.0
 10
176.9399797659655
 20
207.0336034662005
 30
0.0
 10
176.8952519284989
 20
206.8827518152005
 30
0.0
 10
176.8619700323655
 20
206.7112390052005
 30
0.0
 10
176.8414930293655
 20
206.5254404912005
 30
0.0
 10
176.8368784184989
 20
206.3973815800671
 30
0.0
 10
176.8368784184989
 20
206.3323426384671
 30
0.0
  0
SPLINE
  5
3C5
330
221
100
AcDbEntity
  8
02___PRT_ALL_AXES
  6
Continuous
 62
     7
100
AcDbSpline
210
0.0
220
0.0
230
1.0
 70
     8
 71
     3
 72
    20
 73
    16
 74
     0
 42
0.000000001
 43
0.0000001
 40
0.0
 40
0.0
 40
0.0
 40
0.0
 40
0.1682137895
 40
0.2403238102
 40
0.303496996
 40
0.3592400191
 40
0.4093817795
 40
0.4557855263
 40
0.5003228983
 40
0.5448629749
 40
0.5912692525
 40
0.6965871816
 40
0.7597574691
 40
0.8318591079
 40
1.0
 40
1.0
 40
1.0
 40
1.0
 10
191.0956489016322
 20
172.5823426384671
 30
0.0
 10
191.0956489016322
 20
172.4757323061338
 30
0.0
 10
191.1198794027655
 20
172.3213647858005
 30
0.0
 10
191.1985721502988
 20
172.1450520634671
 30
0.0
 10
191.2671195989655
 20
172.0443912888005
 30
0.0
 10
191.3435755095655
 20
171.9683495967338
 30
0.0
 10
191.4250952764989
 20
171.9153117978005
 30
0.0
 10
191.5096827701655
 20
171.8840042751338
 30
0.0
 10
191.5957362211655
 20
171.8736451368671
 30
0.0
 10
191.6817989207655
 20
171.8840472846005
 30
0.0
 10
191.7993995470322
 20
171.9275973774005
 30
0.0
 10
191.9068129739655
 20
172.0185908310005
 30
0.0
 10
191.9927281806988
 20
172.1451370716671
 30
0.0
 10
192.0714870489655
 20
172.3215035603338
 30
0.0
 10
192.0956489016322
 20
172.4757785069338
 30
0.0
 10
192.0956489016322
 20
172.5823426384671
 30
0.0
  0
SPLINE
  5
3C6
330
221
100
AcDbEntity
  8
02___PRT_ALL_AXES
  6
Continuous
 62
     7
100
AcDbSpline
210
0.0
220
0.0
230
1.0
 70
     8
 71
     3
 72
    11
 73
     7
 74
     0
 42
0.000000001
 43
0.0000001
 40
0.0
 40
0.0
 40
0.0
 40
0.0
 40
0.2699449571
 40
0.5270499909
 40
0.7701654741
 40
1.0
 40
1.0
 40
1.0
 40
1.0
 10
177.5956489016322
 20
174.0823426384671
 30
0.0
 10
177.7114748665655
 20
173.9665166735338
 30
0.0
 10
177.9450094812322
 20
173.7475163621338
 30
0.0
 10
178.3135200825655
 20
173.4587577165338
 30
0.0
 10
178.6935208531655
 20
173.2285707163338
 30
0.0
 10
178.9615512783655
 20
173.1206562451338
 30
0.0
 10
179.0956489016322
 20
173.0823426384671
 30
0.0
  0
SPLINE
  5
3C7
330
221
100
AcDbEntity
  8
02___PRT_ALL_AXES
  6
Continuous
 62
     7
100
AcDbSpline
210
0.0
220
0.0
230
1.0
 70
     8
 71
     3
 72
    11
 73
     7
 74
     0
 42
0.000000001
 43
0.0000001
 40
0.0
 40
0.0
 40
0.0
 40
0.0
 40
0.2500103617
 40
0.5000189242
 40
0.7500124732
 40
1.0
 40
1.0
 40
1.0
 40
1.0
 10
181.5956489016322
 20
174.0823426384671
 30
0.0
 10
181.8323215793655
 20
173.9640062996005
 30
0.0
 10
182.3120890917655
 20
173.7398215640671
 30
0.0
 10
183.0523798088988
 20
173.4513845662005
 30
0.0
 10
183.8135970784988
 20
173.2230341630672
 30
0.0
 10
184.3337241744989
 20
173.1197604566005
 30
0.0
 10
184.5956489016322
 20
173.0823426384671
 30
0.0
  0
SPLINE
  5
3C8
330
221
100
AcDbEntity
  8
02___PRT_ALL_AXES
  6
Continuous
 62
     7
100
AcDbSpline
210
0.0
220
0.0
230
1.0
 70
     8
 71
     3
 72
    11
 73
     7
 74
     0
 42
0.000000001
 43
0.0000001
 40
0.0
 40
0.0
 40
0.0
 40
0.0
 40
0.2499875457
 40
0.4999810974
 40
0.7499896465
 40
1.0
 40
1.0
 40
1.0
 40
1.0
 10
186.5956489016322
 20
173.0823426384671
 30
0.0
 10
186.8575736486322
 20
173.1197604594672
 30
0.0
 10
187.3777007668989
 20
173.2230341720671
 30
0.0
 10
188.1389180425655
 20
173.4513845852671
 30
0.0
 10
188.8792087390989
 20
173.7398215798671
 30
0.0
 10
189.3589762317655
 20
173.9640063035338
 30
0.0
 10
189.5956489016322
 20
174.0823426384671
 30
0.0
  0
SPLINE
  5
3C9
330
221
100
AcDbEntity
  8
02___PRT_ALL_AXES
  6
Continuous
 62
     7
100
AcDbSpline
210
0.0
220
0.0
230
1.0
 70
     8
 71
     3
 72
    19
 73
    15
 74
     0
 42
0.000000001
 43
0.0000001
 40
0.0
 40
0.0
 40
0.0
 40
0.0
 40
0.062499569
 40
0.1250450196
 40
0.1876243679
 40
0.2502137548
 40
0.3750836247
 40
0.5000591496
 40
0.6250261711
 40
0.7498800617
 40
0.8124624827
 40
0.8750225901
 40
0.9375286272
 40
1.0
 40
1.0
 40
1.0
 40
1.0
 10
184.5956489016322
 20
172.5823426384671
 30
0.0
 10
184.5956489016322
 20
172.5262690267338
 30
0.0
 10
184.6151580166988
 20
172.4132799328005
 30
0.0
 10
184.6949419868322
 20
172.2625575496005
 30
0.0
 10
184.8100014412989
 20
172.1375078406671
 30
0.0
 10
184.9934451409655
 20
172.0063419746672
 30
0.0
 10
185.2588450783655
 20
171.9032112234005
 30
0.0
 10
185.5958027894988
 20
171.8639548008671
 30
0.0
 10
185.9327346225655
 20
171.9032925129338
 30
0.0
 10
186.1980888092989
 20
172.0064608307338
 30
0.0
 10
186.3814704365655
 20
172.1376519870005
 30
0.0
 10
186.4964412065655
 20
172.2627020162005
 30
0.0
 10
186.5761589822322
 20
172.4133661195338
 30
0.0
 10
186.5956489016322
 20
172.5262943238671
 30
0.0
 10
186.5956489016322
 20
172.5823426384671
 30
0.0
  0
SPLINE
  5
3CA
330
221
100
AcDbEntity
  8
02___PRT_ALL_AXES
  6
Continuous
 62
     7
100
AcDbSpline
210
0.0
220
0.0
230
1.0
 70
     8
 71
     3
 72
    11
 73
     7
 74
     0
 42
0.000000001
 43
0.0000001
 40
0.0
 40
0.0
 40
0.0
 40
0.0
 40
0.2699449571
 40
0.5270499909
 40
0.7701654741
 40
1.0
 40
1.0
 40
1.0
 40
1.0
 10
189.5956489016322
 20
174.0823426384671
 30
0.0
 10
189.7114748665655
 20
173.9665166735338
 30
0.0
 10
189.9450094812322
 20
173.7475163621338
 30
0.0
 10
190.3135200825655
 20
173.4587577165338
 30
0.0
 10
190.6935208531655
 20
173.2285707163338
 30
0.0
 10
190.9615512783655
 20
173.1206562451338
 30
0.0
 10
191.0956489016322
 20
173.0823426384671
 30
0.0
  0
SPLINE
  5
3CB
330
221
100
AcDbEntity
  8
02___PRT_ALL_AXES
  6
Continuous
 62
     7
100
AcDbSpline
210
0.0
220
0.0
230
1.0
 70
     8
 71
     3
 72
    11
 73
     7
 74
     0
 42
0.000000001
 43
0.0000001
 40
0.0
 40
0.0
 40
0.0
 40
0.0
 40
0.2298345438
 40
0.4729500311
 40
0.7300550521
 40
1.0
 40
1.0
 40
1.0
 40
1.0
 10
180.0956489016322
 20
173.0823426384671
 30
0.0
 10
180.2297465352989
 20
173.1206562480671
 30
0.0
 10
180.4977769724989
 20
173.2285707262005
 30
0.0
 10
180.8777777440988
 20
173.4587577353338
 30
0.0
 10
181.2462883344988
 20
173.7475163766671
 30
0.0
 10
181.4798229406989
 20
173.9665166774672
 30
0.0
 10
181.5956489016322
 20
174.0823426384671
 30
0.0
  0
SPLINE
  5
3CC
330
221
100
AcDbEntity
  8
02___PRT_ALL_AXES
  6
Continuous
 62
     7
100
AcDbSpline
210
0.0
220
0.0
230
1.0
 70
     8
 71
     3
 72
    19
 73
    15
 74
     0
 42
0.000000001
 43
0.0000001
 40
0.0
 40
0.0
 40
0.0
 40
0.0
 40
0.1683000113
 40
0.2404505744
 40
0.3036556532
 40
0.4090388234
 40
0.4554737865
 40
0.5000393211
 40
0.5446067335
 40
0.591042408
 40
0.696430429
 40
0.7596418824
 40
0.8317824151
 40
1.0
 40
1.0
 40
1.0
 40
1.0
 10
179.0956489016322
 20
172.5823426384671
 30
0.0
 10
179.0956489016322
 20
172.4757369632005
 30
0.0
 10
179.1198217664322
 20
172.3214105366671
 30
0.0
 10
179.1986388428322
 20
172.1450168136672
 30
0.0
 10
179.2845865961655
 20
172.0184839498671
 30
0.0
 10
179.3920234668322
 20
171.9274962933338
 30
0.0
 10
179.5096590280322
 20
171.8840185920005
 30
0.0
 10
179.5957268381655
 20
171.8736425128005
 30
0.0
 10
179.6817941237655
 20
171.8840456004671
 30
0.0
 10
179.7994061668322
 20
171.9275986104005
 30
0.0
 10
179.9068289556322
 20
172.0186037458672
 30
0.0
 10
179.9927431804988
 20
172.1451633653338
 30
0.0
 10
180.0714893047655
 20
172.3215268826671
 30
0.0
 10
180.0956489016322
 20
172.4757891743338
 30
0.0
 10
180.0956489016322
 20
172.5823426384671
 30
0.0
  0
SPLINE
  5
3CD
330
221
100
AcDbEntity
  8
02___PRT_ALL_AXES
  6
Continuous
 62
     7
100
AcDbSpline
210
0.0
220
0.0
230
1.0
 70
     8
 71
     3
 72
    11
 73
     7
 74
     0
 42
0.000000001
 43
0.0000001
 40
0.0
 40
0.0
 40
0.0
 40
0.0
 40
0.2298345438
 40
0.4729500311
 40
0.7300550521
 40
1.0
 40
1.0
 40
1.0
 40
1.0
 10
192.0956489016322
 20
173.0823426384671
 30
0.0
 10
192.2297465352989
 20
173.1206562480671
 30
0.0
 10
192.4977769724989
 20
173.2285707262005
 30
0.0
 10
192.8777777440988
 20
173.4587577353338
 30
0.0
 10
193.2462883344988
 20
173.7475163766671
 30
0.0
 10
193.4798229406989
 20
173.9665166774672
 30
0.0
 10
193.5956489016322
 20
174.0823426384671
 30
0.0
  0
SPLINE
  5
3CE
330
221
100
AcDbEntity
  8
02___PRT_ALL_AXES
  6
Continuous
 62
     7
100
AcDbSpline
 70
     0
 71
     3
 72
    14
 73
    10
 74
     0
 42
0.000000001
 43
0.0000001
 40
0.0
 40
0.0
 40
0.0
 40
0.0
 40
0.3367521023
 40
0.4850501897
 40
0.6174433225
 40
0.7333478636
 40
0.8335065661
 40
0.920577768
 40
1.0
 40
1.0
 40
1.0
 40
1.0
 10
347.3112602672
 20
98.1759621827
 30
0.0
 10
347.3292231045
 20
98.0516892309
 30
0.0
 10
347.3660863218
 20
97.8736121835
 30
0.0
 10
347.4430826208
 20
97.6563145141
 30
0.0
 10
347.5074617133
 20
97.5227678652
 30
0.0
 10
347.5798380363
 20
97.4142352061
 30
0.0
 10
347.6591981667
 20
97.3325428303
 30
0.0
 10
347.745109233
 20
97.2799286244
 30
0.0
 10
347.8071509623
 20
97.266028018
 30
0.0
 10
347.8367478317
 20
97.2650181123
 30
0.0
  0
SPLINE
  5
3CF
330
221
100
AcDbEntity
  8
02___PRT_ALL_AXES
  6
Continuous
 62
     7
100
AcDbSpline
 70
     0
 71
     3
 72
    11
 73
     7
 74
     0
 42
0.000000001
 43
0.0000001
 40
0.0
 40
0.0
 40
0.0
 40
0.0
 40
0.2484858494
 40
0.4974875519
 40
0.7474317797
 40
1.0
 40
1.0
 40
1.0
 40
1.0
 10
375.142104248
 20
109.0103662073
 30
0.0
 10
375.1123132809
 20
109.2184112844
 30
0.0
 10
375.0194724562
 20
109.6308623949
 30
0.0
 10
374.7882514601
 20
110.2216122707
 30
0.0
 10
374.4727802773
 20
110.7757567859
 30
0.0
 10
374.2145040637
 20
111.1149314426
 30
0.0
 10
374.0753744296
 20
111.2770316215
 30
0.0
  0
SPLINE
  5
3D0
330
221
100
AcDbEntity
  8
02___PRT_ALL_AXES
  6
Continuous
 62
     7
100
AcDbSpline
 70
     0
 71
     3
 72
    11
 73
     7
 74
     0
 42
0.000000001
 43
0.0000001
 40
0.0
 40
0.0
 40
0.0
 40
0.0
 40
0.252622295
 40
0.5025521247
 40
0.7514760527
 40
1.0
 40
1.0
 40
1.0
 40
1.0
 10
335.4444967285
 20
105.7025683478
 30
0.0
 10
335.3563473366
 20
105.5072801719
 30
0.0
 10
335.2037235266
 20
105.1079314571
 30
0.0
 10
335.0560434279
 20
104.4858137322
 30
0.0
 10
335.0009016796
 20
103.852061476
 30
0.0
 10
335.0281575841
 20
103.4290533702
 30
0.0
 10
335.0582049384
 20
103.2204209625
 30
0.0
  0
SPLINE
  5
3D1
330
221
100
AcDbEntity
  8
02___PRT_ALL_AXES
  6
Continuous
 62
     7
100
AcDbSpline
 70
     0
 71
     3
 72
    15
 73
    11
 74
     0
 42
0.000000001
 43
0.0000001
 40
0.0
 40
0.0
 40
0.0
 40
0.0
 40
0.0802789647
 40
0.1786828941
 40
0.2945597353
 40
0.4250584994
 40
0.5659912945
 40
0.7123262986
 40
0.8588652669
 40
1.0
 40
1.0
 40
1.0
 40
1.0
 10
347.7542389614
 20
100.2000353148
 30
0.0
 10
347.7078580187
 20
100.166432357
 30
0.0
 10
347.6190674098
 20
100.0720224104
 30
0.0
 10
347.5119973919
 20
99.890208891
 30
0.0
 10
347.4205377224
 20
99.6610087408
 30
0.0
 10
347.348811745
 20
99.3936521887
 30
0.0
 10
347.2998330506
 20
99.0992286221
 30
0.0
 10
347.275745609
 20
98.7902920149
 30
0.0
 10
347.2777450024
 20
98.4803139741
 30
0.0
 10
347.2968556896
 20
98.2756178969
 30
0.0
 10
347.3112602672
 20
98.1759621827
 30
0.0
  0
SPLINE
  5
3D2
330
221
100
AcDbEntity
  8
02___PRT_ALL_AXES
  6
Continuous
 62
     7
100
AcDbSpline
 70
     0
 71
     3
 72
    26
 73
    22
 74
     0
 42
0.000000001
 43
0.0000001
 40
0.0
 40
0.0
 40
0.0
 40
0.0
 40
0.0725061143
 40
0.1475314518
 40
0.2241065958
 40
0.3012256168
 40
0.3778552336
 40
0.4529823314
 40
0.5256430983
 40
0.5949626298
 40
0.6601987294
 40
0.7207977043
 40
0.7764670438
 40
0.827274896
 40
0.8737733257
 40
0.8957644754
 40
0.9171377411
 40
0.9380937856
 40
0.9588124582
 40
0.9794185063
 40
1.0
 40
1.0
 40
1.0
 40
1.0
 10
347.8367478031
 20
97.2650172436
 30
0.0
 10
348.6120874109
 20
97.2384017558
 30
0.0
 10
350.1915283548
 20
97.2297162918
 30
0.0
 10
352.5877932293
 20
97.3402982102
 30
0.0
 10
355.0249688179
 20
97.5723152185
 30
0.0
 10
357.4653594259
 20
97.921997037
 30
0.0
 10
359.8712539932
 20
98.3839745938
 30
0.0
 10
362.2055231223
 20
98.9512175856
 30
0.0
 10
364.4326910534
 20
99.6154123916
 30
0.0
 10
366.5198236598
 20
100.3673195786
 30
0.0
 10
368.4375181385
 20
101.1975041597
 30
0.0
 10
370.160746739
 20
102.0973635514
 30
0.0
 10
371.6697091989
 20
103.0612297622
 30
0.0
 10
372.9486590718
 20
104.0885309494
 30
0.0
 10
373.8273987471
 20
105.0230851139
 30
0.0
 10
374.3817364
 20
105.8105249469
 30
0.0
 10
374.716790061
 20
106.4134031134
 30
0.0
 10
374.9707107641
 20
107.0403869008
 30
0.0
 10
375.1355035736
 20
107.6884871324
 30
0.0
 10
375.2004299628
 20
108.3502537349
 30
0.0
 10
375.1733196985
 20
108.7923732579
 30
0.0
 10
375.142104248
 20
109.0103662073
 30
0.0
  0
SPLINE
  5
3D3
330
221
100
AcDbEntity
  8
02___PRT_ALL_AXES
  6
Continuous
 62
     7
100
AcDbSpline
 70
     0
 71
     3
 72
    12
 73
     8
 74
     0
 42
0.000000001
 43
0.0000001
 40
0.0
 40
0.0
 40
0.0
 40
0.0
 40
0.2446700918
 40
0.3675194923
 40
0.490899312
 40
0.7409252776
 40
1.0
 40
1.0
 40
1.0
 40
1.0
 10
335.0582049384
 20
103.2204209625
 30
0.0
 10
335.1045361588
 20
102.8987222884
 30
0.0
 10
335.2340916456
 20
102.4218176956
 30
0.0
 10
335.5103853704
 20
101.8301591638
 30
0.0
 10
335.853682638
 20
101.265923598
 30
0.0
 10
336.3973887403
 20
100.6184908171
 30
0.0
 10
336.916686493
 20
100.1806632902
 30
0.0
 10
337.1940331953
 20
99.9768986991
 30
0.0
  0
SPLINE
  5
3D4
330
221
100
AcDbEntity
  8
02___PRT_ALL_AXES
  6
Continuous
 62
     7
100
AcDbSpline
 70
     0
 71
     3
 72
    15
 73
    11
 74
     0
 42
0.000000001
 43
0.0000001
 40
0.0
 40
0.0
 40
0.0
 40
0.0
 40
0.1148287439
 40
0.2326432829
 40
0.3552481179
 40
0.4826986304
 40
0.613458977
 40
0.7450021232
 40
0.8745461506
 40
1.0
 40
1.0
 40
1.0
 40
1.0
 10
337.1940549266
 20
99.9769281963
 30
0.0
 10
337.2982998849
 20
99.9003287712
 30
0.0
 10
337.5384588175
 20
99.781067595
 30
0.0
 10
337.9423070194
 20
99.7307911629
 30
0.0
 10
338.3556501811
 20
99.8088415211
 30
0.0
 10
338.7426078282
 20
100.0062528356
 30
0.0
 10
339.0713750623
 20
100.304739426
 30
0.0
 10
339.314685666
 20
100.6789824569
 30
0.0
 10
339.4522994368
 20
101.0972380801
 30
0.0
 10
339.4649806852
 20
101.3888664294
 30
0.0
 10
339.4499572743
 20
101.5293973576
 30
0.0
  0
SPLINE
  5
3D5
330
221
100
AcDbEntity
  8
02___PRT_ALL_AXES
  6
Continuous
 62
     7
100
AcDbSpline
 70
     0
 71
     3
 72
    11
 73
     7
 74
     0
 42
0.000000001
 43
0.0000001
 40
0.0
 40
0.0
 40
0.0
 40
0.0
 40
0.2572673079
 40
0.5089077881
 40
0.755693971
 40
1.0
 40
1.0
 40
1.0
 40
1.0
 10
336.7207134456
 20
100.7912770835
 30
0.0
 10
336.7325613665
 20
100.7093091802
 30
0.0
 10
336.7707950901
 20
100.5488598637
 30
0.0
 10
336.8716920871
 20
100.3258275235
 30
0.0
 10
337.012686443
 20
100.1307265916
 30
0.0
 10
337.1306778232
 20
100.0234978316
 30
0.0
 10
337.1940549266
 20
99.9769281963
 30
0.0
  0
SPLINE
  5
3D6
330
221
100
AcDbEntity
  8
02___PRT_ALL_AXES
  6
Continuous
 62
     7
100
AcDbSpline
 70
     0
 71
     3
 72
    12
 73
     8
 74
     0
 42
0.000000001
 43
0.0000001
 40
0.0
 40
0.0
 40
0.0
 40
0.0
 40
0.2511547261
 40
0.5058459311
 40
0.6326535001
 40
0.7578021526
 40
1.0
 40
1.0
 40
1.0
 40
1.0
 10
337.6014836261
 20
102.4512623261
 30
0.0
 10
337.453773544
 20
102.3738788397
 30
0.0
 10
337.1795679277
 20
102.169740036
 30
0.0
 10
336.9266869436
 20
101.8265538587
 30
0.0
 10
336.7909262703
 20
101.5174631296
 30
0.0
 10
336.7053724024
 20
101.1998898234
 30
0.0
 10
336.6977090872
 20
100.9504289738
 30
0.0
 10
336.7207134456
 20
100.7912770835
 30
0.0
  0
SPLINE
  5
3D7
330
221
100
AcDbEntity
  8
7_ALL_FEATURES
  6
Continuous
 62
     7
100
AcDbSpline
 70
     0
 71
     3
 72
    23
 73
    19
 74
     0
 42
0.000000001
 43
0.0000001
 40
0.0
 40
0.0
 40
0.0
 40
0.0
 40
0.0554826838
 40
0.1158042075
 40
0.1802872458
 40
0.2481666245
 40
0.3185776516
 40
0.3906020379
 40
0.4632834356
 40
0.535651265
 40
0.6067420398
 40
0.6756207808
 40
0.7414033312
 40
0.8032804858
 40
0.8605460425
 40
0.9126322536
 40
0.9591577106
 40
1.0
 40
1.0
 40
1.0
 40
1.0
 10
358.630588303
 20
156.4539780888
 30
0.0
 10
358.185729686
 20
156.5638350574
 30
0.0
 10
357.2466364594
 20
156.7512325642
 30
0.0
 10
355.7684052515
 20
156.9376693738
 30
0.0
 10
354.1793649957
 20
157.0389976003
 30
0.0
 10
352.5039976034
 20
157.0536131612
 30
0.0
 10
350.7678615223
 20
156.9811309481
 30
0.0
 10
348.9976840173
 20
156.8226255955
 30
0.0
 10
347.2207009028
 20
156.5804845835
 30
0.0
 10
345.4642786838
 20
156.25844014
 30
0.0
 10
343.7554502623
 20
155.8614765155
 30
0.0
 10
342.1204788374
 20
155.3957517814
 30
0.0
 10
340.5844322155
 20
154.8685003799
 30
0.0
 10
339.1707387201
 20
154.2878844623
 30
0.0
 10
337.9008251791
 20
153.6628861492
 30
0.0
 10
336.7934811119
 20
153.0028704481
 30
0.0
 10
335.8651434143
 20
152.3178505305
 30
0.0
 10
335.3402793946
 20
151.818193402
 30
0.0
 10
335.1174462217
 20
151.5649677094
 30
0.0
  0
SPLINE
  5
3D8
330
221
100
AcDbEntity
  8
7_ALL_FEATURES
  6
Continuous
 62
     7
100
AcDbSpline
 70
     0
 71
     3
 72
    11
 73
     7
 74
     0
 42
0.000000001
 43
0.0000001
 40
0.0
 40
0.0
 40
0.0
 40
0.0
 40
0.2805778694
 40
0.5410743152
 40
0.7808257605
 40
1.0
 40
1.0
 40
1.0
 40
1.0
 10
358.630588303
 20
156.4539780888
 30
0.0
 10
358.9014607954
 20
156.3870866546
 30
0.0
 10
359.4204148901
 20
156.2435602593
 30
0.0
 10
360.1541834133
 20
155.987646551
 30
0.0
 10
360.8102029703
 20
155.7003753664
 30
0.0
 10
361.2105753158
 20
155.4794132886
 30
0.0
 10
361.3949947819
 20
155.3632611693
 30
0.0
  0
SPLINE
  5
3D9
330
221
100
AcDbEntity
  8
7_ALL_FEATURES
  6
Continuous
 62
     7
100
AcDbSpline
 70
     0
 71
     3
 72
    12
 73
     8
 74
     0
 42
0.000000001
 43
0.0000001
 40
0.0
 40
0.0
 40
0.0
 40
0.0
 40
0.2897345387
 40
0.5473773412
 40
0.7802871441
 40
0.8910314611
 40
1.0
 40
1.0
 40
1.0
 40
1.0
 10
334.997835735
 20
151.4290350731
 30
0.0
 10
334.8350687606
 20
151.2440458126
 30
0.0
 10
334.5492666373
 20
150.8738680356
 30
0.0
 10
334.238806473
 20
150.2829545399
 30
0.0
 10
334.1044192079
 20
149.7837111547
 30
0.0
 10
334.0801343538
 20
149.3985345039
 30
0.0
 10
334.0939477599
 20
149.2114736744
 30
0.0
 10
334.1072086077
 20
149.1197559717
 30
0.0
  0
SPLINE
  5
3DA
330
221
100
AcDbEntity
  8
7_ALL_FEATURES
  6
Continuous
 62
     7
100
AcDbSpline
 70
     0
 71
     3
 72
    12
 73
     8
 74
     0
 42
0.000000001
 43
0.0000001
 40
0.0
 40
0.0
 40
0.0
 40
0.0
 40
0.2897352868
 40
0.5473792309
 40
0.7802881311
 40
0.8910314276
 40
1.0
 40
1.0
 40
1.0
 40
1.0
 10
361.5482620687
 20
155.2667244512
 30
0.0
 10
361.7567483327
 20
155.1353933439
 30
0.0
 10
362.1356779573
 20
154.8612979664
 30
0.0
 10
362.6007573295
 20
154.3824832081
 30
0.0
 10
362.8710310549
 20
153.94173676
 30
0.0
 10
363.0033709623
 20
153.5791956678
 30
0.0
 10
363.0430946333
 20
153.3958823263
 30
0.0
 10
363.0563554801
 20
153.3041646303
 30
0.0
  0
SPLINE
  5
3DB
330
221
100
AcDbEntity
  8
7_ALL_FEATURES
  6
Continuous
 62
     7
100
AcDbSpline
 70
     0
 71
     3
 72
    15
 73
    11
 74
     0
 42
0.000000001
 43
0.0000001
 40
0.0
 40
0.0
 40
0.0
 40
0.0
 40
0.091828117
 40
0.1880465706
 40
0.2923712717
 40
0.4075174074
 40
0.5352019073
 40
0.6763612393
 40
0.8313610142
 40
1.0
 40
1.0
 40
1.0
 40
1.0
 10
334.1072086077
 20
149.1197559717
 30
0.0
 10
334.1303408196
 20
148.9597636867
 30
0.0
 10
334.2184251165
 20
148.6367698184
 30
0.0
 10
334.4667171783
 20
148.1814984142
 30
0.0
 10
334.8271583688
 20
147.7543341965
 30
0.0
 10
335.2949956405
 20
147.3576268237
 30
0.0
 10
335.8660408575
 20
146.9928081557
 30
0.0
 10
336.5361608191
 20
146.6619036048
 30
0.0
 10
337.3003729204
 20
146.3670155891
 30
0.0
 10
337.8464215138
 20
146.2025559646
 30
0.0
 10
338.1332034905
 20
146.12580337
 30
0.0
  0
SPLINE
  5
3DC
330
221
100
AcDbEntity
  8
7_ALL_FEATURES
  6
Continuous
 62
     7
100
AcDbSpline
 70
     0
 71
     3
 72
    21
 73
    17
 74
     0
 42
0.000000001
 43
0.0000001
 40
0.0
 40
0.0
 40
0.0
 40
0.0
 40
0.0362175566
 40
0.0736780299
 40
0.1134842168
 40
0.1565083896
 40
0.2033847082
 40
0.2545228238
 40
0.3101605676
 40
0.3703863746
 40
0.43518484
 40
0.5044440385
 40
0.5779880642
 40
0.6555749833
 40
0.8216648232
 40
1.0
 40
1.0
 40
1.0
 40
1.0
 10
363.0563554801
 20
153.3041646303
 30
0.0
 10
363.0758031808
 20
153.1696560029
 30
0.0
 10
363.0871494181
 20
152.891180928
 30
0.0
 10
363.0200774599
 20
152.468200775
 30
0.0
 10
362.8705457543
 20
152.0400505288
 30
0.0
 10
362.6407049159
 20
151.6091823161
 30
0.0
 10
362.3323447598
 20
151.177508821
 30
0.0
 10
361.9475485818
 20
150.7468371815
 30
0.0
 10
361.4883580313
 20
150.3192881161
 30
0.0
 10
360.9573458183
 20
149.8968937291
 30
0.0
 10
360.3573034227
 20
149.4819790374
 30
0.0
 10
359.691556212
 20
149.0766813238
 30
0.0
 10
358.9637067398
 20
148.6833126113
 30
0.0
 10
357.8913271774
 20
148.1657863738
 30
0.0
 10
356.4229332499
 20
147.5683436391
 30
0.0
 10
355.1938350511
 20
147.1653656683
 30
0.0
 10
354.5519271567
 20
146.9761769146
 30
0.0
  0
LINE
  5
3DD
330
221
100
AcDbEntity
  8
7_ALL_FEATURES
  6
Continuous
 62
     7
100
AcDbLine
 10
343.9172922059
 20
145.4592024715
 30
0.0
 11
343.8697092608
 21
145.4594144766
 31
0.0
  0
SPLINE
  5
3DE
330
221
100
AcDbEntity
  8
7_ALL_FEATURES
  6
Continuous
 62
     7
100
AcDbSpline
 70
     0
 71
     3
 72
    11
 73
     7
 74
     0
 42
0.000000001
 43
0.0000001
 40
0.0
 40
0.0
 40
0.0
 40
0.0
 40
0.2723852962
 40
0.5314141876
 40
0.7746901513
 40
1.0
 40
1.0
 40
1.0
 40
1.0
 10
343.8697092608
 20
145.4594144766
 30
0.0
 10
343.3698911812
 20
145.4620072668
 30
0.0
 10
342.394688505
 20
145.489451906
 30
0.0
 10
340.976911297
 20
145.601922921
 30
0.0
 10
339.6533747222
 20
145.7834154692
 30
0.0
 10
338.8100869076
 20
145.9558364477
 30
0.0
 10
338.4087029243
 20
146.0549574402
 30
0.0
  0
SPLINE
  5
3DF
330
221
100
AcDbEntity
  8
7_ALL_FEATURES
  6
Continuous
 62
     7
100
AcDbSpline
 70
     0
 71
     3
 72
    23
 73
    19
 74
     0
 42
0.000000001
 43
0.0000001
 40
0.0
 40
0.0
 40
0.0
 40
0.0
 40
0.0632425467
 40
0.1215629335
 40
0.1756414503
 40
0.2264130134
 40
0.2750804717
 40
0.3230446973
 40
0.3717824988
 40
0.4226882439
 40
0.4769513408
 40
0.5354975504
 40
0.5989912134
 40
0.6678585699
 40
0.7423530679
 40
0.8225860137
 40
0.9085352941
 40
1.0
 40
1.0
 40
1.0
 40
1.0
 10
334.9951689439
 20
151.4210655694
 30
0.0
 10
334.8902985762
 20
151.2930960515
 30
0.0
 10
334.7002748439
 20
151.0371797009
 30
0.0
 10
334.4711207306
 20
150.6375044861
 30
0.0
 10
334.3112850791
 20
150.2399674459
 30
0.0
 10
334.2224698908
 20
149.8463028684
 30
0.0
 10
334.2059100089
 20
149.4587993479
 30
0.0
 10
334.2624350828
 20
149.080347559
 30
0.0
 10
334.3914796843
 20
148.7140328559
 30
0.0
 10
334.5915494098
 20
148.36240258
 30
0.0
 10
334.8606648891
 20
148.0272020682
 30
0.0
 10
335.1968734445
 20
147.7096537714
 30
0.0
 10
335.598286674
 20
147.410881964
 30
0.0
 10
336.0628647558
 20
147.131894777
 30
0.0
 10
336.5885044231
 20
146.8738902786
 30
0.0
 10
337.1727682492
 20
146.637909088
 30
0.0
 10
337.8127476184
 20
146.4251714756
 30
0.0
 10
338.260803387
 20
146.3031243635
 30
0.0
 10
338.4931086099
 20
146.2457570413
 30
0.0
  0
SPLINE
  5
3E0
330
221
100
AcDbEntity
  8
7_ALL_FEATURES
  6
Continuous
 62
     7
100
AcDbSpline
 70
     0
 71
     3
 72
    33
 73
    29
 74
     0
 42
0.000000001
 43
0.0000001
 40
0.0
 40
0.0
 40
0.0
 40
0.0
 40
0.0205493124
 40
0.0391559043
 40
0.056208952
 40
0.0722619456
 40
0.0880066997
 40
0.1041836321
 40
0.1214659538
 40
0.1403789744
 40
0.1612846071
 40
0.1843976799
 40
0.2098212442
 40
0.2375706765
 40
0.2675953385
 40
0.2997949217
 40
0.3340263829
 40
0.3701164981
 40
0.4470298129
 40
0.5287077333
 40
0.6130787465
 40
0.6979521292
 40
0.7811153227
 40
0.8604316998
 40
0.8980297266
 40
0.9339520547
 40
0.968007104
 40
1.0
 40
1.0
 40
1.0
 40
1.0
 10
361.5544029727
 20
155.2589285675
 30
0.0
 10
361.7222386309
 20
155.1447160886
 30
0.0
 10
362.0298905465
 20
154.9079245883
 30
0.0
 10
362.4153347749
 20
154.5047026904
 30
0.0
 10
362.6964681993
 20
154.0739930721
 30
0.0
 10
362.8683889823
 20
153.6185090877
 30
0.0
 10
362.9271448138
 20
153.1436395916
 30
0.0
 10
362.8720398415
 20
152.6565159889
 30
0.0
 10
362.7058070398
 20
152.1630740605
 30
0.0
 10
362.4323112602
 20
151.6668941604
 30
0.0
 10
362.0547602323
 20
151.1706888103
 30
0.0
 10
361.5764275397
 20
150.6770787417
 30
0.0
 10
361.000751622
 20
150.1891469693
 30
0.0
 10
360.3318771897
 20
149.7101630575
 30
0.0
 10
359.5746496111
 20
149.2435038382
 30
0.0
 10
358.7345868824
 20
148.7926636511
 30
0.0
 10
357.8179363912
 20
148.3609006208
 30
0.0
 10
356.4740187532
 20
147.8033140383
 30
0.0
 10
354.6515891957
 20
147.1817557377
 30
0.0
 10
352.3279894646
 20
146.5728346258
 30
0.0
 10
349.8919606996
 20
146.1043693263
 30
0.0
 10
347.4164798238
 20
145.7904862768
 30
0.0
 10
344.9757173695
 20
145.6405741587
 30
0.0
 10
342.9971664392
 20
145.6558868867
 30
0.0
 10
341.49033341
 20
145.7578411067
 30
0.0
 10
340.4336790166
 20
145.8750394101
 30
0.0
 10
339.4384344486
 20
146.0334106426
 30
0.0
 10
338.7999547497
 20
146.169981985
 30
0.0
 10
338.4931086099
 20
146.2457570413
 30
0.0
  0
SPLINE
  5
3E1
330
221
100
AcDbEntity
  8
02___PRT_ALL_AXES
  6
Continuous
 62
     7
100
AcDbSpline
 70
     0
 71
     3
 72
    14
 73
    10
 74
     0
 42
0.000000001
 43
0.0000001
 40
0.0
 40
0.0
 40
0.0
 40
0.0
 40
0.2436300445
 40
0.3655523818
 40
0.4890920341
 40
0.6146626352
 40
0.7420115411
 40
0.8706463733
 40
1.0
 40
1.0
 40
1.0
 40
1.0
 10
369.7282684359
 20
78.5384063129
 30
0.0
 10
370.3253755438
 20
78.841095698
 30
0.0
 10
371.1879818959
 20
79.372977525
 30
0.0
 10
372.1951329553
 20
80.2672645416
 30
0.0
 10
372.8632090286
 20
81.0420203143
 30
0.0
 10
373.4172097979
 20
81.9205106527
 30
0.0
 10
373.8283643419
 20
82.8903370011
 30
0.0
 10
374.0713445625
 20
83.9261319704
 30
0.0
 10
374.1100278598
 20
84.6384197277
 30
0.0
 10
374.0975465888
 20
84.9936380032
 30
0.0
  0
SPLINE
  5
3E2
330
221
100
AcDbEntity
  8
02___PRT_ALL_AXES
  6
Continuous
 62
     7
100
AcDbSpline
 70
     0
 71
     3
 72
    23
 73
    19
 74
     0
 42
0.000000001
 43
0.0000001
 40
0.0
 40
0.0
 40
0.0
 40
0.0
 40
0.0631009059
 40
0.1259102151
 40
0.1880679163
 40
0.2492608562
 40
0.3093398266
 40
0.3686118732
 40
0.4279221161
 40
0.4882908586
 40
0.550369173
 40
0.6142947188
 40
0.6796598201
 40
0.7456857517
 40
0.8114514331
 40
0.8760352019
 40
0.9390135047
 40
1.0
 40
1.0
 40
1.0
 40
1.0
 10
353.2699074949
 20
82.5418402787
 30
0.0
 10
353.3345750485
 20
82.1391453075
 30
0.0
 10
353.5470864642
 20
81.3465538732
 30
0.0
 10
354.0962916177
 20
80.2533279237
 30
0.0
 10
354.8414660978
 20
79.2989581903
 30
0.0
 10
355.7363120313
 20
78.5116144787
 30
0.0
 10
356.7343083438
 20
77.8972900381
 30
0.0
 10
357.7998351275
 20
77.4429024124
 30
0.0
 10
358.9146128646
 20
77.1252085012
 30
0.0
 10
360.0737196595
 20
76.9231198048
 30
0.0
 10
361.2754556063
 20
76.8221023777
 30
0.0
 10
362.5134434454
 20
76.8137490142
 30
0.0
 10
363.7743098003
 20
76.8936550398
 30
0.0
 10
365.0388828009
 20
77.0582990632
 30
0.0
 10
366.284946278
 20
77.3047210128
 30
0.0
 10
367.4926320481
 20
77.6296710507
 30
0.0
 10
368.64381951
 20
78.0330712684
 30
0.0
 10
369.3766756867
 20
78.3601746495
 30
0.0
 10
369.7282684359
 20
78.5384063129
 30
0.0
  0
SPLINE
  5
3E3
330
221
100
AcDbEntity
  8
02___PRT_ALL_AXES
  6
Continuous
 62
     7
100
AcDbSpline
 70
     0
 71
     3
 72
    11
 73
     7
 74
     0
 42
0.000000001
 43
0.0000001
 40
0.0
 40
0.0
 40
0.0
 40
0.0
 40
0.2188760306
 40
0.4615649383
 40
0.7233742147
 40
1.0
 40
1.0
 40
1.0
 40
1.0
 10
373.8909498181
 20
85.6778823088
 30
0.0
 10
373.9873739697
 20
85.8971344156
 30
0.0
 10
374.1680353757
 20
86.3694997329
 30
0.0
 10
374.4031678841
 20
87.1256813032
 30
0.0
 10
374.6197968288
 20
87.9527993707
 30
0.0
 10
374.750313217
 20
88.5274627827
 30
0.0
 10
374.8138457521
 20
88.8234354106
 30
0.0
  0
SPLINE
  5
3E4
330
221
100
AcDbEntity
  8
02___PRT_ALL_AXES
  6
Continuous
 62
     7
100
AcDbSpline
 70
     0
 71
     3
 72
     9
 73
     5
 74
     0
 42
0.000000001
 43
0.0000001
 40
0.0
 40
0.0
 40
0.0
 40
0.0
 40
0.2535123638
 40
1.0
 40
1.0
 40
1.0
 40
1.0
 10
351.883734527
 20
83.5867101254
 30
0.0
 10
351.9932210813
 20
83.4968446686
 30
0.0
 10
352.4280246004
 20
83.1459789482
 30
0.0
 10
352.8757345499
 20
82.8108129417
 30
0.0
 10
353.2188680453
 20
82.5737102472
 30
0.0
  0
SPLINE
  5
3E5
330
221
100
AcDbEntity
  8
02___PRT_ALL_AXES
  6
Continuous
 62
     7
100
AcDbSpline
 70
     0
 71
     3
 72
    24
 73
    20
 74
     0
 42
0.000000001
 43
0.0000001
 40
0.0
 40
0.0
 40
0.0
 40
0.0
 40
0.0850142354
 40
0.152159858
 40
0.201301759
 40
0.2204199739
 40
0.2368846119
 40
0.25162166
 40
0.265618177
 40
0.2946770899
 40
0.3292071942
 40
0.3712416297
 40
0.4215402807
 40
0.4804586232
 40
0.5482512607
 40
0.625118693
 40
0.8047699327
 40
0.9034561713
 40
1.0
 40
1.0
 40
1.0
 40
1.0
 10
373.2424632164
 20
83.8106923477
 30
0.0
 10
373.2527987898
 20
83.7391873736
 30
0.0
 10
373.2776155598
 20
83.6118429865
 30
0.0
 10
373.3335057126
 20
83.4496058931
 30
0.0
 10
373.3926662389
 20
83.3490593223
 30
0.0
 10
373.4441951407
 20
83.2981797237
 30
0.0
 10
373.4805140727
 20
83.2749037971
 30
0.0
 10
373.5173704891
 20
83.2626124649
 30
0.0
 10
373.5670483943
 20
83.2601928027
 30
0.0
 10
373.6311668005
 20
83.2840563896
 30
0.0
 10
373.6992871205
 20
83.3440964422
 30
0.0
 10
373.7634467191
 20
83.4313986723
 30
0.0
 10
373.8234932265
 20
83.545435013
 30
0.0
 10
373.8787677368
 20
83.6855823799
 30
0.0
 10
373.9279753215
 20
83.8516504529
 30
0.0
 10
373.9860428433
 20
84.1212631467
 30
0.0
 10
374.0174465636
 20
84.4227423138
 30
0.0
 10
374.0168765199
 20
84.7415301344
 30
0.0
 10
374.0023550345
 20
84.9071435413
 30
0.0
 10
373.9906177552
 20
84.9883459885
 30
0.0
  0
SPLINE
  5
3E6
330
221
100
AcDbEntity
  8
02___PRT_ALL_AXES
  6
Continuous
 62
     7
100
AcDbSpline
 70
     0
 71
     3
 72
    11
 73
     7
 74
     0
 42
0.000000001
 43
0.0000001
 40
0.0
 40
0.0
 40
0.0
 40
0.0
 40
0.2351794049
 40
0.4693002152
 40
0.7174603104
 40
1.0
 40
1.0
 40
1.0
 40
1.0
 10
371.8212275969
 20
84.1128208473
 30
0.0
 10
371.9314526241
 20
84.0893890379
 30
0.0
 10
372.156481255
 20
84.0618821728
 30
0.0
 10
372.5018346769
 20
84.1021348227
 30
0.0
 10
372.8442120936
 20
84.2457536072
 30
0.0
 10
373.0457812574
 20
84.4058023159
 30
0.0
 10
373.1427952793
 20
84.5002286679
 30
0.0
  0
SPLINE
  5
3E7
330
221
100
AcDbEntity
  8
02___PRT_ALL_AXES
  6
Continuous
 62
     7
100
AcDbSpline
 70
     0
 71
     3
 72
    11
 73
     7
 74
     0
 42
0.000000001
 43
0.0000001
 40
0.0
 40
0.0
 40
0.0
 40
0.0
 40
0.2472822527
 40
0.4961410312
 40
0.7469333428
 40
1.0
 40
1.0
 40
1.0
 40
1.0
 10
360.3561719844
 20
81.4944582047
 30
0.0
 10
360.7199310227
 20
81.408492362
 30
0.0
 10
361.454724493
 20
81.2559550533
 30
0.0
 10
362.5740331562
 20
81.1006444145
 30
0.0
 10
363.7112830499
 20
81.0352565506
 30
0.0
 10
364.4738919637
 20
81.0633089052
 30
0.0
 10
364.8549037132
 20
81.0972715551
 30
0.0
  0
SPLINE
  5
3E8
330
221
100
AcDbEntity
  8
02___PRT_ALL_AXES
  6
Continuous
 62
     7
100
AcDbSpline
 70
     0
 71
     3
 72
    11
 73
     7
 74
     0
 42
0.000000001
 43
0.0000001
 40
0.0
 40
0.0
 40
0.0
 40
0.0
 40
0.2488706556
 40
0.4987662255
 40
0.7492501856
 40
1.0
 40
1.0
 40
1.0
 40
1.0
 10
367.7211676164
 20
81.7518622157
 30
0.0
 10
368.0901239258
 20
81.8895799073
 30
0.0
 10
368.8160506936
 20
82.2029207326
 30
0.0
 10
369.8604631967
 20
82.766598748
 30
0.0
 10
370.8632538222
 20
83.406325069
 30
0.0
 10
371.5057026301
 20
83.8722175994
 30
0.0
 10
371.8212275969
 20
84.1128208473
 30
0.0
  0
SPLINE
  5
3E9
330
221
100
AcDbEntity
  8
02___PRT_ALL_AXES
  6
Continuous
 62
     7
100
AcDbSpline
 70
     0
 71
     3
 72
    20
 73
    16
 74
     0
 42
0.000000001
 43
0.0000001
 40
0.0
 40
0.0
 40
0.0
 40
0.0
 40
0.0596564409
 40
0.1187041918
 40
0.1781476407
 40
0.2384304068
 40
0.3613921166
 40
0.4875508874
 40
0.6160292228
 40
0.6809595105
 40
0.7460688096
 40
0.811074678
 40
0.8755126609
 40
0.9386877312
 40
1.0
 40
1.0
 40
1.0
 40
1.0
 10
364.9545716503
 20
80.4077352348
 30
0.0
 10
364.9656106271
 20
80.3313638796
 30
0.0
 10
365.0154719807
 20
80.1819694101
 30
0.0
 10
365.161145806
 20
79.9986089177
 30
0.0
 10
365.3519079862
 20
79.8636110318
 30
0.0
 10
365.643454975
 20
79.7422783299
 30
0.0
 10
366.0466541161
 20
79.6883459442
 30
0.0
 10
366.5353787373
 20
79.745393319
 30
0.0
 10
366.9293844077
 20
79.8826615057
 30
0.0
 10
367.2217721663
 20
80.0463873686
 30
0.0
 10
367.4246032323
 20
80.1978450263
 30
0.0
 10
367.6018076918
 20
80.3781627541
 30
0.0
 10
367.741180804
 20
80.5869417703
 30
0.0
 10
367.8257985882
 20
80.819251408
 30
0.0
 10
367.8321809288
 20
80.9838347721
 30
0.0
 10
367.8208355534
 20
81.0623258955
 30
0.0
  0
SPLINE
  5
3EA
330
221
100
AcDbEntity
  8
02___PRT_ALL_AXES
  6
Continuous
 62
     7
100
AcDbSpline
 70
     0
 71
     3
 72
    11
 73
     7
 74
     0
 42
0.000000001
 43
0.0000001
 40
0.0
 40
0.0
 40
0.0
 40
0.0
 40
0.2591730041
 40
0.5100725776
 40
0.7561716078
 40
1.0
 40
1.0
 40
1.0
 40
1.0
 10
357.378343812
 20
80.8999800344
 30
0.0
 10
357.6426347999
 20
80.8834336434
 30
0.0
 10
358.1659255411
 20
80.8882539045
 30
0.0
 10
358.9320640622
 20
81.0036186755
 30
0.0
 10
359.6624795733
 20
81.2082939931
 30
0.0
 10
360.1286559418
 20
81.3929579853
 30
0.0
 10
360.3561719844
 20
81.4944582047
 30
0.0
  0
SPLINE
  5
3EB
330
221
100
AcDbEntity
  8
02___PRT_ALL_AXES
  6
Continuous
 62
     7
100
AcDbSpline
 70
     0
 71
     3
 72
    21
 73
    17
 74
     0
 42
0.000000001
 43
0.0000001
 40
0.0
 40
0.0
 40
0.0
 40
0.0
 40
0.1534056043
 40
0.2304538202
 40
0.3042509718
 40
0.3741783106
 40
0.4401868582
 40
0.5608834572
 40
0.6163445274
 40
0.6689453305
 40
0.7192947265
 40
0.7684428437
 40
0.8181910362
 40
0.8713530888
 40
0.9312845768
 40
1.0
 40
1.0
 40
1.0
 40
1.0
 10
355.3599023848
 20
80.7335066942
 30
0.0
 10
355.3834726455
 20
80.570439701
 30
0.0
 10
355.4808463247
 20
80.3334437511
 30
0.0
 10
355.6720715802
 20
80.0683235497
 30
0.0
 10
355.8365169241
 20
79.8963027727
 30
0.0
 10
356.0118758492
 20
79.7539979331
 30
0.0
 10
356.2455299304
 20
79.607055235
 30
0.0
 10
356.4895625711
 20
79.507598149
 30
0.0
 10
356.7322937904
 20
79.4647901196
 30
0.0
 10
356.9032666961
 20
79.4621761807
 30
0.0
 10
357.0653188735
 20
79.4904520509
 30
0.0
 10
357.2144805587
 20
79.5535488739
 30
0.0
 10
357.3438844402
 20
79.6570459688
 30
0.0
 10
357.4416658753
 20
79.805727436
 30
0.0
 10
357.4927489457
 20
79.9973592082
 30
0.0
 10
357.4885696452
 20
80.1374006365
 30
0.0
 10
357.4780117491
 20
80.2104437141
 30
0.0
  0
SPLINE
  5
3EC
330
221
100
AcDbEntity
  8
02___PRT_ALL_AXES
  6
Continuous
 62
     7
100
AcDbSpline
 70
     0
 71
     3
 72
    15
 73
    11
 74
     0
 42
0.000000001
 43
0.0000001
 40
0.0
 40
0.0
 40
0.0
 40
0.0
 40
0.0862276671
 40
0.1779895539
 40
0.2797173404
 40
0.3943380002
 40
0.5234195252
 40
0.6675632486
 40
0.8266975543
 40
1.0
 40
1.0
 40
1.0
 40
1.0
 10
371.3592182775
 20
93.6983456807
 30
0.0
 10
371.375860384
 20
93.5831862761
 30
0.0
 10
371.3756586722
 20
93.3393221898
 30
0.0
 10
371.2743014955
 20
92.9719943318
 30
0.0
 10
371.0771037477
 20
92.602886241
 30
0.0
 10
370.7882358835
 20
92.2347652999
 30
0.0
 10
370.4112912609
 20
91.8698721
 30
0.0
 10
369.949917236
 20
91.5112726202
 30
0.0
 10
369.4088445227
 20
91.1624668263
 30
0.0
 10
369.0146915166
 20
90.9474478201
 30
0.0
 10
368.8061067989
 20
90.8417107101
 30
0.0
  0
SPLINE
  5
3ED
330
221
100
AcDbEntity
  8
02___PRT_ALL_AXES
  6
Continuous
 62
     9
100
AcDbSpline
 70
     0
 71
     3
 72
    15
 73
    11
 74
     0
 42
0.000000001
 43
0.0000001
 40
0.0
 40
0.0
 40
0.0
 40
0.0
 40
0.0977397623
 40
0.1995448915
 40
0.3079431976
 40
0.4248914313
 40
0.5518228841
 40
0.6897025013
 40
0.8390717764
 40
1.0
 40
1.0
 40
1.0
 40
1.0
 10
353.2742662249
 20
82.5325139369
 30
0.0
 10
353.2942085407
 20
82.4413415398
 30
0.0
 10
353.3532367559
 20
82.2587664257
 30
0.0
 10
353.4938692021
 20
81.9989359868
 30
0.0
 10
353.6860993251
 20
81.7511430499
 30
0.0
 10
353.9283753116
 20
81.5164332866
 30
0.0
 10
354.219357371
 20
81.2956384531
 30
0.0
 10
354.5575566152
 20
81.0895136486
 30
0.0
 10
354.9412534526
 20
80.8990140205
 30
0.0
 10
355.2158769886
 20
80.7870730672
 30
0.0
 10
355.3599023848
 20
80.7335066942
 30
0.0
  0
SPLINE
  5
3EE
330
221
100
AcDbEntity
  8
02___PRT_ALL_AXES
  6
Continuous
 62
     7
100
AcDbSpline
 70
     0
 71
     3
 72
     9
 73
     5
 74
     0
 42
0.000000001
 43
0.0000001
 40
0.0
 40
0.0
 40
0.0
 40
0.0
 40
0.2572611893
 40
1.0
 40
1.0
 40
1.0
 40
1.0
 10
353.745547287
 20
82.2255954952
 30
0.0
 10
353.8699937612
 20
82.1471981639
 30
0.0
 10
354.3585534134
 20
81.8503723722
 30
0.0
 10
354.8689528412
 20
81.5880212631
 30
0.0
 10
355.2602344477
 20
81.4230430145
 30
0.0
  0
SPLINE
  5
3EF
330
221
100
AcDbEntity
  8
02___PRT_ALL_AXES
  6
Continuous
 62
     7
100
AcDbSpline
 70
     0
 71
     3
 72
    25
 73
    21
 74
     0
 42
0.000000001
 43
0.0000001
 40
0.0
 40
0.0
 40
0.0
 40
0.0
 40
0.0147700944
 40
0.030010833
 40
0.0461437507
 40
0.0635074085
 40
0.1027896673
 40
0.1490459464
 40
0.2024864676
 40
0.2627569529
 40
0.3291291212
 40
0.4006140836
 40
0.4760372275
 40
0.5540947212
 40
0.6334018324
 40
0.7125360854
 40
0.7900823167
 40
0.8646665789
 40
0.9350229438
 40
1.0
 40
1.0
 40
1.0
 40
1.0
 10
353.5443391342
 20
91.1234536205
 30
0.0
 10
353.5558525212
 20
91.0437837301
 30
0.0
 10
353.5954088404
 20
90.8838202168
 30
0.0
 10
353.7015601913
 20
90.6543680496
 30
0.0
 10
353.8537403579
 20
90.4352083747
 30
0.0
 10
354.1273606748
 20
90.1463258616
 30
0.0
 10
354.5899931921
 20
89.8203258526
 30
0.0
 10
355.279466463
 20
89.5007424502
 30
0.0
 10
356.1136917308
 20
89.2405950274
 30
0.0
 10
357.0767734721
 20
89.0449028955
 30
0.0
 10
358.1500699318
 20
88.9175120541
 30
0.0
 10
359.3119108378
 20
88.8612385681
 30
0.0
 10
360.5385793945
 20
88.8773841559
 30
0.0
 10
361.8048397974
 20
88.9657289812
 30
0.0
 10
363.0845616963
 20
89.1245132889
 30
0.0
 10
364.3513232741
 20
89.3504644484
 30
0.0
 10
365.5789351897
 20
89.6389066393
 30
0.0
 10
366.7421960398
 20
89.9837977002
 30
0.0
 10
367.8170444941
 20
90.3779449219
 30
0.0
 10
368.4902458032
 20
90.6815924176
 30
0.0
 10
368.8061067989
 20
90.8417107101
 30
0.0
  0
SPLINE
  5
3F0
330
221
100
AcDbEntity
  8
02___PRT_ALL_AXES
  6
Continuous
 62
     7
100
AcDbSpline
 70
     0
 71
     3
 72
     9
 73
     5
 74
     0
 42
0.000000001
 43
0.0000001
 40
0.0
 40
0.0
 40
0.0
 40
0.0
 40
0.47507187
 40
1.0
 40
1.0
 40
1.0
 40
1.0
 10
354.2388445663
 20
81.9148831085
 30
0.0
 10
354.3909426639
 20
81.8190819967
 30
0.0
 10
354.7244612849
 20
81.6383861146
 30
0.0
 10
355.0740742424
 20
81.4922802966
 30
0.0
 10
355.2602344477
 20
81.4230430145
 30
0.0
  0
SPLINE
  5
3F1
330
221
100
AcDbEntity
  8
02___PRT_ALL_AXES
  6
Continuous
 62
     7
100
AcDbSpline
 70
     0
 71
     3
 72
    11
 73
     7
 74
     0
 42
0.000000001
 43
0.0000001
 40
0.0
 40
0.0
 40
0.0
 40
0.0
 40
0.2269338484
 40
0.4742007322
 40
0.7345425202
 40
1.0
 40
1.0
 40
1.0
 40
1.0
 10
357.378343812
 20
80.8999800344
 30
0.0
 10
357.9397084779
 20
80.8140398709
 30
0.0
 10
359.1231307424
 20
80.7000394592
 30
0.0
 10
360.9629915383
 20
80.6812099253
 30
0.0
 10
362.8951741982
 20
80.8069459488
 30
0.0
 10
364.2002150695
 20
80.9846143959
 30
0.0
 10
364.8549037132
 20
81.0972715551
 30
0.0
  0
SPLINE
  5
3F2
330
221
100
AcDbEntity
  8
02___PRT_ALL_AXES
  6
Continuous
 62
     7
100
AcDbSpline
 70
     0
 71
     3
 72
    14
 73
    10
 74
     0
 42
0.000000001
 43
0.0000001
 40
0.0
 40
0.0
 40
0.0
 40
0.0
 40
0.2966801184
 40
0.4353764246
 40
0.5663604611
 40
0.6888403024
 40
0.8021727494
 40
0.9059656543
 40
1.0
 40
1.0
 40
1.0
 40
1.0
 10
367.7211676164
 20
81.7518622157
 30
0.0
 10
368.3040268697
 20
81.9205118251
 30
0.0
 10
369.1508889637
 20
82.2002366189
 30
0.0
 10
370.2231389049
 20
82.6393253403
 30
0.0
 10
370.9493111478
 20
82.9807891182
 30
0.0
 10
371.6091751129
 20
83.3385905066
 30
0.0
 10
372.1970031793
 20
83.7097096763
 30
0.0
 10
372.7074985268
 20
84.0908289481
 30
0.0
 10
373.0082641845
 20
84.3627959457
 30
0.0
 10
373.1427952793
 20
84.5002286679
 30
0.0
  0
SPLINE
  5
3F3
330
221
100
AcDbEntity
  8
02___PRT_ALL_AXES
  6
Continuous
 62
     9
100
AcDbSpline
 70
     0
 71
     3
 72
    11
 73
     7
 74
     0
 42
0.000000001
 43
0.0000001
 40
0.0
 40
0.0
 40
0.0
 40
0.0
 40
0.2269338484
 40
0.4742007322
 40
0.7345425202
 40
1.0
 40
1.0
 40
1.0
 40
1.0
 10
357.4780117491
 20
80.2104437141
 30
0.0
 10
358.039376415
 20
80.1245035506
 30
0.0
 10
359.2227986795
 20
80.0105031389
 30
0.0
 10
361.0626594754
 20
79.991673605
 30
0.0
 10
362.9948421353
 20
80.1174096285
 30
0.0
 10
364.2998830066
 20
80.2950780756
 30
0.0
 10
364.9545716503
 20
80.4077352348
 30
0.0
  0
SPLINE
  5
3F4
330
221
100
AcDbEntity
  8
02___PRT_ALL_AXES
  6
Continuous
 62
     9
100
AcDbSpline
 70
     0
 71
     3
 72
    10
 73
     6
 74
     0
 42
0.000000001
 43
0.0000001
 40
0.0
 40
0.0
 40
0.0
 40
0.0
 40
0.5238193442
 40
0.7687336067
 40
1.0
 40
1.0
 40
1.0
 40
1.0
 10
367.8208355534
 20
81.0623258955
 30
0.0
 10
368.403678608
 20
81.2309708177
 30
0.0
 10
369.2505695951
 20
81.5106902443
 30
0.0
 10
370.3227815193
 20
81.9497987471
 30
0.0
 10
370.8222424322
 20
82.1846212637
 30
0.0
 10
371.061176726
 20
82.3057433765
 30
0.0
  0
SPLINE
  5
3F5
330
221
100
AcDbEntity
  8
02___PRT_ALL_AXES
  6
Continuous
 62
     9
100
AcDbSpline
 70
     0
 71
     3
 72
    11
 73
     7
 74
     0
 42
0.000000001
 43
0.0000001
 40
0.0
 40
0.0
 40
0.0
 40
0.0
 40
0.2168749643
 40
0.4561896759
 40
0.7175760912
 40
1.0
 40
1.0
 40
1.0
 40
1.0
 10
373.2424632164
 20
83.8106923477
 30
0.0
 10
373.107916799
 20
83.6732439723
 30
0.0
 10
372.8071728569
 20
83.4012736887
 30
0.0
 10
372.2966475784
 20
83.0201574338
 30
0.0
 10
371.7088500487
 20
82.6490793302
 30
0.0
 10
371.2845849349
 20
82.4189949063
 30
0.0
 10
371.061176726
 20
82.3057433765
 30
0.0
  0
SPLINE
  5
3F6
330
221
100
AcDbEntity
  8
02___PRT_ALL_AXES
  6
Continuous
 62
     7
100
AcDbSpline
 70
     0
 71
     3
 72
    14
 73
    10
 74
     0
 42
0.000000001
 43
0.0000001
 40
0.0
 40
0.0
 40
0.0
 40
0.0
 40
0.3367521023
 40
0.4850501897
 40
0.6174433225
 40
0.7333478636
 40
0.8335065661
 40
0.920577768
 40
1.0
 40
1.0
 40
1.0
 40
1.0
 10
343.7232145323
 20
122.9992697132
 30
0.0
 10
343.7411773696
 20
122.8749967614
 30
0.0
 10
343.7780405869
 20
122.696919714
 30
0.0
 10
343.8550368859
 20
122.4796220446
 30
0.0
 10
343.9194159785
 20
122.3460753957
 30
0.0
 10
343.9917923014
 20
122.2375427366
 30
0.0
 10
344.0711524318
 20
122.1558503609
 30
0.0
 10
344.1570634981
 20
122.1032361549
 30
0.0
 10
344.2191052274
 20
122.0893355485
 30
0.0
 10
344.2487020968
 20
122.0883256428
 30
0.0
  0
SPLINE
  5
3F7
330
221
100
AcDbEntity
  8
02___PRT_ALL_AXES
  6
Continuous
 62
     7
100
AcDbSpline
 70
     0
 71
     3
 72
    11
 73
     7
 74
     0
 42
0.000000001
 43
0.0000001
 40
0.0
 40
0.0
 40
0.0
 40
0.0
 40
0.2484858494
 40
0.4974875519
 40
0.7474317797
 40
1.0
 40
1.0
 40
1.0
 40
1.0
 10
371.5540585131
 20
133.8336737378
 30
0.0
 10
371.524267546
 20
134.041718815
 30
0.0
 10
371.4314267213
 20
134.4541699254
 30
0.0
 10
371.2002057252
 20
135.0449198012
 30
0.0
 10
370.8847345424
 20
135.5990643164
 30
0.0
 10
370.6264583288
 20
135.9382389731
 30
0.0
 10
370.4873286947
 20
136.100339152
 30
0.0
  0
SPLINE
  5
3F8
330
221
100
AcDbEntity
  8
02___PRT_ALL_AXES
  6
Continuous
 62
     7
100
AcDbSpline
 70
     0
 71
     3
 72
    11
 73
     7
 74
     0
 42
0.000000001
 43
0.0000001
 40
0.0
 40
0.0
 40
0.0
 40
0.0
 40
0.252622295
 40
0.5025521247
 40
0.7514760527
 40
1.0
 40
1.0
 40
1.0
 40
1.0
 10
331.8564509936
 20
130.5258758783
 30
0.0
 10
331.7683016017
 20
130.3305877024
 30
0.0
 10
331.6156777917
 20
129.9312389876
 30
0.0
 10
331.467997693
 20
129.3091212627
 30
0.0
 10
331.4128559448
 20
128.6753690065
 30
0.0
 10
331.4401118492
 20
128.2523609007
 30
0.0
 10
331.4701592035
 20
128.043728493
 30
0.0
  0
SPLINE
  5
3F9
330
221
100
AcDbEntity
  8
02___PRT_ALL_AXES
  6
Continuous
 62
     7
100
AcDbSpline
 70
     0
 71
     3
 72
    15
 73
    11
 74
     0
 42
0.000000001
 43
0.0000001
 40
0.0
 40
0.0
 40
0.0
 40
0.0
 40
0.0802789647
 40
0.1786828941
 40
0.2945597353
 40
0.4250584994
 40
0.5659912945
 40
0.7123262986
 40
0.8588652669
 40
1.0
 40
1.0
 40
1.0
 40
1.0
 10
344.1661932266
 20
125.0233428453
 30
0.0
 10
344.1198122838
 20
124.9897398875
 30
0.0
 10
344.031021675
 20
124.8953299409
 30
0.0
 10
343.923951657
 20
124.7135164215
 30
0.0
 10
343.8324919875
 20
124.4843162713
 30
0.0
 10
343.7607660101
 20
124.2169597192
 30
0.0
 10
343.7117873157
 20
123.9225361526
 30
0.0
 10
343.6876998741
 20
123.6135995454
 30
0.0
 10
343.6896992675
 20
123.3036215046
 30
0.0
 10
343.7088099547
 20
123.0989254274
 30
0.0
 10
343.7232145323
 20
122.9992697132
 30
0.0
  0
SPLINE
  5
3FA
330
221
100
AcDbEntity
  8
02___PRT_ALL_AXES
  6
Continuous
 62
     7
100
AcDbSpline
 70
     0
 71
     3
 72
    26
 73
    22
 74
     0
 42
0.000000001
 43
0.0000001
 40
0.0
 40
0.0
 40
0.0
 40
0.0
 40
0.0725061143
 40
0.1475314518
 40
0.2241065958
 40
0.3012256168
 40
0.3778552336
 40
0.4529823314
 40
0.5256430983
 40
0.5949626298
 40
0.6601987294
 40
0.7207977043
 40
0.7764670438
 40
0.827274896
 40
0.8737733257
 40
0.8957644754
 40
0.9171377411
 40
0.9380937856
 40
0.9588124582
 40
0.9794185063
 40
1.0
 40
1.0
 40
1.0
 40
1.0
 10
344.2487020682
 20
122.0883247741
 30
0.0
 10
345.024041676
 20
122.0617092863
 30
0.0
 10
346.6034826199
 20
122.0530238223
 30
0.0
 10
348.9997474945
 20
122.1636057407
 30
0.0
 10
351.4369230831
 20
122.395622749
 30
0.0
 10
353.877313691
 20
122.7453045675
 30
0.0
 10
356.2832082583
 20
123.2072821243
 30
0.0
 10
358.6174773874
 20
123.7745251161
 30
0.0
 10
360.8446453185
 20
124.4387199221
 30
0.0
 10
362.931777925
 20
125.1906271091
 30
0.0
 10
364.8494724037
 20
126.0208116902
 30
0.0
 10
366.5727010041
 20
126.9206710819
 30
0.0
 10
368.081663464
 20
127.8845372927
 30
0.0
 10
369.3606133369
 20
128.9118384799
 30
0.0
 10
370.2393530122
 20
129.8463926444
 30
0.0
 10
370.7936906651
 20
130.6338324774
 30
0.0
 10
371.1287443261
 20
131.2367106439
 30
0.0
 10
371.3826650292
 20
131.8636944313
 30
0.0
 10
371.5474578388
 20
132.5117946629
 30
0.0
 10
371.6123842279
 20
133.1735612654
 30
0.0
 10
371.5852739636
 20
133.6156807884
 30
0.0
 10
371.5540585131
 20
133.8336737378
 30
0.0
  0
SPLINE
  5
3FB
330
221
100
AcDbEntity
  8
02___PRT_ALL_AXES
  6
Continuous
 62
     7
100
AcDbSpline
 70
     0
 71
     3
 72
    12
 73
     8
 74
     0
 42
0.000000001
 43
0.0000001
 40
0.0
 40
0.0
 40
0.0
 40
0.0
 40
0.2446700918
 40
0.3675194923
 40
0.490899312
 40
0.7409252776
 40
1.0
 40
1.0
 40
1.0
 40
1.0
 10
331.4701592035
 20
128.043728493
 30
0.0
 10
331.5164904239
 20
127.7220298189
 30
0.0
 10
331.6460459108
 20
127.2451252261
 30
0.0
 10
331.9223396355
 20
126.6534666943
 30
0.0
 10
332.2656369031
 20
126.0892311285
 30
0.0
 10
332.8093430054
 20
125.4417983476
 30
0.0
 10
333.3286407581
 20
125.0039708207
 30
0.0
 10
333.6059874604
 20
124.8002062296
 30
0.0
  0
SPLINE
  5
3FC
330
221
100
AcDbEntity
  8
02___PRT_ALL_AXES
  6
Continuous
 62
     7
100
AcDbSpline
 70
     0
 71
     3
 72
    15
 73
    11
 74
     0
 42
0.000000001
 43
0.0000001
 40
0.0
 40
0.0
 40
0.0
 40
0.0
 40
0.1148287439
 40
0.2326432829
 40
0.3552481179
 40
0.4826986304
 40
0.613458977
 40
0.7450021232
 40
0.8745461506
 40
1.0
 40
1.0
 40
1.0
 40
1.0
 10
333.6060091917
 20
124.8002357268
 30
0.0
 10
333.71025415
 20
124.7236363017
 30
0.0
 10
333.9504130826
 20
124.6043751255
 30
0.0
 10
334.3542612846
 20
124.5540986934
 30
0.0
 10
334.7676044462
 20
124.6321490516
 30
0.0
 10
335.1545620933
 20
124.8295603661
 30
0.0
 10
335.4833293274
 20
125.1280469565
 30
0.0
 10
335.7266399311
 20
125.5022899874
 30
0.0
 10
335.8642537019
 20
125.9205456106
 30
0.0
 10
335.8769349504
 20
126.21217396
 30
0.0
 10
335.8619115394
 20
126.3527048881
 30
0.0
  0
SPLINE
  5
3FD
330
221
100
AcDbEntity
  8
02___PRT_ALL_AXES
  6
Continuous
 62
     7
100
AcDbSpline
 70
     0
 71
     3
 72
    11
 73
     7
 74
     0
 42
0.000000001
 43
0.0000001
 40
0.0
 40
0.0
 40
0.0
 40
0.0
 40
0.2572673079
 40
0.5089077881
 40
0.755693971
 40
1.0
 40
1.0
 40
1.0
 40
1.0
 10
333.1326677107
 20
125.614584614
 30
0.0
 10
333.1445156317
 20
125.5326167107
 30
0.0
 10
333.1827493552
 20
125.3721673943
 30
0.0
 10
333.2836463523
 20
125.149135054
 30
0.0
 10
333.4246407081
 20
124.9540341221
 30
0.0
 10
333.5426320883
 20
124.8468053621
 30
0.0
 10
333.6060091917
 20
124.8002357268
 30
0.0
  0
SPLINE
  5
3FE
330
221
100
AcDbEntity
  8
02___PRT_ALL_AXES
  6
Continuous
 62
     7
100
AcDbSpline
 70
     0
 71
     3
 72
    12
 73
     8
 74
     0
 42
0.000000001
 43
0.0000001
 40
0.0
 40
0.0
 40
0.0
 40
0.0
 40
0.2511547261
 40
0.5058459311
 40
0.6326535001
 40
0.7578021526
 40
1.0
 40
1.0
 40
1.0
 40
1.0
 10
334.0134378912
 20
127.2745698566
 30
0.0
 10
333.8657278092
 20
127.1971863702
 30
0.0
 10
333.5915221928
 20
126.9930475665
 30
0.0
 10
333.3386412087
 20
126.6498613892
 30
0.0
 10
333.2028805354
 20
126.3407706601
 30
0.0
 10
333.1173266675
 20
126.023197354
 30
0.0
 10
333.1096633524
 20
125.7737365043
 30
0.0
 10
333.1326677107
 20
125.614584614
 30
0.0
  0
SPLINE
  5
3FF
330
221
100
AcDbEntity
  8
7_ALL_FEATURES
  6
Continuous
 62
     7
100
AcDbSpline
 70
     0
 71
     3
 72
     9
 73
     5
 74
     0
 42
0.000000001
 43
0.0000001
 40
0.0
 40
0.0
 40
0.0
 40
0.0
 40
0.2601967776
 40
1.0
 40
1.0
 40
1.0
 40
1.0
 10
334.0948325615
 20
149.5232528828
 30
0.0
 10
334.0800834422
 20
149.4947628799
 30
0.0
 10
334.0251272351
 20
149.3843901321
 30
0.0
 10
333.9772484341
 20
149.2704367032
 30
0.0
 10
333.9467720097
 20
149.1844633341
 30
0.0
  0
SPLINE
  5
400
330
221
100
AcDbEntity
  8
7_ALL_FEATURES
  6
Continuous
 62
     7
100
AcDbSpline
 70
     0
 71
     3
 72
     9
 73
     5
 74
     0
 42
0.000000001
 43
0.0000001
 40
0.0
 40
0.0
 40
0.0
 40
0.0
 40
0.2649451851
 40
1.0
 40
1.0
 40
1.0
 40
1.0
 10
333.9467720097
 20
149.1844633341
 30
0.0
 10
333.9307934446
 20
149.1393881291
 30
0.0
 10
333.8755774106
 20
148.9675436856
 30
0.0
 10
333.842089829
 20
148.7883546982
 30
0.0
 10
333.8330168768
 20
148.6559853582
 30
0.0
  0
SPLINE
  5
401
330
221
100
AcDbEntity
  8
7_ALL_FEATURES
  6
Continuous
 62
     7
100
AcDbSpline
 70
     0
 71
     3
 72
     9
 73
     5
 74
     0
 42
0.000000001
 43
0.0000001
 40
0.0
 40
0.0
 40
0.0
 40
0.0
 40
0.240199566
 40
1.0
 40
1.0
 40
1.0
 40
1.0
 10
363.433474617
 20
152.9813629008
 30
0.0
 10
363.4213083245
 20
153.0115690406
 30
0.0
 10
363.3671763431
 20
153.1359109607
 30
0.0
 10
363.2993367826
 20
153.2541353936
 30
0.0
 10
363.2420466222
 20
153.3397411906
 30
0.0
  0
SPLINE
  5
402
330
221
100
AcDbEntity
  8
7_ALL_FEATURES
  6
Continuous
 62
     7
100
AcDbSpline
 70
     0
 71
     3
 72
     9
 73
     5
 74
     0
 42
0.000000001
 43
0.0000001
 40
0.0
 40
0.0
 40
0.0
 40
0.0
 40
0.2404215642
 40
1.0
 40
1.0
 40
1.0
 40
1.0
 10
363.1942906614
 20
153.4083594596
 30
0.0
 10
363.1773389744
 20
153.4318102469
 30
0.0
 10
363.1050556199
 20
153.5280619437
 30
0.0
 10
363.0259276768
 20
153.6191147272
 30
0.0
 10
362.9629089327
 20
153.6853430383
 30
0.0
  0
SPLINE
  5
403
330
221
100
AcDbEntity
  8
02___PRT_ALL_AXES
  6
Continuous
 62
     7
100
AcDbSpline
 70
     0
 71
     3
 72
    11
 73
     7
 74
     0
 42
0.000000001
 43
0.0000001
 40
0.0
 40
0.0
 40
0.0
 40
0.0
 40
0.2998119141
 40
0.5660210775
 40
0.7985809191
 40
1.0
 40
1.0
 40
1.0
 40
1.0
 10
338.1279211544
 20
146.0606338617
 30
0.0
 10
337.7124314521
 20
146.163238234
 30
0.0
 10
336.9351916911
 20
146.3889187849
 30
0.0
 10
335.8778266112
 20
146.8222969406
 30
0.0
 10
335.0100781284
 20
147.3253316046
 30
0.0
 10
334.5350411014
 20
147.7318088233
 30
0.0
 10
334.3426221873
 20
147.9454487783
 30
0.0
  0
SPLINE
  5
404
330
221
100
AcDbEntity
  8
02___PRT_ALL_AXES
  6
Continuous
 62
     7
100
AcDbSpline
 70
     0
 71
     3
 72
    10
 73
     6
 74
     0
 42
0.000000001
 43
0.0000001
 40
0.0
 40
0.0
 40
0.0
 40
0.0
 40
0.5189166149
 40
0.7620305853
 40
1.0
 40
1.0
 40
1.0
 40
1.0
 10
334.3164934205
 20
147.9748143009
 30
0.0
 10
334.1583488946
 20
148.1547427589
 30
0.0
 10
333.953921698
 20
148.4480211539
 30
0.0
 10
333.7814676025
 20
148.877783037
 30
0.0
 10
333.7318235251
 20
149.0954349892
 30
0.0
 10
333.7161119495
 20
149.2041603661
 30
0.0
  0
SPLINE
  5
405
330
221
100
AcDbEntity
  8
02___PRT_ALL_AXES
  6
Continuous
 62
     7
100
AcDbSpline
 70
     0
 71
     3
 72
    24
 73
    20
 74
     0
 42
0.000000001
 43
0.0000001
 40
0.0
 40
0.0
 40
0.0
 40
0.0
 40
0.0576626699
 40
0.1206828645
 40
0.1882411224
 40
0.2593701352
 40
0.3330023422
 40
0.4080017296
 40
0.4831968252
 40
0.5574110411
 40
0.6294932646
 40
0.6983491946
 40
0.7629750048
 40
0.8224958546
 40
0.8762141974
 40
0.923677654
 40
0.9450301284
 40
0.9648213405
 40
1.0
 40
1.0
 40
1.0
 40
1.0
 10
338.1279211544
 20
146.0606338617
 30
0.0
 10
338.629027229
 20
145.936886693
 30
0.0
 10
339.6907521162
 20
145.729213922
 30
0.0
 10
341.3654996393
 20
145.5325538989
 30
0.0
 10
343.1698258736
 20
145.4394399479
 30
0.0
 10
345.0712952089
 20
145.4517772789
 30
0.0
 10
347.0358133249
 20
145.5694645528
 30
0.0
 10
349.0279786549
 20
145.7904742019
 30
0.0
 10
351.0118682016
 20
146.1108502534
 30
0.0
 10
352.9517041478
 20
146.5247997155
 30
0.0
 10
354.8125425511
 20
147.0247971987
 30
0.0
 10
356.5609641612
 20
147.6017377111
 30
0.0
 10
358.1656959046
 20
148.245117731
 30
0.0
 10
359.5984440829
 20
148.9433249594
 30
0.0
 10
360.8340107643
 20
149.6839099376
 30
0.0
 10
361.7112494825
 20
150.3475889748
 30
0.0
 10
362.2880070871
 20
150.8934737499
 30
0.0
 10
362.7435208171
 20
151.4028478494
 30
0.0
 10
363.0206316969
 20
151.8162089944
 30
0.0
 10
363.1575802985
 20
152.0997670758
 30
0.0
  0
SPLINE
  5
406
330
221
100
AcDbEntity
  8
02___PRT_ALL_AXES
  6
Continuous
 62
     7
100
AcDbSpline
 70
     0
 71
     3
 72
    10
 73
     6
 74
     0
 42
0.000000001
 43
0.0000001
 40
0.0
 40
0.0
 40
0.0
 40
0.0
 40
0.5200729449
 40
0.7627758994
 40
1.0
 40
1.0
 40
1.0
 40
1.0
 10
363.1575802985
 20
152.0997670758
 30
0.0
 10
363.265876425
 20
152.3239989517
 30
0.0
 10
363.3884630599
 20
152.6746244774
 30
0.0
 10
363.437660138
 20
153.1525023079
 30
0.0
 10
363.4238299495
 20
153.383158143
 30
0.0
 10
363.4075849634
 20
153.495574764
 30
0.0
  0
SPLINE
  5
407
330
221
100
AcDbEntity
  8
02___PRT_ALL_AXES
  6
Continuous
 62
     7
100
AcDbSpline
 70
     0
 71
     3
 72
    15
 73
    11
 74
     0
 42
0.000000001
 43
0.0000001
 40
0.0
 40
0.0
 40
0.0
 40
0.0
 40
0.1698497796
 40
0.3258418618
 40
0.4677223038
 40
0.5957190389
 40
0.710696111
 40
0.8143678468
 40
0.9095077262
 40
1.0
 40
1.0
 40
1.0
 40
1.0
 10
330.601479489
 20
140.0250996233
 30
0.0
 10
330.0524207856
 20
140.1606886002
 30
0.0
 10
329.006647859
 20
140.4534265422
 30
0.0
 10
327.5411063796
 20
140.9852831354
 30
0.0
 10
326.2548618553
 20
141.587712408
 30
0.0
 10
325.158110123
 20
142.2565299921
 30
0.0
 10
324.2595546038
 20
142.9878682957
 30
0.0
 10
323.5674297272
 20
143.7788032001
 30
0.0
 10
323.0914102144
 20
144.625131443
 30
0.0
 10
322.9239301047
 20
145.2279364324
 30
0.0
 10
322.8808306117
 20
145.5261522454
 30
0.0
  0
SPLINE
  5
408
330
221
100
AcDbEntity
  8
02___PRT_ALL_AXES
  6
Continuous
 62
     7
100
AcDbSpline
 70
     0
 71
     3
 72
    17
 73
    13
 74
     0
 42
0.000000001
 43
0.0000001
 40
0.0
 40
0.0
 40
0.0
 40
0.0
 40
0.0509904275
 40
0.1053468646
 40
0.1627722706
 40
0.2229248658
 40
0.3498321508
 40
0.4827149862
 40
0.6179007862
 40
0.75160964
 40
0.8801302166
 40
1.0
 40
1.0
 40
1.0
 40
1.0
 10
330.601479489
 20
140.0250996233
 30
0.0
 10
331.1785072315
 20
139.8826037467
 30
0.0
 10
332.3804126067
 20
139.6268791336
 30
0.0
 10
334.2557511257
 20
139.3338623226
 30
0.0
 10
336.249279564
 20
139.1208934125
 30
0.0
 10
339.094274912
 20
138.943051167
 30
0.0
 10
342.8276038016
 20
138.9387594725
 30
0.0
 10
347.4238214237
 20
139.25933657
 30
0.0
 10
352.0670267644
 20
139.896291669
 30
0.0
 10
356.6082184602
 20
140.8291581416
 30
0.0
 10
360.9015577491
 20
142.0275472367
 30
0.0
 10
363.6257972584
 20
143.0203335144
 30
0.0
 10
364.914080151
 20
143.5612735306
 30
0.0
  0
SPLINE
  5
409
330
221
100
AcDbEntity
  8
02___PRT_ALL_AXES
  6
Continuous
 62
     7
100
AcDbSpline
 70
     0
 71
     3
 72
    18
 73
    14
 74
     0
 42
0.000000001
 43
0.0000001
 40
0.0
 40
0.0
 40
0.0
 40
0.0
 40
0.1765295078
 40
0.3388900834
 40
0.4857675729
 40
0.6164303745
 40
0.7309643268
 40
0.782581488
 40
0.8307758093
 40
0.8759789938
 40
0.9187600543
 40
0.9598257898
 40
1.0
 40
1.0
 40
1.0
 40
1.0
 10
364.914080151
 20
143.5612735306
 30
0.0
 10
365.703106207
 20
143.892579465
 30
0.0
 10
367.1995936098
 20
144.5737769884
 30
0.0
 10
369.2698568965
 20
145.7006569701
 30
0.0
 10
371.051812209
 20
146.8780839073
 30
0.0
 10
372.5211041725
 20
148.0900497548
 30
0.0
 10
373.5018083108
 20
149.1522804356
 30
0.0
 10
374.0946905392
 20
150.0075156523
 30
0.0
 10
374.433498329
 20
150.6251487494
 30
0.0
 10
374.6804890611
 20
151.2392541738
 30
0.0
 10
374.834157055
 20
151.8478985116
 30
0.0
 10
374.8931798339
 20
152.4485115323
 30
0.0
 10
374.8687309511
 20
152.8436154549
 30
0.0
 10
374.8408739237
 20
153.036364963
 30
0.0
  0
SPLINE
  5
40A
330
221
100
AcDbEntity
  8
02___PRT_ALL_AXES
  6
Continuous
 62
     7
100
AcDbSpline
 70
     0
 71
     3
 72
    29
 73
    25
 74
     0
 42
0.000000001
 43
0.0000001
 40
0.0
 40
0.0
 40
0.0
 40
0.0
 40
0.0147965987
 40
0.0301022936
 40
0.046367883
 40
0.0639512415
 40
0.0831104571
 40
0.1040142036
 40
0.1267579115
 40
0.1513790415
 40
0.17786941
 40
0.2061844343
 40
0.2362502087
 40
0.2679688762
 40
0.3358647636
 40
0.4087593291
 40
0.4853334931
 40
0.5641408855
 40
0.6436616609
 40
0.7223531571
 40
0.7986993207
 40
0.8712613421
 40
0.9387316643
 40
1.0
 40
1.0
 40
1.0
 40
1.0
 10
322.7313477904
 20
146.5603246941
 30
0.0
 10
322.6964071989
 20
146.8020238013
 30
0.0
 10
322.676013858
 20
147.3024484903
 30
0.0
 10
322.7968872185
 20
148.0625248313
 30
0.0
 10
323.0659215766
 20
148.8319282419
 30
0.0
 10
323.4795691731
 20
149.606131849
 30
0.0
 10
324.0343204183
 20
150.3818465872
 30
0.0
 10
324.7266562978
 20
151.1556412283
 30
0.0
 10
325.5526957914
 20
151.9238919982
 30
0.0
 10
326.5079686277
 20
152.6827383104
 30
0.0
 10
327.5873105528
 20
153.4281896118
 30
0.0
 10
328.7848344614
 20
154.1562032216
 30
0.0
 10
330.0939559085
 20
154.86280513
 30
0.0
 10
332.022644675
 20
155.7921953599
 30
0.0
 10
334.6633570182
 20
156.8649269913
 30
0.0
 10
338.0752054298
 20
157.9814895913
 30
0.0
 10
341.7238457535
 20
158.9297895987
 30
0.0
 10
345.5279295965
 20
159.6884091536
 30
0.0
 10
349.4027215383
 20
160.2402908092
 30
0.0
 10
353.2617386598
 20
160.5731060966
 30
0.0
 10
357.018868419
 20
160.6796189163
 30
0.0
 10
360.5907159812
 20
160.5577895588
 30
0.0
 10
363.8977863203
 20
160.210896935
 30
0.0
 10
365.9890064241
 20
159.8141550957
 30
0.0
 10
366.9707231408
 20
159.5717220655
 30
0.0
  0
SPLINE
  5
40B
330
221
100
AcDbEntity
  8
7_ALL_FEATURES
  6
Continuous
 62
     7
100
AcDbSpline
 70
     0
 71
     3
 72
    15
 73
    11
 74
     0
 42
0.000000001
 43
0.0000001
 40
0.0
 40
0.0
 40
0.0
 40
0.0
 40
0.1698458072
 40
0.3258420674
 40
0.4677198104
 40
0.5957176287
 40
0.7106949757
 40
0.8143674694
 40
0.909507824
 40
1.0
 40
1.0
 40
1.0
 40
1.0
 10
336.8914337683
 20
131.3726736651
 30
0.0
 10
336.4835773566
 20
131.4733930112
 30
0.0
 10
335.7067301814
 20
131.6908559614
 30
0.0
 10
334.618060479
 20
132.0859306307
 30
0.0
 10
333.6625758501
 20
132.533450015
 30
0.0
 10
332.8478543112
 20
133.0302648208
 30
0.0
 10
332.1803563608
 20
133.5735321004
 30
0.0
 10
331.6661964143
 20
134.1610639741
 30
0.0
 10
331.3125679437
 20
134.7897458459
 30
0.0
 10
331.1881292233
 20
135.237531273
 30
0.0
 10
331.1561085234
 20
135.4590587527
 30
0.0
  0
SPLINE
  5
40C
330
221
100
AcDbEntity
  8
7_ALL_FEATURES
  6
Continuous
 62
     7
100
AcDbSpline
 70
     0
 71
     3
 72
    15
 73
    11
 74
     0
 42
0.000000001
 43
0.0000001
 40
0.0
 40
0.0
 40
0.0
 40
0.0
 40
0.1039058443
 40
0.2187650844
 40
0.3424605041
 40
0.4724971773
 40
0.6061393174
 40
0.7405197579
 40
0.8727436706
 40
1.0
 40
1.0
 40
1.0
 40
1.0
 10
336.8914337683
 20
131.3726736651
 30
0.0
 10
337.6621601755
 20
131.1823442807
 30
0.0
 10
339.3084230505
 20
130.8751292072
 30
0.0
 10
341.914749132
 20
130.6186351557
 30
0.0
 10
344.7323168246
 20
130.5479064764
 30
0.0
 10
347.6915488117
 20
130.6651865406
 30
0.0
 10
350.7195283145
 20
130.9678931128
 30
0.0
 10
353.7413152612
 20
131.4486464966
 30
0.0
 10
356.6819389045
 20
132.0954819686
 30
0.0
 10
358.5897246529
 20
132.6408654871
 30
0.0
 10
359.5145745999
 20
132.9408525396
 30
0.0
  0
SPLINE
  5
40D
330
221
100
AcDbEntity
  8
7_ALL_FEATURES
  6
Continuous
 62
     7
100
AcDbSpline
 70
     0
 71
     3
 72
    14
 73
    10
 74
     0
 42
0.000000001
 43
0.0000001
 40
0.0
 40
0.0
 40
0.0
 40
0.0
 40
0.304350872
 40
0.440306381
 40
0.5662772185
 40
0.68341476
 40
0.7933047322
 40
0.8980096016
 40
1.0
 40
1.0
 40
1.0
 40
1.0
 10
367.6610600398
 20
137.0705214653
 30
0.0
 10
368.0203234715
 20
137.3798331989
 30
0.0
 10
368.5142333709
 20
137.8614136214
 30
0.0
 10
369.053668442
 20
138.5608698916
 30
0.0
 10
369.3629681553
 20
139.0653929368
 30
0.0
 10
369.590707062
 20
139.5676337047
 30
0.0
 10
369.7352343266
 20
140.0658519553
 30
0.0
 10
369.795090294
 20
140.5575724886
 30
0.0
 10
369.7776969821
 20
140.8810650588
 30
0.0
 10
369.7549699986
 20
141.0382962063
 30
0.0
  0
SPLINE
  5
40E
330
221
100
AcDbEntity
  8
02___PRT_ALL_AXES
  6
Continuous
 62
     7
100
AcDbSpline
 70
     0
 71
     3
 72
    15
 73
    11
 74
     0
 42
0.000000001
 43
0.0000001
 40
0.0
 40
0.0
 40
0.0
 40
0.0
 40
0.0904921311
 40
0.1856323257
 40
0.2893045478
 40
0.4042820439
 40
0.5322789873
 40
0.6741593359
 40
0.8301509887
 40
1.0
 40
1.0
 40
1.0
 40
1.0
 10
374.6913529338
 20
154.0708014752
 30
0.0
 10
374.6482430261
 20
154.3690112577
 30
0.0
 10
374.4807439712
 20
154.9718025499
 30
0.0
 10
374.0047072137
 20
155.8181081376
 30
0.0
 10
373.3125743011
 20
156.6090222668
 30
0.0
 10
372.4140190677
 20
157.3403419586
 30
0.0
 10
371.3172754257
 20
158.0091431002
 30
0.0
 10
370.0310464025
 20
158.6115582091
 30
0.0
 10
368.5655273732
 20
159.1434031
 30
0.0
 10
367.5197720656
 20
159.4361355034
 30
0.0
 10
366.9707231408
 20
159.5717220655
 30
0.0
  0
SPLINE
  5
40F
330
221
100
AcDbEntity
  8
7_ALL_FEATURES
  6
Continuous
 62
     9
100
AcDbSpline
 70
     0
 71
     3
 72
     9
 73
     5
 74
     0
 42
0.000000001
 43
0.0000001
 40
0.0
 40
0.0
 40
0.0
 40
0.0
 40
0.2596503534
 40
1.0
 40
1.0
 40
1.0
 40
1.0
 10
362.8643309621
 20
153.9082528232
 30
0.0
 10
362.9009742877
 20
153.8692081644
 30
0.0
 10
363.0385021933
 20
153.7155408831
 30
0.0
 10
363.1609263665
 20
153.5480281193
 30
0.0
 10
363.2395096406
 20
153.4171256939
 30
0.0
  0
SPLINE
  5
410
330
221
100
AcDbEntity
  8
7_ALL_FEATURES
  6
Continuous
 62
     9
100
AcDbSpline
 70
     0
 71
     3
 72
     9
 73
     5
 74
     0
 42
0.000000001
 43
0.0000001
 40
0.0
 40
0.0
 40
0.0
 40
0.0
 40
0.2539019225
 40
1.0
 40
1.0
 40
1.0
 40
1.0
 10
363.2635053434
 20
153.376287147
 30
0.0
 10
363.2777935282
 20
153.3514332616
 30
0.0
 10
363.3323691462
 20
153.2525822188
 30
0.0
 10
363.3799410391
 20
153.149836547
 30
0.0
 10
363.4108860927
 20
153.071483551
 30
0.0
  0
SPLINE
  5
411
330
221
100
AcDbEntity
  8
02___PRT_ALL_AXES
  6
Continuous
 62
     7
100
AcDbSpline
 70
     0
 71
     3
 72
    27
 73
    23
 74
     0
 42
0.000000001
 43
0.0000001
 40
0.0
 40
0.0
 40
0.0
 40
0.0
 40
0.0147972087
 40
0.0301035994
 40
0.0463702401
 40
0.0639546185
 40
0.0831148773
 40
0.1040199934
 40
0.1267648174
 40
0.1513875005
 40
0.2061719695
 40
0.2679428557
 40
0.3358417217
 40
0.4087392125
 40
0.485316237
 40
0.5641263854
 40
0.6436498796
 40
0.7223439788
 40
0.7986924932
 40
0.8712573479
 40
0.9387289709
 40
1.0
 40
1.0
 40
1.0
 40
1.0
 10
333.7161119495
 20
149.2041603661
 30
0.0
 10
333.696153468
 20
149.3422746769
 30
0.0
 10
333.6845369074
 20
149.6282320575
 30
0.0
 10
333.7536121355
 20
150.0625621032
 30
0.0
 10
333.9073895633
 20
150.50221299
 30
0.0
 10
334.1437773021
 20
150.9446108744
 30
0.0
 10
334.4607912071
 20
151.3878784982
 30
0.0
 10
334.8564402968
 20
151.8300262425
 30
0.0
 10
335.3284597013
 20
152.2690553053
 30
0.0
 10
336.0835209631
 20
152.8686308752
 30
0.0
 10
337.2084574172
 20
153.5872594131
 30
0.0
 10
338.7629634663
 20
154.3726519502
 30
0.0
 10
340.5345504955
 20
155.0924325753
 30
0.0
 10
342.4842451757
 20
155.7304438527
 30
0.0
 10
344.569148334
 20
156.27231597
 30
0.0
 10
346.7428959086
 20
156.7058046323
 30
0.0
 10
348.9570378019
 20
157.0211542394
 30
0.0
 10
351.1621638852
 20
157.2113242081
 30
0.0
 10
353.3090718273
 20
157.2721841031
 30
0.0
 10
355.3500958032
 20
157.2025559021
 30
0.0
 10
357.2398301207
 20
157.0043452525
 30
0.0
 10
358.4347954662
 20
156.7776342585
 30
0.0
 10
358.9957757586
 20
156.6391012684
 30
0.0
  0
SPLINE
  5
412
330
221
100
AcDbEntity
  8
7_ALL_FEATURES
  6
Continuous
 62
     9
100
AcDbSpline
 70
     0
 71
     3
 72
    34
 73
    30
 74
     0
 42
0.000000001
 43
0.0000001
 40
0.0
 40
0.0
 40
0.0
 40
0.0
 40
0.0302089387
 40
0.0578004392
 40
0.0827107285
 40
0.1050126885
 40
0.1249146901
 40
0.1428162787
 40
0.1593541076
 40
0.1753851169
 40
0.1918643277
 40
0.2096594928
 40
0.2294215741
 40
0.2515661139
 40
0.2763117756
 40
0.3037288977
 40
0.3337815648
 40
0.3663526795
 40
0.4012631172
 40
0.4382871206
 40
0.5175668816
 40
0.6017702582
 40
0.688159904
 40
0.7738771544
 40
0.8561004195
 40
0.8950788203
 40
0.9322246074
 40
0.9672817861
 40
1.0
 40
1.0
 40
1.0
 40
1.0
 10
360.9834233855
 20
157.6466924193
 30
0.0
 10
361.3790998042
 20
157.5489808987
 30
0.0
 10
362.1304468104
 20
157.3371578448
 30
0.0
 10
363.1779566713
 20
156.948502485
 30
0.0
 10
364.087155705
 20
156.5059667903
 30
0.0
 10
364.8498830391
 20
156.0129524272
 30
0.0
 10
365.4594181874
 20
155.4722474735
 30
0.0
 10
365.908695125
 20
154.8859236566
 30
0.0
 10
366.1886744122
 20
154.2572454714
 30
0.0
 10
366.2901991866
 20
153.5951150935
 30
0.0
 10
366.2108471868
 20
152.9136439255
 30
0.0
 10
365.9566433826
 20
152.2243651292
 30
0.0
 10
365.5354446337
 20
151.5331477727
 30
0.0
 10
364.9533731845
 20
150.8440567334
 30
0.0
 10
364.2162359153
 20
150.1616629573
 30
0.0
 10
363.3307104864
 20
149.4912584611
 30
0.0
 10
362.3047386922
 20
148.8387187264
 30
0.0
 10
361.1477538702
 20
148.210037915
 30
0.0
 10
359.870570383
 20
147.611050216
 30
0.0
 10
357.9800468849
 20
146.8422796172
 30
0.0
 10
355.4042981167
 20
146.0034163517
 30
0.0
 10
352.123394594
 20
145.2156535273
 30
0.0
 10
348.7079417782
 20
144.6554949931
 30
0.0
 10
345.2878936135
 20
144.3443723549
 30
0.0
 10
342.4932451252
 20
144.3010874947
 30
0.0
 10
340.3588881842
 20
144.4065943466
 30
0.0
 10
338.8651826829
 20
144.5506186291
 30
0.0
 10
337.4644737393
 20
144.7594362108
 30
0.0
 10
336.5688164107
 20
144.9472148809
 30
0.0
 10
336.1402735275
 20
145.0530427108
 30
0.0
  0
SPLINE
  5
413
330
221
100
AcDbEntity
  8
7_ALL_FEATURES
  6
Continuous
 62
     9
100
AcDbSpline
 70
     0
 71
     3
 72
     9
 73
     5
 74
     0
 42
0.000000001
 43
0.0000001
 40
0.0
 40
0.0
 40
0.0
 40
0.0
 40
0.4813735454
 40
1.0
 40
1.0
 40
1.0
 40
1.0
 10
333.8283646404
 20
148.7332304928
 30
0.0
 10
333.8384875458
 20
148.9008081656
 30
0.0
 10
333.9004917263
 20
149.2472136072
 30
0.0
 10
334.0307403966
 20
149.5730685329
 30
0.0
 10
334.1111316115
 20
149.7350968261
 30
0.0
  0
SPLINE
  5
414
330
221
100
AcDbEntity
  8
7_ALL_FEATURES
  6
Continuous
 62
     9
100
AcDbSpline
 70
     0
 71
     3
 72
    34
 73
    30
 74
     0
 42
0.000000001
 43
0.0000001
 40
0.0
 40
0.0
 40
0.0
 40
0.0
 40
0.0302089387
 40
0.0578004392
 40
0.0827107285
 40
0.1050126885
 40
0.1249146901
 40
0.1428162787
 40
0.1593541076
 40
0.1753851169
 40
0.1918643277
 40
0.2096594928
 40
0.2294215741
 40
0.2515661139
 40
0.2763117756
 40
0.3037288977
 40
0.3337815648
 40
0.3663526795
 40
0.4012631172
 40
0.4382871206
 40
0.5175668816
 40
0.6017702582
 40
0.688159904
 40
0.7738771544
 40
0.8561004195
 40
0.8950788203
 40
0.9322246074
 40
0.9672817861
 40
1.0
 40
1.0
 40
1.0
 40
1.0
 10
336.1402735275
 20
145.0530427108
 30
0.0
 10
335.7445971088
 20
145.1507542314
 30
0.0
 10
334.9932501025
 20
145.3625772853
 30
0.0
 10
333.9457402416
 20
145.7512326451
 30
0.0
 10
333.036541208
 20
146.1937683398
 30
0.0
 10
332.2738138739
 20
146.6867827029
 30
0.0
 10
331.6642787256
 20
147.2274876566
 30
0.0
 10
331.215001788
 20
147.8138114735
 30
0.0
 10
330.9350225007
 20
148.4424896587
 30
0.0
 10
330.8334977264
 20
149.1046200366
 30
0.0
 10
330.9128497262
 20
149.7860912047
 30
0.0
 10
331.1670535304
 20
150.4753700009
 30
0.0
 10
331.5882522792
 20
151.1665873575
 30
0.0
 10
332.1703237285
 20
151.8556783967
 30
0.0
 10
332.9074609976
 20
152.5380721728
 30
0.0
 10
333.7929864266
 20
153.208476669
 30
0.0
 10
334.8189582208
 20
153.8610164037
 30
0.0
 10
335.9759430427
 20
154.4896972151
 30
0.0
 10
337.25312653
 20
155.0886849141
 30
0.0
 10
339.143650028
 20
155.8574555129
 30
0.0
 10
341.7193987962
 20
156.6963187784
 30
0.0
 10
345.000302319
 20
157.4840816028
 30
0.0
 10
348.4157551347
 20
158.044240137
 30
0.0
 10
351.8358032994
 20
158.3553627752
 30
0.0
 10
354.6304517877
 20
158.3986476354
 30
0.0
 10
356.7648087288
 20
158.2931407835
 30
0.0
 10
358.2585142301
 20
158.149116501
 30
0.0
 10
359.6592231737
 20
157.9402989193
 30
0.0
 10
360.5548805023
 20
157.7525202492
 30
0.0
 10
360.9834233855
 20
157.6466924193
 30
0.0
  0
SPLINE
  5
415
330
221
100
AcDbEntity
  8
7_ALL_FEATURES
  6
Continuous
 62
     9
100
AcDbSpline
 70
     0
 71
     3
 72
    34
 73
    30
 74
     0
 42
0.000000001
 43
0.0000001
 40
0.0
 40
0.0
 40
0.0
 40
0.0
 40
0.030208941
 40
0.0578004333
 40
0.0827107027
 40
0.1050126522
 40
0.1249146426
 40
0.142816223
 40
0.1593540438
 40
0.1753850432
 40
0.1918642425
 40
0.2096593992
 40
0.2294214773
 40
0.2515660156
 40
0.2763116907
 40
0.3037288339
 40
0.3337815289
 40
0.3663526805
 40
0.4012631587
 40
0.438287208
 40
0.5175670521
 40
0.601770474
 40
0.6881601045
 40
0.7738772933
 40
0.8561004907
 40
0.8950788615
 40
0.932224617
 40
0.9672817825
 40
1.0
 40
1.0
 40
1.0
 40
1.0
 10
335.9454659647
 20
144.9352881564
 30
0.0
 10
335.5435026073
 20
145.0345522243
 30
0.0
 10
334.7802175328
 20
145.2497409667
 30
0.0
 10
333.7160640542
 20
145.6445714391
 30
0.0
 10
332.7924192562
 20
146.0941384106
 30
0.0
 10
332.0175732371
 20
146.5949856996
 30
0.0
 10
331.398353407
 20
147.1442815598
 30
0.0
 10
330.9419377396
 20
147.7399208241
 30
0.0
 10
330.6575092496
 20
148.3785874492
 30
0.0
 10
330.554371052
 20
149.0512379345
 30
0.0
 10
330.634982527
 20
149.7435367228
 30
0.0
 10
330.8932246747
 20
150.4437674728
 30
0.0
 10
331.3211153732
 20
151.1459676525
 30
0.0
 10
331.9124347431
 20
151.8460083603
 30
0.0
 10
332.6612846312
 20
152.5392451515
 30
0.0
 10
333.5608806903
 20
153.2203024517
 30
0.0
 10
334.6031550397
 20
153.8832112421
 30
0.0
 10
335.7785245099
 20
154.5218818118
 30
0.0
 10
337.0760026987
 20
155.1303875967
 30
0.0
 10
338.9965670249
 20
155.9113737948
 30
0.0
 10
341.6132442473
 20
156.7635663008
 30
0.0
 10
344.9462797688
 20
157.5638456234
 30
0.0
 10
348.4160004466
 20
158.132903773
 30
0.0
 10
351.8903878669
 20
158.4489692453
 30
0.0
 10
354.7294383889
 20
158.4929415724
 30
0.0
 10
356.8977063758
 20
158.3857581785
 30
0.0
 10
358.4151443682
 20
158.2394456117
 30
0.0
 10
359.8381086254
 20
158.0273101166
 30
0.0
 10
360.7479969464
 20
157.8365478953
 30
0.0
 10
361.1833490023
 20
157.7290385535
 30
0.0
  0
SPLINE
  5
416
330
221
100
AcDbEntity
  8
02___PRT_ALL_AXES
  6
Continuous
 62
     7
100
AcDbSpline
 70
     0
 71
     3
 72
    15
 73
    11
 74
     0
 42
0.000000001
 43
0.0000001
 40
0.0
 40
0.0
 40
0.0
 40
0.0
 40
0.1635544433
 40
0.3157347054
 40
0.4562817572
 40
0.5852392261
 40
0.7029767835
 40
0.8103160685
 40
0.9086397598
 40
1.0
 40
1.0
 40
1.0
 40
1.0
 10
330.4519775834
 20
141.0594041037
 30
0.0
 10
329.976258853
 20
141.1768819172
 30
0.0
 10
329.0636876545
 20
141.4283527643
 30
0.0
 10
327.7704976103
 20
141.8746759393
 30
0.0
 10
326.6086565537
 20
142.374302825
 30
0.0
 10
325.5851927997
 20
142.924364458
 30
0.0
 10
324.7061872939
 20
143.5220336302
 30
0.0
 10
323.9770025578
 20
144.1647703954
 30
0.0
 10
323.4029585355
 20
144.8496255354
 30
0.0
 10
323.1193747365
 20
145.3468966416
 30
0.0
 10
323.0092415861
 20
145.5974777137
 30
0.0
  0
SPLINE
  5
417
330
221
100
AcDbEntity
  8
02___PRT_ALL_AXES
  6
Continuous
 62
     7
100
AcDbSpline
 70
     0
 71
     3
 72
     9
 73
     5
 74
     0
 42
0.000000001
 43
0.0000001
 40
0.0
 40
0.0
 40
0.0
 40
0.0
 40
0.5040276824
 40
1.0
 40
1.0
 40
1.0
 40
1.0
 10
323.0092415861
 20
145.5974777137
 30
0.0
 10
322.9413392305
 20
145.7519729315
 30
0.0
 10
322.826153979
 20
146.0675405814
 30
0.0
 10
322.7551070672
 20
146.3959715525
 30
0.0
 10
322.7313477904
 20
146.5603246941
 30
0.0
  0
SPLINE
  5
418
330
221
100
AcDbEntity
  8
7_ALL_FEATURES
  6
Continuous
 62
     9
100
AcDbSpline
 70
     0
 71
     3
 72
    34
 73
    30
 74
     0
 42
0.000000001
 43
0.0000001
 40
0.0
 40
0.0
 40
0.0
 40
0.0
 40
0.030208941
 40
0.0578004333
 40
0.0827107027
 40
0.1050126522
 40
0.1249146426
 40
0.142816223
 40
0.1593540438
 40
0.1753850432
 40
0.1918642425
 40
0.2096593992
 40
0.2294214773
 40
0.2515660156
 40
0.2763116907
 40
0.3037288339
 40
0.3337815289
 40
0.3663526805
 40
0.4012631587
 40
0.438287208
 40
0.5175670521
 40
0.601770474
 40
0.6881601045
 40
0.7738772933
 40
0.8561004907
 40
0.8950788615
 40
0.932224617
 40
0.9672817825
 40
1.0
 40
1.0
 40
1.0
 40
1.0
 10
361.1833490023
 20
157.7290385535
 30
0.0
 10
361.5853123597
 20
157.6297744856
 30
0.0
 10
362.3485974343
 20
157.4145857432
 30
0.0
 10
363.4127509129
 20
157.0197552708
 30
0.0
 10
364.3363957109
 20
156.5701882993
 30
0.0
 10
365.11124173
 20
156.0693410102
 30
0.0
 10
365.7304615601
 20
155.52004515
 30
0.0
 10
366.1868772275
 20
154.9244058857
 30
0.0
 10
366.4713057175
 20
154.2857392607
 30
0.0
 10
366.5744439151
 20
153.6130887754
 30
0.0
 10
366.4938324401
 20
152.9207899871
 30
0.0
 10
366.2355902924
 20
152.2205592371
 30
0.0
 10
365.8076995938
 20
151.5183590573
 30
0.0
 10
365.2163802239
 20
150.8183183496
 30
0.0
 10
364.4675303359
 20
150.1250815584
 30
0.0
 10
363.5679342768
 20
149.4440242582
 30
0.0
 10
362.5256599273
 20
148.7811154678
 30
0.0
 10
361.3502904571
 20
148.1424448981
 30
0.0
 10
360.0528122684
 20
147.5339391132
 30
0.0
 10
358.1322479422
 20
146.752952915
 30
0.0
 10
355.5155707198
 20
145.900760409
 30
0.0
 10
352.1825351983
 20
145.1004810865
 30
0.0
 10
348.7128145205
 20
144.5314229369
 30
0.0
 10
345.2384271002
 20
144.2153574646
 30
0.0
 10
342.3993765781
 20
144.1713851375
 30
0.0
 10
340.2311085912
 20
144.2785685314
 30
0.0
 10
338.7136705989
 20
144.4248810982
 30
0.0
 10
337.2907063417
 20
144.6370165933
 30
0.0
 10
336.3808180207
 20
144.8277788145
 30
0.0
 10
335.9454659647
 20
144.9352881564
 30
0.0
  0
SPLINE
  5
419
330
221
100
AcDbEntity
  8
02___PRT_ALL_AXES
  6
Continuous
 62
     7
100
AcDbSpline
 70
     0
 71
     3
 72
    29
 73
    25
 74
     0
 42
0.000000001
 43
0.0000001
 40
0.0
 40
0.0
 40
0.0
 40
0.0
 40
0.0612683357
 40
0.1287386579
 40
0.2013006793
 40
0.2776468429
 40
0.3563383391
 40
0.4358591145
 40
0.5146665069
 40
0.5912406709
 40
0.6641352364
 40
0.7320311238
 40
0.7637497913
 40
0.7938155657
 40
0.82213059
 40
0.8486209585
 40
0.8732420885
 40
0.8959857964
 40
0.9168895429
 40
0.9360487585
 40
0.953632117
 40
0.9698977064
 40
0.9852034013
 40
1.0
 40
1.0
 40
1.0
 40
1.0
 10
330.4519775834
 20
141.0594041037
 30
0.0
 10
331.4336943001
 20
140.8169710735
 30
0.0
 10
333.5249144039
 20
140.4202292342
 30
0.0
 10
336.831984743
 20
140.0733366104
 30
0.0
 10
340.4038323052
 20
139.9515072529
 30
0.0
 10
344.1609620644
 20
140.0580200727
 30
0.0
 10
348.0199791859
 20
140.39083536
 30
0.0
 10
351.8947711277
 20
140.9427170156
 30
0.0
 10
355.6988549707
 20
141.7013365706
 30
0.0
 10
359.3474952944
 20
142.6496365779
 30
0.0
 10
362.759343706
 20
143.7661991779
 30
0.0
 10
365.4000560492
 20
144.8389308093
 30
0.0
 10
367.3287448157
 20
145.7683210392
 30
0.0
 10
368.6378662628
 20
146.4749229476
 30
0.0
 10
369.8353901714
 20
147.2029365574
 30
0.0
 10
370.9147320965
 20
147.9483878588
 30
0.0
 10
371.8700049328
 20
148.707234171
 30
0.0
 10
372.6960444264
 20
149.475484941
 30
0.0
 10
373.3883803059
 20
150.249279582
 30
0.0
 10
373.9431315511
 20
151.0249943202
 30
0.0
 10
374.3567791476
 20
151.7991979273
 30
0.0
 10
374.6258135057
 20
152.5686013379
 30
0.0
 10
374.7466868662
 20
153.3286776789
 30
0.0
 10
374.7262935253
 20
153.8291023679
 30
0.0
 10
374.6913529338
 20
154.0708014752
 30
0.0
  0
SPLINE
  5
41A
330
221
100
AcDbEntity
  8
02___PRT_ALL_AXES
  6
Continuous
 62
     7
100
AcDbSpline
 70
     0
 71
     3
 72
    15
 73
    11
 74
     0
 42
0.000000001
 43
0.0000001
 40
0.0
 40
0.0
 40
0.0
 40
0.0
 40
0.0904925094
 40
0.1856326147
 40
0.289303375
 40
0.4042800133
 40
0.5322782429
 40
0.6741515285
 40
0.8301636188
 40
1.0
 40
1.0
 40
1.0
 40
1.0
 10
363.4075849634
 20
153.495574764
 30
0.0
 10
363.3829592659
 20
153.6659865877
 30
0.0
 10
363.2872708189
 20
154.0104560513
 30
0.0
 10
363.015255569
 20
154.4940769367
 30
0.0
 10
362.619766591
 20
154.9460536013
 30
0.0
 10
362.1063078248
 20
155.3639772751
 30
0.0
 10
361.4795919064
 20
155.746150727
 30
0.0
 10
360.7445703412
 20
156.0904294061
 30
0.0
 10
359.907100914
 20
156.3943280646
 30
0.0
 10
359.3095023765
 20
156.5616270915
 30
0.0
 10
358.9957757586
 20
156.6391012684
 30
0.0
  0
SPLINE
  5
41B
330
221
100
AcDbEntity
  8
7_ALL_FEATURES
  6
Continuous
 62
     7
100
AcDbSpline
 70
     0
 71
     3
 72
     9
 73
     5
 74
     0
 42
0.000000001
 43
0.0000001
 40
0.0
 40
0.0
 40
0.0
 40
0.0
 40
0.47562695
 40
1.0
 40
1.0
 40
1.0
 40
1.0
 10
338.7950913665
 20
118.2025299476
 30
0.0
 10
339.5364509449
 20
118.0194526443
 30
0.0
 10
341.1168857755
 20
117.7210255105
 30
0.0
 10
342.7155850254
 20
117.5564201216
 30
0.0
 10
343.5555115458
 20
117.4989057636
 30
0.0
  0
SPLINE
  5
41C
330
221
100
AcDbEntity
  8
02___PRT_ALL_AXES
  6
Continuous
 62
     7
100
AcDbSpline
 70
     0
 71
     3
 72
    15
 73
    11
 74
     0
 42
0.000000001
 43
0.0000001
 40
0.0
 40
0.0
 40
0.0
 40
0.0
 40
0.1698180492
 40
0.3258452782
 40
0.4677183241
 40
0.59571122
 40
0.71069352
 40
0.8143676222
 40
0.9095080057
 40
1.0
 40
1.0
 40
1.0
 40
1.0
 10
342.1838012272
 20
94.7582950576
 30
0.0
 10
341.7760293123
 20
94.8589935374
 30
0.0
 10
340.999218735
 20
95.0764821795
 30
0.0
 10
339.910580367
 20
95.4714797982
 30
0.0
 10
338.9550783216
 20
95.9189842086
 30
0.0
 10
338.1404156111
 20
96.4157899574
 30
0.0
 10
337.4729050903
 20
96.9589823977
 30
0.0
 10
336.9587095259
 20
97.5464665788
 30
0.0
 10
336.6050893615
 20
98.1751125523
 30
0.0
 10
336.4805610171
 20
98.622851597
 30
0.0
 10
336.4485282758
 20
98.8443669877
 30
0.0
  0
SPLINE
  5
41D
330
221
100
AcDbEntity
  8
02___PRT_ALL_AXES
  6
Continuous
 62
     7
100
AcDbSpline
 70
     0
 71
     3
 72
    11
 73
     7
 74
     0
 42
0.000000001
 43
0.0000001
 40
0.0
 40
0.0
 40
0.0
 40
0.0
 40
0.2236345941
 40
0.4667014205
 40
0.7265136963
 40
1.0
 40
1.0
 40
1.0
 40
1.0
 10
342.1838012272
 20
94.7582950576
 30
0.0
 10
342.7807580769
 20
94.6108777268
 30
0.0
 10
344.0406781745
 20
94.3592244547
 30
0.0
 10
346.0237589605
 20
94.10834407
 30
0.0
 10
348.155178437
 20
93.9712258408
 30
0.0
 10
349.6222109282
 20
93.9574171754
 30
0.0
 10
350.3740815819
 20
93.9689046768
 30
0.0
  0
SPLINE
  5
41E
330
221
100
AcDbEntity
  8
02___PRT_ALL_AXES
  6
Continuous
 62
     7
100
AcDbSpline
 70
     0
 71
     3
 72
    23
 73
    19
 74
     0
 42
0.000000001
 43
0.0000001
 40
0.0
 40
0.0
 40
0.0
 40
0.0
 40
0.159207821
 40
0.3216369361
 40
0.4016031725
 40
0.4794276643
 40
0.5541888976
 40
0.6250321232
 40
0.6911941808
 40
0.7520336217
 40
0.8070705546
 40
0.8560428634
 40
0.8989931529
 40
0.9183618264
 40
0.93645594
 40
0.9694435491
 40
0.9848870814
 40
1.0
 40
1.0
 40
1.0
 40
1.0
 10
350.3740815819
 20
93.9689046768
 30
0.0
 10
351.8879624513
 20
93.9920345973
 30
0.0
 10
354.9452849497
 20
94.1894777429
 30
0.0
 10
358.7257041071
 20
94.7666361251
 30
0.0
 10
361.6996221196
 20
95.4262600736
 30
0.0
 10
363.8349144458
 20
96.0053678008
 30
0.0
 10
365.8563843884
 20
96.6629695046
 30
0.0
 10
367.7357408153
 20
97.3897751799
 30
0.0
 10
369.4468228504
 20
98.1754963789
 30
0.0
 10
370.9660279654
 20
99.0091003351
 30
0.0
 10
372.2729620669
 20
99.879269693
 30
0.0
 10
373.3501017285
 20
100.7744485241
 30
0.0
 10
374.0685074264
 20
101.5583589514
 30
0.0
 10
374.5025923803
 20
102.189592368
 30
0.0
 10
374.8233174546
 20
102.7785258569
 30
0.0
 10
375.0279644988
 20
103.3868633417
 30
0.0
 10
375.0860701439
 20
103.9904605699
 30
0.0
 10
375.0678546071
 20
104.2819872891
 30
0.0
 10
375.0472851641
 20
104.4242307563
 30
0.0
  0
SPLINE
  5
41F
330
221
100
AcDbEntity
  8
7_ALL_FEATURES
  6
Continuous
 62
     7
100
AcDbSpline
 70
     0
 71
     3
 72
     9
 73
     5
 74
     0
 42
0.000000001
 43
0.0000001
 40
0.0
 40
0.0
 40
0.0
 40
0.0
 40
0.2618402368
 40
1.0
 40
1.0
 40
1.0
 40
1.0
 10
337.6987440586
 20
125.7874294708
 30
0.0
 10
337.5373935047
 20
125.8272746756
 30
0.0
 10
336.9231238316
 20
125.9870677989
 30
0.0
 10
336.3166854928
 20
126.1781781973
 30
0.0
 10
335.8774575491
 20
126.3412748275
 30
0.0
  0
SPLINE
  5
420
330
221
100
AcDbEntity
  8
7_ALL_FEATURES
  6
Continuous
 62
     7
100
AcDbSpline
 70
     0
 71
     3
 72
     9
 73
     5
 74
     0
 42
0.000000001
 43
0.0000001
 40
0.0
 40
0.0
 40
0.0
 40
0.0
 40
0.2591009825
 40
1.0
 40
1.0
 40
1.0
 40
1.0
 10
335.8316852913
 20
126.3583640389
 30
0.0
 10
335.7424181129
 20
126.3918741117
 30
0.0
 10
335.3992718666
 20
126.524821771
 30
0.0
 10
335.0617899864
 20
126.6726337979
 30
0.0
 10
334.8165854142
 20
126.7918560511
 30
0.0
  0
SPLINE
  5
421
330
221
100
AcDbEntity
  8
7_ALL_FEATURES
  6
Continuous
 62
     7
100
AcDbSpline
 70
     0
 71
     3
 72
    14
 73
    10
 74
     0
 42
0.000000001
 43
0.0000001
 40
0.0
 40
0.0
 40
0.0
 40
0.0
 40
0.3010698815
 40
0.4362397304
 40
0.5620201803
 40
0.6795586171
 40
0.7903836737
 40
0.8964368949
 40
1.0
 40
1.0
 40
1.0
 40
1.0
 10
334.8165854142
 20
126.7918560511
 30
0.0
 10
334.4225906987
 20
126.9834223717
 30
0.0
 10
333.867009005
 20
127.2980186697
 30
0.0
 10
333.217735841
 20
127.7971345571
 30
0.0
 10
332.8180777052
 20
128.1778350159
 30
0.0
 10
332.4898418243
 20
128.5769630775
 30
0.0
 10
332.2348083179
 20
128.9934867161
 30
0.0
 10
332.0546288154
 20
129.4256230142
 30
0.0
 10
331.9850388556
 20
129.7243543712
 30
0.0
 10
331.9634711072
 20
129.8735014008
 30
0.0
  0
SPLINE
  5
422
330
221
100
AcDbEntity
  8
7_ALL_FEATURES
  6
Continuous
 62
     7
100
AcDbSpline
 70
     0
 71
     3
 72
    11
 73
     7
 74
     0
 42
0.000000001
 43
0.0000001
 40
0.0
 40
0.0
 40
0.0
 40
0.0
 40
0.2217747458
 40
0.4624439633
 40
0.7219960848
 40
1.0
 40
1.0
 40
1.0
 40
1.0
 10
335.2867424635
 20
119.5408621759
 30
0.0
 10
335.5269946998
 20
119.4000947803
 30
0.0
 10
336.0429501124
 20
119.1317627063
 30
0.0
 10
336.8793340038
 20
118.7801173676
 30
0.0
 10
337.8049398674
 20
118.4649295179
 30
0.0
 10
338.4562176331
 20
118.2862141557
 30
0.0
 10
338.7950913665
 20
118.2025299476
 30
0.0
  0
SPLINE
  5
423
330
221
100
AcDbEntity
  8
7_ALL_FEATURES
  6
Continuous
 62
     7
100
AcDbSpline
 70
     0
 71
     3
 72
     9
 73
     5
 74
     0
 42
0.000000001
 43
0.0000001
 40
0.0
 40
0.0
 40
0.0
 40
0.0
 40
0.2618402368
 40
1.0
 40
1.0
 40
1.0
 40
1.0
 10
341.2867897935
 20
100.9641219403
 30
0.0
 10
341.1254392396
 20
101.0039671451
 30
0.0
 10
340.5111695665
 20
101.1637602684
 30
0.0
 10
339.9047312277
 20
101.3548706667
 30
0.0
 10
339.465503284
 20
101.517967297
 30
0.0
  0
SPLINE
  5
424
330
221
100
AcDbEntity
  8
7_ALL_FEATURES
  6
Continuous
 62
     7
100
AcDbSpline
 70
     0
 71
     3
 72
     9
 73
     5
 74
     0
 42
0.000000001
 43
0.0000001
 40
0.0
 40
0.0
 40
0.0
 40
0.0
 40
0.2591009825
 40
1.0
 40
1.0
 40
1.0
 40
1.0
 10
339.4197310262
 20
101.5350565084
 30
0.0
 10
339.3304638478
 20
101.5685665812
 30
0.0
 10
338.9873176015
 20
101.7015142405
 30
0.0
 10
338.6498357213
 20
101.8493262674
 30
0.0
 10
338.4046311491
 20
101.9685485206
 30
0.0
  0
SPLINE
  5
425
330
221
100
AcDbEntity
  8
7_ALL_FEATURES
  6
Continuous
 62
     7
100
AcDbSpline
 70
     0
 71
     3
 72
    14
 73
    10
 74
     0
 42
0.000000001
 43
0.0000001
 40
0.0
 40
0.0
 40
0.0
 40
0.0
 40
0.3010698815
 40
0.4362397304
 40
0.5620201803
 40
0.6795586171
 40
0.7903836737
 40
0.8964368949
 40
1.0
 40
1.0
 40
1.0
 40
1.0
 10
338.4046311491
 20
101.9685485206
 30
0.0
 10
338.0106364336
 20
102.1601148412
 30
0.0
 10
337.4550547399
 20
102.4747111392
 30
0.0
 10
336.8057815759
 20
102.9738270266
 30
0.0
 10
336.4061234401
 20
103.3545274854
 30
0.0
 10
336.0778875591
 20
103.7536555469
 30
0.0
 10
335.8228540527
 20
104.1701791855
 30
0.0
 10
335.6426745503
 20
104.6023154836
 30
0.0
 10
335.5730845905
 20
104.9010468407
 30
0.0
 10
335.551516842
 20
105.0501938703
 30
0.0
  0
SPLINE
  5
426
330
221
100
AcDbEntity
  8
7_ALL_FEATURES
  6
Continuous
 62
     7
100
AcDbSpline
 70
     0
 71
     3
 72
    13
 73
     9
 74
     0
 42
0.000000001
 43
0.0000001
 40
0.0
 40
0.0
 40
0.0
 40
0.0
 40
0.1036096179
 40
0.2097080485
 40
0.4376338499
 40
0.5634842314
 40
0.6987241021
 40
1.0
 40
1.0
 40
1.0
 40
1.0
 10
374.1502737304
 20
110.630057639
 30
0.0
 10
374.1718530032
 20
110.480830915
 30
0.0
 10
374.189760602
 20
110.1744393034
 30
0.0
 10
374.1211333473
 20
109.5388391124
 30
0.0
 10
373.8909286061
 20
108.8994251756
 30
0.0
 10
373.5350231322
 20
108.2824125261
 30
0.0
 10
373.0532329297
 20
107.619153165
 30
0.0
 10
372.6090303795
 20
107.1600284491
 30
0.0
 10
372.285106094
 20
106.864566023
 30
0.0
  0
SPLINE
  5
427
330
221
100
AcDbEntity
  8
7_ALL_FEATURES
  6
Continuous
 62
     7
100
AcDbSpline
 70
     0
 71
     3
 72
    18
 73
    14
 74
     0
 42
0.000000001
 43
0.0000001
 40
0.0
 40
0.0
 40
0.0
 40
0.0
 40
0.042967353
 40
0.0900571047
 40
0.1411477255
 40
0.1960181518
 40
0.2543731448
 40
0.3158567453
 40
0.4465194817
 40
0.5843710783
 40
0.7253630176
 40
0.8652901881
 40
1.0
 40
1.0
 40
1.0
 40
1.0
 10
372.285106094
 20
106.864566023
 30
0.0
 10
372.0130232756
 20
106.6163899732
 30
0.0
 10
371.4147218709
 20
106.126599368
 30
0.0
 10
370.4168305369
 20
105.4408146702
 30
0.0
 10
369.2851280597
 20
104.7755793309
 30
0.0
 10
368.0292902696
 20
104.1365655343
 30
0.0
 10
366.6598930376
 20
103.5291897494
 30
0.0
 10
364.6574075194
 20
102.7529573874
 30
0.0
 10
361.9555555295
 20
101.9050746543
 30
0.0
 10
358.5351665537
 20
101.1054344509
 30
0.0
 10
354.9891461268
 20
100.5317953754
 30
0.0
 10
351.4393331822
 20
100.2038637053
 30
0.0
 10
349.0832891522
 20
100.1548158443
 30
0.0
 10
347.9289472581
 20
100.1781487221
 30
0.0
  0
SPLINE
  5
428
330
221
100
AcDbEntity
  8
7_ALL_FEATURES
  6
Continuous
 62
     7
100
AcDbSpline
 70
     0
 71
     3
 72
    11
 73
     7
 74
     0
 42
0.000000001
 43
0.0000001
 40
0.0
 40
0.0
 40
0.0
 40
0.0
 40
0.2714401581
 40
0.5298943185
 40
0.7733719974
 40
1.0
 40
1.0
 40
1.0
 40
1.0
 10
347.9289472581
 20
100.1781487221
 30
0.0
 10
347.3227697339
 20
100.1904014751
 30
0.0
 10
346.1397253648
 20
100.2399773221
 30
0.0
 10
344.4185614579
 20
100.3954896102
 30
0.0
 10
342.8072188403
 20
100.6288906309
 30
0.0
 10
341.7782334354
 20
100.8427608905
 30
0.0
 10
341.2867897935
 20
100.9641219403
 30
0.0
  0
SPLINE
  5
429
330
221
100
AcDbEntity
  8
7_ALL_FEATURES
  6
Continuous
 62
     7
100
AcDbSpline
 70
     0
 71
     3
 72
    13
 73
     9
 74
     0
 42
0.000000001
 43
0.0000001
 40
0.0
 40
0.0
 40
0.0
 40
0.0
 40
0.1036096179
 40
0.2097080485
 40
0.4376338499
 40
0.5634842314
 40
0.6987241021
 40
1.0
 40
1.0
 40
1.0
 40
1.0
 10
370.5622279955
 20
135.4533651695
 30
0.0
 10
370.5838072683
 20
135.3041384455
 30
0.0
 10
370.6017148671
 20
134.9977468339
 30
0.0
 10
370.5330876125
 20
134.3621466429
 30
0.0
 10
370.3028828712
 20
133.7227327061
 30
0.0
 10
369.9469773973
 20
133.1057200566
 30
0.0
 10
369.4651871948
 20
132.4424606955
 30
0.0
 10
369.0209846446
 20
131.9833359796
 30
0.0
 10
368.6970603591
 20
131.6878735535
 30
0.0
  0
SPLINE
  5
42A
330
221
100
AcDbEntity
  8
7_ALL_FEATURES
  6
Continuous
 62
     7
100
AcDbSpline
 70
     0
 71
     3
 72
    18
 73
    14
 74
     0
 42
0.000000001
 43
0.0000001
 40
0.0
 40
0.0
 40
0.0
 40
0.0
 40
0.042967353
 40
0.0900571047
 40
0.1411477255
 40
0.1960181518
 40
0.2543731448
 40
0.3158567453
 40
0.4465194817
 40
0.5843710783
 40
0.7253630176
 40
0.8652901881
 40
1.0
 40
1.0
 40
1.0
 40
1.0
 10
368.6970603591
 20
131.6878735535
 30
0.0
 10
368.4249775407
 20
131.4396975037
 30
0.0
 10
367.826676136
 20
130.9499068985
 30
0.0
 10
366.8287848021
 20
130.2641222007
 30
0.0
 10
365.6970823249
 20
129.5988868614
 30
0.0
 10
364.4412445348
 20
128.9598730648
 30
0.0
 10
363.0718473027
 20
128.3524972799
 30
0.0
 10
361.0693617846
 20
127.5762649179
 30
0.0
 10
358.3675097946
 20
126.7283821848
 30
0.0
 10
354.9471208188
 20
125.9287419814
 30
0.0
 10
351.401100392
 20
125.3551029059
 30
0.0
 10
347.8512874474
 20
125.0271712358
 30
0.0
 10
345.4952434173
 20
124.9781233748
 30
0.0
 10
344.3409015232
 20
125.0014562526
 30
0.0
  0
SPLINE
  5
42B
330
221
100
AcDbEntity
  8
7_ALL_FEATURES
  6
Continuous
 62
     7
100
AcDbSpline
 70
     0
 71
     3
 72
    11
 73
     7
 74
     0
 42
0.000000001
 43
0.0000001
 40
0.0
 40
0.0
 40
0.0
 40
0.0
 40
0.2714401581
 40
0.5298943185
 40
0.7733719974
 40
1.0
 40
1.0
 40
1.0
 40
1.0
 10
344.3409015232
 20
125.0014562526
 30
0.0
 10
343.7347239991
 20
125.0137090056
 30
0.0
 10
342.5516796299
 20
125.0632848527
 30
0.0
 10
340.830515723
 20
125.2187971407
 30
0.0
 10
339.2191731055
 20
125.4521981614
 30
0.0
 10
338.1901877006
 20
125.666068421
 30
0.0
 10
337.6987440586
 20
125.7874294708
 30
0.0
  0
SPLINE
  5
42C
330
221
100
AcDbEntity
  8
7_ALL_FEATURES
  6
Continuous
 62
     7
100
AcDbSpline
 70
     0
 71
     3
 72
    27
 73
    23
 74
     0
 42
0.000000001
 43
0.0000001
 40
0.0
 40
0.0
 40
0.0
 40
0.0
 40
0.0596016508
 40
0.1250157381
 40
0.195270188
 40
0.2692221832
 40
0.3456108615
 40
0.4231017837
 40
0.5003282463
 40
0.5759312341
 40
0.6485996937
 40
0.7171127608
 40
0.7803867255
 40
0.8375321206
 40
0.8636110685
 40
0.8879568219
 40
0.9105541635
 40
0.9314274716
 40
0.9506445185
 40
0.9683336192
 40
0.9846917189
 40
1.0
 40
1.0
 40
1.0
 40
1.0
 10
338.197083744
 20
122.3397478693
 30
0.0
 10
338.8908315667
 20
122.1684281963
 30
0.0
 10
340.3650842244
 20
121.8847917795
 30
0.0
 10
342.6939399347
 20
121.6273247669
 30
0.0
 10
345.2067221651
 20
121.5218036129
 30
0.0
 10
347.8525259017
 20
121.5707191084
 30
0.0
 10
350.5779177458
 20
121.7732911041
 30
0.0
 10
353.3275556367
 20
122.1255338838
 30
0.0
 10
356.0455888123
 20
122.6203186986
 30
0.0
 10
358.6768366921
 20
123.2475359191
 30
0.0
 10
361.1679581569
 20
123.9943121659
 30
0.0
 10
363.4688156187
 20
124.845317437
 30
0.0
 10
365.5330690771
 20
125.7831298295
 30
0.0
 10
367.0667180812
 20
126.6457291487
 30
0.0
 10
368.1345116131
 20
127.3702357301
 30
0.0
 10
368.8274327184
 20
127.906426359
 30
0.0
 10
369.433612148
 20
128.4495245071
 30
0.0
 10
369.9501479166
 20
128.996911907
 30
0.0
 10
370.3743240111
 20
129.5462579774
 30
0.0
 10
370.7039862463
 20
130.0952395176
 30
0.0
 10
370.9367621845
 20
130.641488351
 30
0.0
 10
371.0284038039
 20
131.0121951356
 30
0.0
 10
371.0558054663
 20
131.1936752872
 30
0.0
  0
SPLINE
  5
42D
330
221
100
AcDbEntity
  8
7_ALL_FEATURES
  6
Continuous
 62
     7
100
AcDbSpline
 70
     0
 71
     3
 72
    27
 73
    23
 74
     0
 42
0.000000001
 43
0.0000001
 40
0.0
 40
0.0
 40
0.0
 40
0.0
 40
0.0596016508
 40
0.1250157381
 40
0.195270188
 40
0.2692221832
 40
0.3456108615
 40
0.4231017837
 40
0.5003282463
 40
0.5759312341
 40
0.6485996937
 40
0.7171127608
 40
0.7803867255
 40
0.8375321206
 40
0.8636110685
 40
0.8879568219
 40
0.9105541635
 40
0.9314274716
 40
0.9506445185
 40
0.9683336192
 40
0.9846917189
 40
1.0
 40
1.0
 40
1.0
 40
1.0
 10
341.7851294789
 20
97.5164403388
 30
0.0
 10
342.4788773016
 20
97.3451206658
 30
0.0
 10
343.9531299592
 20
97.061484249
 30
0.0
 10
346.2819856696
 20
96.8040172363
 30
0.0
 10
348.7947679
 20
96.6984960824
 30
0.0
 10
351.4405716366
 20
96.7474115779
 30
0.0
 10
354.1659634807
 20
96.9499835736
 30
0.0
 10
356.9156013716
 20
97.3022263533
 30
0.0
 10
359.6336345472
 20
97.7970111681
 30
0.0
 10
362.264882427
 20
98.4242283886
 30
0.0
 10
364.7560038918
 20
99.1710046354
 30
0.0
 10
367.0568613536
 20
100.0220099065
 30
0.0
 10
369.121114812
 20
100.959822299
 30
0.0
 10
370.6547638161
 20
101.8224216182
 30
0.0
 10
371.722557348
 20
102.5469281996
 30
0.0
 10
372.4154784533
 20
103.0831188285
 30
0.0
 10
373.0216578828
 20
103.6262169765
 30
0.0
 10
373.5381936515
 20
104.1736043765
 30
0.0
 10
373.9623697459
 20
104.7229504469
 30
0.0
 10
374.2920319811
 20
105.2719319871
 30
0.0
 10
374.5248079194
 20
105.8181808205
 30
0.0
 10
374.6164495388
 20
106.1888876051
 30
0.0
 10
374.6438512012
 20
106.3703677567
 30
0.0
  0
SPLINE
  5
42E
330
221
100
AcDbEntity
  8
7_ALL_FEATURES
  6
Continuous
 62
     7
100
AcDbSpline
 70
     0
 71
     3
 72
    15
 73
    11
 74
     0
 42
0.000000001
 43
0.0000001
 40
0.0
 40
0.0
 40
0.0
 40
0.0
 40
0.1617084321
 40
0.3142384041
 40
0.4566089562
 40
0.5880365651
 40
0.7080119683
 40
0.8163651268
 40
0.9133851443
 40
1.0
 40
1.0
 40
1.0
 40
1.0
 10
347.3934077776
 20
97.762716952
 30
0.0
 10
346.9178714465
 20
97.7988622216
 30
0.0
 10
345.9951931337
 20
97.8901622519
 30
0.0
 10
344.6631640725
 20
98.0923124884
 30
0.0
 10
343.4325107844
 20
98.3539521694
 30
0.0
 10
342.3147013296
 20
98.6727210103
 30
0.0
 10
341.3199466061
 20
99.0455950081
 30
0.0
 10
340.456995483
 20
99.4695506926
 30
0.0
 10
339.7337201029
 20
99.9411852541
 30
0.0
 10
339.3278625236
 20
100.3046467916
 30
0.0
 10
339.1556933775
 20
100.493350316
 30
0.0
  0
LINE
  5
42F
330
221
100
AcDbEntity
  8
7_ALL_FEATURES
  6
Continuous
 62
     7
100
AcDbLine
 10
359.5225673973
 20
132.9434479104
 30
0.0
 11
359.5703304363
 21
132.9589831636
 31
0.0
  0
SPLINE
  5
430
330
221
100
AcDbEntity
  8
7_ALL_FEATURES
  6
Continuous
 62
     7
100
AcDbSpline
 70
     0
 71
     3
 72
    12
 73
     8
 74
     0
 42
0.000000001
 43
0.0000001
 40
0.0
 40
0.0
 40
0.0
 40
0.0
 40
0.2863374763
 40
0.5508828453
 40
0.7896642841
 40
0.8985093461
 40
1.0
 40
1.0
 40
1.0
 40
1.0
 10
359.5703304363
 20
132.9589831636
 30
0.0
 10
360.3779671261
 20
133.2222205421
 30
0.0
 10
361.9168354688
 20
133.7768784909
 30
0.0
 10
364.0590608604
 20
134.7301362851
 30
0.0
 10
365.6511987874
 20
135.6107722767
 30
0.0
 10
366.7589441567
 20
136.3522883546
 30
0.0
 10
367.2549911064
 20
136.7318019938
 30
0.0
 10
367.4870112235
 20
136.9236824625
 30
0.0
  0
SPLINE
  5
431
330
221
100
AcDbEntity
  8
7_ALL_FEATURES
  6
Continuous
 62
     7
100
AcDbSpline
 70
     0
 71
     3
 72
     9
 73
     5
 74
     0
 42
0.000000001
 43
0.0000001
 40
0.0
 40
0.0
 40
0.0
 40
0.0
 40
0.262048143
 40
1.0
 40
1.0
 40
1.0
 40
1.0
 10
367.6721381855
 20
137.0800762815
 30
0.0
 10
367.7548402369
 20
137.1514725586
 30
0.0
 10
368.0663584014
 20
137.4285619439
 30
0.0
 10
368.3610800128
 20
137.7249629409
 30
0.0
 10
368.5644730508
 20
137.9558236162
 30
0.0
  0
SPLINE
  5
432
330
221
100
AcDbEntity
  8
7_ALL_FEATURES
  6
Continuous
 62
     7
100
AcDbSpline
 70
     0
 71
     3
 72
     9
 73
     5
 74
     0
 42
0.000000001
 43
0.0000001
 40
0.0
 40
0.0
 40
0.0
 40
0.0
 40
0.261240049
 40
1.0
 40
1.0
 40
1.0
 40
1.0
 10
368.7514123377
 20
138.1766649212
 30
0.0
 10
368.8031965729
 20
138.240439356
 30
0.0
 10
368.9969902253
 20
138.4880791001
 30
0.0
 10
369.1723878831
 20
138.7504721496
 30
0.0
 10
369.2873084275
 20
138.9523714222
 30
0.0
  0
SPLINE
  5
433
330
221
100
AcDbEntity
  8
7_ALL_FEATURES
  6
Continuous
 62
     7
100
AcDbSpline
 70
     0
 71
     3
 72
     9
 73
     5
 74
     0
 42
0.000000001
 43
0.0000001
 40
0.0
 40
0.0
 40
0.0
 40
0.0
 40
0.2598659912
 40
1.0
 40
1.0
 40
1.0
 40
1.0
 10
369.4420999574
 20
139.2488302836
 30
0.0
 10
369.4732972535
 20
139.3145274289
 30
0.0
 10
369.5868250431
 20
139.5703288734
 30
0.0
 10
369.6728234434
 20
139.8387815704
 30
0.0
 10
369.716272583
 20
140.0413132195
 30
0.0
  0
SPLINE
  5
434
330
221
100
AcDbEntity
  8
7_ALL_FEATURES
  6
Continuous
 62
     7
100
AcDbSpline
 70
     0
 71
     3
 72
     9
 73
     5
 74
     0
 42
0.000000001
 43
0.0000001
 40
0.0
 40
0.0
 40
0.0
 40
0.0
 40
0.5047472238
 40
1.0
 40
1.0
 40
1.0
 40
1.0
 10
369.7502199224
 20
140.2270280213
 30
0.0
 10
369.7706423403
 20
140.3624174781
 30
0.0
 10
369.7926189888
 20
140.6338484872
 30
0.0
 10
369.7741450571
 20
140.9056468327
 30
0.0
 10
369.7549177052
 20
141.0386093638
 30
0.0
  0
SPLINE
  5
435
330
221
100
AcDbEntity
  8
7_ALL_FEATURES
  6
Continuous
 62
     7
100
AcDbSpline
 70
     0
 71
     3
 72
    15
 73
    11
 74
     0
 42
0.000000001
 43
0.0000001
 40
0.0
 40
0.0
 40
0.0
 40
0.0
 40
0.1617084321
 40
0.3142384041
 40
0.4566089562
 40
0.5880365651
 40
0.7080119683
 40
0.8163651268
 40
0.9133851443
 40
1.0
 40
1.0
 40
1.0
 40
1.0
 10
343.8053620428
 20
122.5860244825
 30
0.0
 10
343.3298257116
 20
122.6221697521
 30
0.0
 10
342.4071473988
 20
122.7134697824
 30
0.0
 10
341.0751183377
 20
122.9156200189
 30
0.0
 10
339.8444650495
 20
123.1772596999
 30
0.0
 10
338.7266555948
 20
123.4960285409
 30
0.0
 10
337.7319008712
 20
123.8689025386
 30
0.0
 10
336.8689497481
 20
124.2928582231
 30
0.0
 10
336.145674368
 20
124.7644927846
 30
0.0
 10
335.7398167887
 20
125.1279543221
 30
0.0
 10
335.5676476426
 20
125.3166578465
 30
0.0
  0
SPLINE
  5
436
330
221
100
AcDbEntity
  8
7_ALL_FEATURES
  6
Continuous
 62
     7
100
AcDbSpline
 70
     0
 71
     3
 72
     9
 73
     5
 74
     0
 42
0.000000001
 43
0.0000001
 40
0.0
 40
0.0
 40
0.0
 40
0.0
 40
0.47562695
 40
1.0
 40
1.0
 40
1.0
 40
1.0
 10
340.7884501081
 20
104.4118035417
 30
0.0
 10
341.5298096865
 20
104.2287262384
 30
0.0
 10
343.1102445171
 20
103.9302991046
 30
0.0
 10
344.708943767
 20
103.7656937157
 30
0.0
 10
345.5488702874
 20
103.7081793578
 30
0.0
  0
SPLINE
  5
437
330
221
100
AcDbEntity
  8
7_ALL_FEATURES
  6
Continuous
 62
     7
100
AcDbSpline
 70
     0
 71
     3
 72
    11
 73
     7
 74
     0
 42
0.000000001
 43
0.0000001
 40
0.0
 40
0.0
 40
0.0
 40
0.0
 40
0.2217747458
 40
0.4624439633
 40
0.7219960848
 40
1.0
 40
1.0
 40
1.0
 40
1.0
 10
337.2801012051
 20
105.7501357701
 30
0.0
 10
337.5203534414
 20
105.6093683744
 30
0.0
 10
338.036308854
 20
105.3410363005
 30
0.0
 10
338.8726927454
 20
104.9893909617
 30
0.0
 10
339.798298609
 20
104.6742031121
 30
0.0
 10
340.4495763747
 20
104.4954877499
 30
0.0
 10
340.7884501081
 20
104.4118035417
 30
0.0
  0
SPLINE
  5
438
330
221
100
AcDbEntity
  8
7_ALL_FEATURES
  6
Continuous
 62
     7
100
AcDbSpline
 70
     0
 71
     3
 72
     9
 73
     5
 74
     0
 42
0.000000001
 43
0.0000001
 40
0.0
 40
0.0
 40
0.0
 40
0.0
 40
0.2453971937
 40
1.0
 40
1.0
 40
1.0
 40
1.0
 10
331.229853389
 20
135.112479801
 30
0.0
 10
331.2459965917
 20
135.0553260741
 30
0.0
 10
331.3193392174
 20
134.8245902261
 30
0.0
 10
331.422669158
 20
134.603668224
 30
0.0
 10
331.5138720326
 20
134.4454467767
 30
0.0
  0
SPLINE
  5
439
330
221
100
AcDbEntity
  8
7_ALL_FEATURES
  6
Continuous
 62
     7
100
AcDbSpline
 70
     0
 71
     3
 72
     9
 73
     5
 74
     0
 42
0.000000001
 43
0.0000001
 40
0.0
 40
0.0
 40
0.0
 40
0.0
 40
0.2394207289
 40
1.0
 40
1.0
 40
1.0
 40
1.0
 10
335.2430386253
 20
131.8636115667
 30
0.0
 10
335.3723620609
 20
131.8175039872
 30
0.0
 10
335.9152641533
 20
131.6326650782
 30
0.0
 10
336.4679961589
 20
131.4772407577
 30
0.0
 10
336.8914337683
 20
131.3726736651
 30
0.0
  0
SPLINE
  5
43A
330
221
100
AcDbEntity
  8
7_ALL_FEATURES
  6
Continuous
 62
     7
100
AcDbSpline
 70
     0
 71
     3
 72
     9
 73
     5
 74
     0
 42
0.000000001
 43
0.0000001
 40
0.0
 40
0.0
 40
0.0
 40
0.0
 40
0.2384295283
 40
1.0
 40
1.0
 40
1.0
 40
1.0
 10
336.3377242178
 20
100.7170602994
 30
0.0
 10
336.3781931431
 20
100.6387101653
 30
0.0
 10
336.5619608778
 20
100.31736404
 30
0.0
 10
336.7985122187
 20
100.0277265514
 30
0.0
 10
336.9959312374
 20
99.8268184717
 30
0.0
  0
SPLINE
  5
43B
330
221
100
AcDbEntity
  8
7_ALL_FEATURES
  6
Continuous
 62
     7
100
AcDbSpline
 70
     0
 71
     3
 72
    11
 73
     7
 74
     0
 42
0.000000001
 43
0.0000001
 40
0.0
 40
0.0
 40
0.0
 40
0.0
 40
0.2037305575
 40
0.4373493061
 40
0.7028571785
 40
1.0
 40
1.0
 40
1.0
 40
1.0
 10
336.9959312374
 20
99.8268184717
 30
0.0
 10
337.2518070752
 20
99.5664204434
 30
0.0
 10
337.8676938567
 20
99.0721001552
 30
0.0
 10
338.9708574225
 20
98.4564948343
 30
0.0
 10
340.2979987501
 20
97.9240752891
 30
0.0
 10
341.2681937018
 20
97.6440966217
 30
0.0
 10
341.7851294789
 20
97.5164403388
 30
0.0
  0
SPLINE
  5
43C
330
221
100
AcDbEntity
  8
7_ALL_FEATURES
  6
Continuous
 62
     7
100
AcDbSpline
 70
     0
 71
     3
 72
     9
 73
     5
 74
     0
 42
0.000000001
 43
0.0000001
 40
0.0
 40
0.0
 40
0.0
 40
0.0
 40
0.2384295283
 40
1.0
 40
1.0
 40
1.0
 40
1.0
 10
332.7496784829
 20
125.5403678299
 30
0.0
 10
332.7901474082
 20
125.4620176959
 30
0.0
 10
332.9739151429
 20
125.1406715705
 30
0.0
 10
333.2104664838
 20
124.8510340819
 30
0.0
 10
333.4078855025
 20
124.6501260022
 30
0.0
  0
SPLINE
  5
43D
330
221
100
AcDbEntity
  8
7_ALL_FEATURES
  6
Continuous
 62
     7
100
AcDbSpline
 70
     0
 71
     3
 72
    11
 73
     7
 74
     0
 42
0.000000001
 43
0.0000001
 40
0.0
 40
0.0
 40
0.0
 40
0.0
 40
0.2037305575
 40
0.4373493061
 40
0.7028571785
 40
1.0
 40
1.0
 40
1.0
 40
1.0
 10
333.4078855025
 20
124.6501260022
 30
0.0
 10
333.6637613403
 20
124.3897279739
 30
0.0
 10
334.2796481218
 20
123.8954076857
 30
0.0
 10
335.3828116876
 20
123.2798023648
 30
0.0
 10
336.7099530152
 20
122.7473828196
 30
0.0
 10
337.6801479669
 20
122.4674041522
 30
0.0
 10
338.197083744
 20
122.3397478693
 30
0.0
  0
ENDSEC
  0
SECTION
  2
OBJECTS
  0
DICTIONARY
  5
C
330
0
100
AcDbDictionary
281
     1
  3
ACAD_GROUP
350
D
  3
ACAD_IMAGE_VARS
350
487
  3
ACAD_LAYOUT
350
1A
  3
ACAD_MLINESTYLE
350
17
  3
ACAD_PLOTSETTINGS
350
19
  3
ACAD_PLOTSTYLENAME
350
E
  3
ACAD_SCALELIST
350
443
  3
APPDATA
350
485
  3
DWGPROPS
350
4CC
  0
DICTIONARY
  5
D
102
{ACAD_REACTORS
330
C
102
}
330
C
100
AcDbDictionary
281
     1
  0
RASTERVARIABLES
  5
487
102
{ACAD_REACTORS
330
C
102
}
330
C
100
AcDbRasterVariables
 90
        0
 70
     1
 71
     1
 72
     1
  0
DICTIONARY
  5
1A
102
{ACAD_REACTORS
330
C
102
}
330
C
100
AcDbDictionary
281
     1
  3
Layout1
350
440
  3
Model
350
43F
  0
DICTIONARY
  5
17
102
{ACAD_REACTORS
330
C
102
}
330
C
100
AcDbDictionary
281
     1
  3
Standard
350
18
  0
DICTIONARY
  5
19
102
{ACAD_REACTORS
330
C
102
}
330
C
100
AcDbDictionary
281
     1
  0
ACDBDICTIONARYWDFLT
  5
E
102
{ACAD_REACTORS
330
C
102
}
330
C
100
AcDbDictionary
281
     1
  3
Normal
350
F
100
AcDbDictionaryWithDefault
340
F
  0
DICTIONARY
  5
443
102
{ACAD_REACTORS
330
C
102
}
330
C
100
AcDbDictionary
281
     1
  3
A0
350
444
  3
A1
350
445
  3
A2
350
446
  3
A3
350
447
  3
A4
350
448
  3
A5
350
449
  3
A6
350
44A
  3
A7
350
44B
  3
A8
350
44C
  3
A9
350
44D
  3
B0
350
44E
  3
B1
350
44F
  3
B2
350
450
  3
B3
350
451
  3
B4
350
452
  3
B5
350
453
  3
B6
350
454
  3
B7
350
455
  3
B8
350
456
  3
B9
350
457
  3
C0
350
458
  3
C1
350
459
  3
C2
350
45A
  3
C3
350
45B
  3
C4
350
45C
  3
C5
350
45D
  3
C6
350
45E
  3
C7
350
45F
  3
C8
350
460
  3
C9
350
461
  3
D0
350
462
  3
D1
350
463
  3
D2
350
464
  0
DICTIONARY
  5
485
102
{ACAD_REACTORS
330
C
102
}
330
C
100
AcDbDictionary
281
     1
  0
XRECORD
  5
4CC
102
{ACAD_REACTORS
330
C
102
}
330
C
100
AcDbXrecord
280
     1
  1
DWGPROPS COOKIE
  2

  3

  4

  6

  7

  8
umberto.novello
  9

300
=
301
=
302
=
303
=
304
=
305
=
306
=
307
=
308
=
309
=
 40
0.0
 41
0.0
 42
2458444.310616042
  1

 90
        0
  0
LAYOUT
  5
440
102
{ACAD_REACTORS
330
1A
102
}
330
1A
100
AcDbPlotSettings
  1

  2
none_device
  4
ISO_A3_(420.00_x_297.00_MM)
  6

 40
0.0
 41
0.0
 42
0.0
 43
0.0
 44
420.0
 45
297.0
 46
0.0
 47
0.0
 48
0.0
 49
0.0
140
0.0
141
0.0
142
1.0
143
1.0
 70
     0
 72
     1
 73
     0
 74
     0
  7

 75
     0
147
1.0
148
0.0
149
0.0
100
AcDbLayout
  1
Layout1
 70
     0
 71
     1
 10
0.0
 20
0.0
 11
420.0
 21
297.0
 12
0.0
 22
0.0
 32
0.0
 14
0.0
 24
0.0
 34
0.0
 15
0.0
 25
0.0
 35
0.0
146
0.0
 13
0.0
 23
0.0
 33
0.0
 16
1.0
 26
0.0
 36
0.0
 17
0.0
 27
1.0
 37
0.0
 76
     0
330
222
  0
LAYOUT
  5
43F
102
{ACAD_REACTORS
330
1A
102
}
330
1A
100
AcDbPlotSettings
  1

  2
none_device
  4
ISO_A3_(420.00_x_297.00_MM)
  6

 40
0.0
 41
0.0
 42
0.0
 43
0.0
 44
420.0
 45
297.0
 46
0.0
 47
0.0
 48
0.0
 49
0.0
140
0.0
141
0.0
142
1.0
143
1.0
 70
  1024
 72
     1
 73
     0
 74
     0
  7

 75
     0
147
1.0
148
0.0
149
0.0
100
AcDbLayout
  1
Model
 70
     0
 71
     0
 10
0.0
 20
0.0
 11
420.0
 21
297.0
 12
0.0
 22
0.0
 32
0.0
 14
0.0
 24
0.0
 34
0.0
 15
0.0
 25
0.0
 35
0.0
146
0.0
 13
0.0
 23
0.0
 33
0.0
 16
1.0
 26
0.0
 36
0.0
 17
0.0
 27
1.0
 37
0.0
 76
     0
330
221
331
1F4
  0
MLINESTYLE
  5
18
102
{ACAD_REACTORS
330
17
102
}
330
17
100
AcDbMlineStyle
  2
STANDARD
 70
     0
  3

 62
   256
 51
90.0
 52
90.0
 71
     2
 49
0.5
 62
   256
  6
BYLAYER
 49
-0.5
 62
   256
  6
BYLAYER
  0
ACDBPLACEHOLDER
  5
F
102
{ACAD_REACTORS
330
E
102
}
330
E
  0
SCALE
  5
444
102
{ACAD_REACTORS
330
443
102
}
330
443
100
AcDbScale
 70
     0
300
1:1
140
1.0
141
1.0
290
     1
  0
SCALE
  5
445
102
{ACAD_REACTORS
330
443
102
}
330
443
100
AcDbScale
 70
     0
300
1:2
140
1.0
141
2.0
290
     0
  0
SCALE
  5
446
102
{ACAD_REACTORS
330
443
102
}
330
443
100
AcDbScale
 70
     0
300
1:4
140
1.0
141
4.0
290
     0
  0
SCALE
  5
447
102
{ACAD_REACTORS
330
443
102
}
330
443
100
AcDbScale
 70
     0
300
1:5
140
1.0
141
5.0
290
     0
  0
SCALE
  5
448
102
{ACAD_REACTORS
330
443
102
}
330
443
100
AcDbScale
 70
     0
300
1:8
140
1.0
141
8.0
290
     0
  0
SCALE
  5
449
102
{ACAD_REACTORS
330
443
102
}
330
443
100
AcDbScale
 70
     0
300
1:10
140
1.0
141
10.0
290
     0
  0
SCALE
  5
44A
102
{ACAD_REACTORS
330
443
102
}
330
443
100
AcDbScale
 70
     0
300
1:16
140
1.0
141
16.0
290
     0
  0
SCALE
  5
44B
102
{ACAD_REACTORS
330
443
102
}
330
443
100
AcDbScale
 70
     0
300
1:20
140
1.0
141
20.0
290
     0
  0
SCALE
  5
44C
102
{ACAD_REACTORS
330
443
102
}
330
443
100
AcDbScale
 70
     0
300
1:30
140
1.0
141
30.0
290
     0
  0
SCALE
  5
44D
102
{ACAD_REACTORS
330
443
102
}
330
443
100
AcDbScale
 70
     0
300
1:40
140
1.0
141
40.0
290
     0
  0
SCALE
  5
44E
102
{ACAD_REACTORS
330
443
102
}
330
443
100
AcDbScale
 70
     0
300
1:50
140
1.0
141
50.0
290
     0
  0
SCALE
  5
44F
102
{ACAD_REACTORS
330
443
102
}
330
443
100
AcDbScale
 70
     0
300
1:100
140
1.0
141
100.0
290
     0
  0
SCALE
  5
450
102
{ACAD_REACTORS
330
443
102
}
330
443
100
AcDbScale
 70
     0
300
2:1
140
2.0
141
1.0
290
     0
  0
SCALE
  5
451
102
{ACAD_REACTORS
330
443
102
}
330
443
100
AcDbScale
 70
     0
300
4:1
140
4.0
141
1.0
290
     0
  0
SCALE
  5
452
102
{ACAD_REACTORS
330
443
102
}
330
443
100
AcDbScale
 70
     0
300
8:1
140
8.0
141
1.0
290
     0
  0
SCALE
  5
453
102
{ACAD_REACTORS
330
443
102
}
330
443
100
AcDbScale
 70
     0
300
10:1
140
10.0
141
1.0
290
     0
  0
SCALE
  5
454
102
{ACAD_REACTORS
330
443
102
}
330
443
100
AcDbScale
 70
     0
300
100:1
140
100.0
141
1.0
290
     0
  0
SCALE
  5
455
102
{ACAD_REACTORS
330
443
102
}
330
443
100
AcDbScale
 70
     0
300
1/128" = 1'-0"
140
0.0078125
141
12.0
290
     0
  0
SCALE
  5
456
102
{ACAD_REACTORS
330
443
102
}
330
443
100
AcDbScale
 70
     0
300
1/64" = 1'-0"
140
0.015625
141
12.0
290
     0
  0
SCALE
  5
457
102
{ACAD_REACTORS
330
443
102
}
330
443
100
AcDbScale
 70
     0
300
1/32" = 1'-0"
140
0.03125
141
12.0
290
     0
  0
SCALE
  5
458
102
{ACAD_REACTORS
330
443
102
}
330
443
100
AcDbScale
 70
     0
300
1/16" = 1'-0"
140
0.0625
141
12.0
290
     0
  0
SCALE
  5
459
102
{ACAD_REACTORS
330
443
102
}
330
443
100
AcDbScale
 70
     0
300
3/32" = 1'-0"
140
0.09375
141
12.0
290
     0
  0
SCALE
  5
45A
102
{ACAD_REACTORS
330
443
102
}
330
443
100
AcDbScale
 70
     0
300
1/8" = 1'-0"
140
0.125
141
12.0
290
     0
  0
SCALE
  5
45B
102
{ACAD_REACTORS
330
443
102
}
330
443
100
AcDbScale
 70
     0
300
3/16" = 1'-0"
140
0.1875
141
12.0
290
     0
  0
SCALE
  5
45C
102
{ACAD_REACTORS
330
443
102
}
330
443
100
AcDbScale
 70
     0
300
1/4" = 1'-0"
140
0.25
141
12.0
290
     0
  0
SCALE
  5
45D
102
{ACAD_REACTORS
330
443
102
}
330
443
100
AcDbScale
 70
     0
300
3/8" = 1'-0"
140
0.375
141
12.0
290
     0
  0
SCALE
  5
45E
102
{ACAD_REACTORS
330
443
102
}
330
443
100
AcDbScale
 70
     0
300
1/2" = 1'-0"
140
0.5
141
12.0
290
     0
  0
SCALE
  5
45F
102
{ACAD_REACTORS
330
443
102
}
330
443
100
AcDbScale
 70
     0
300
3/4" = 1'-0"
140
0.75
141
12.0
290
     0
  0
SCALE
  5
460
102
{ACAD_REACTORS
330
443
102
}
330
443
100
AcDbScale
 70
     0
300
1" = 1'-0"
140
1.0
141
12.0
290
     0
  0
SCALE
  5
461
102
{ACAD_REACTORS
330
443
102
}
330
443
100
AcDbScale
 70
     0
300
1-1/2" = 1'-0"
140
1.5
141
12.0
290
     0
  0
SCALE
  5
462
102
{ACAD_REACTORS
330
443
102
}
330
443
100
AcDbScale
 70
     0
300
3" = 1'-0"
140
3.0
141
12.0
290
     0
  0
SCALE
  5
463
102
{ACAD_REACTORS
330
443
102
}
330
443
100
AcDbScale
 70
     0
300
6" = 1'-0"
140
6.0
141
12.0
290
     0
  0
SCALE
  5
464
102
{ACAD_REACTORS
330
443
102
}
330
443
100
AcDbScale
 70
     0
300
1'-0" = 1'-0"
140
12.0
141
12.0
290
     0
  0
ENDSEC
  0
EOF
