  0
SECTION
  2
HEADER
  9
$ACADVER
  1
AC1014
  9
$ACADMAINTVER
 70
     9
  9
$DWGCODEPAGE
  3
ANSI_1252
  9
$INSBASE
 10
0.0
 20
0.0
 30
0.0
  9
$EXTMIN
 10
0.0
 20
0.0
 30
0.0
  9
$EXTMAX
 10
420.0
 20
597.0
 30
0.0
  9
$LIMMIN
 10
0.0
 20
0.0
  9
$LIMMAX
 10
420.0
 20
297.0
  9
$ORTHOMODE
 70
     0
  9
$REGENMODE
 70
     1
  9
$FILLMODE
 70
     1
  9
$QTEXTMODE
 70
     0
  9
$MIRRTEXT
 70
     1
  9
$DRAGMODE
 70
     2
  9
$LTSCALE
 40
23.1
  9
$OSMODE
 70
   511
  9
$ATTMODE
 70
     1
  9
$TEXTSIZE
 40
0.2
  9
$TRACEWID
 40
0.05
  9
$TEXTSTYLE
  7
STANDARD
  9
$CLAYER
  8
0
  9
$CELTYPE
  6
BYLAYER
  9
$CECOLOR
 62
   256
  9
$CELTSCALE
 40
1.0
  9
$DELOBJ
 70
     1
  9
$DISPSILH
 70
     0
  9
$DIMSCALE
 40
1.0
  9
$DIMASZ
 40
2.5
  9
$DIMEXO
 40
2.625
  9
$DIMDLI
 40
15.96
  9
$DIMRND
 40
0.0
  9
$DIMDLE
 40
0.0
  9
$DIMEXE
 40
7.56
  9
$DIMTP
 40
0.01
  9
$DIMTM
 40
0.01
  9
$DIMTXT
 40
3.0
  9
$DIMCEN
 40
3.78
  9
$DIMTSZ
 40
0.0
  9
$DIMTOL
 70
     1
  9
$DIMLIM
 70
     0
  9
$DIMTIH
 70
     1
  9
$DIMTOH
 70
     1
  9
$DIMSE1
 70
     0
  9
$DIMSE2
 70
     0
  9
$DIMTAD
 70
     0
  9
$DIMZIN
 70
     0
  9
$DIMBLK
  1
CLOSED
  9
$DIMASO
 70
     1
  9
$DIMSHO
 70
     1
  9
$DIMPOST
  1

  9
$DIMAPOST
  1

  9
$DIMALT
 70
     0
  9
$DIMALTD
 70
     2
  9
$DIMALTF
 40
25.4
  9
$DIMLFAC
 40
1.0
  9
$DIMTOFL
 70
     0
  9
$DIMTVP
 40
0.0
  9
$DIMTIX
 70
     0
  9
$DIMSOXD
 70
     0
  9
$DIMSAH
 70
     0
  9
$DIMBLK1
  1

  9
$DIMBLK2
  1

  9
$DIMSTYLE
  2
STANDARD
  9
$DIMCLRD
 70
     0
  9
$DIMCLRE
 70
     0
  9
$DIMCLRT
 70
     0
  9
$DIMTFAC
 40
1.0
  9
$DIMGAP
 40
0.09
  9
$DIMJUST
 70
     0
  9
$DIMSD1
 70
     0
  9
$DIMSD2
 70
     0
  9
$DIMTOLJ
 70
     1
  9
$DIMTZIN
 70
     0
  9
$DIMALTZ
 70
     0
  9
$DIMALTTZ
 70
     0
  9
$DIMFIT
 70
     3
  9
$DIMUPT
 70
     0
  9
$DIMUNIT
 70
     2
  9
$DIMDEC
 70
     4
  9
$DIMTDEC
 70
     4
  9
$DIMALTU
 70
     2
  9
$DIMALTTD
 70
     2
  9
$DIMTXSTY
  7
STANDARD
  9
$DIMAUNIT
 70
     0
  9
$LUNITS
 70
     2
  9
$LUPREC
 70
     4
  9
$SKETCHINC
 40
0.1
  9
$FILLETRAD
 40
0.5
  9
$AUNITS
 70
     0
  9
$AUPREC
 70
     0
  9
$MENU
  1
.
  9
$ELEVATION
 40
0.0
  9
$PELEVATION
 40
0.0
  9
$THICKNESS
 40
0.0
  9
$LIMCHECK
 70
     0
  9
$CHAMFERA
 40
0.0
  9
$CHAMFERB
 40
0.0
  9
$CHAMFERC
 40
0.0
  9
$CHAMFERD
 40
0.0
  9
$SKPOLY
 70
     0
  9
$TDCREATE
 40
2447893.041666667
  9
$TDUPDATE
 40
2458444.375972361
  9
$TDINDWG
 40
0.000365
  9
$TDUSRTIMER
 40
0.000365
  9
$USRTIMER
 70
     1
  9
$ANGBASE
 50
0.0
  9
$ANGDIR
 70
     0
  9
$PDMODE
 70
     3
  9
$PDSIZE
 40
0.3125
  9
$PLINEWID
 40
0.0
  9
$COORDS
 70
     1
  9
$SPLFRAME
 70
     0
  9
$SPLINETYPE
 70
     6
  9
$SPLINESEGS
 70
     8
  9
$ATTDIA
 70
     0
  9
$ATTREQ
 70
     1
  9
$HANDLING
 70
     1
  9
$HANDSEED
  5
6AC
  9
$SURFTAB1
 70
     6
  9
$SURFTAB2
 70
     6
  9
$SURFTYPE
 70
     6
  9
$SURFU
 70
     6
  9
$SURFV
 70
     6
  9
$UCSNAME
  2

  9
$UCSORG
 10
0.0
 20
0.0
 30
0.0
  9
$UCSXDIR
 10
1.0
 20
0.0
 30
0.0
  9
$UCSYDIR
 10
0.0
 20
1.0
 30
0.0
  9
$PUCSNAME
  2

  9
$PUCSORG
 10
0.0
 20
0.0
 30
0.0
  9
$PUCSXDIR
 10
1.0
 20
0.0
 30
0.0
  9
$PUCSYDIR
 10
0.0
 20
1.0
 30
0.0
  9
$USERI1
 70
     0
  9
$USERI2
 70
     0
  9
$USERI3
 70
     0
  9
$USERI4
 70
     0
  9
$USERI5
 70
     0
  9
$USERR1
 40
0.0
  9
$USERR2
 40
0.0
  9
$USERR3
 40
0.0
  9
$USERR4
 40
0.0
  9
$USERR5
 40
0.0
  9
$WORLDVIEW
 70
     1
  9
$SHADEDGE
 70
     3
  9
$SHADEDIF
 70
    70
  9
$TILEMODE
 70
     1
  9
$MAXACTVP
 70
    64
  9
$PINSBASE
 10
0.0
 20
0.0
 30
0.0
  9
$PLIMCHECK
 70
     0
  9
$PEXTMIN
 10
1.000000000000000E+20
 20
1.000000000000000E+20
 30
1.000000000000000E+20
  9
$PEXTMAX
 10
-1.000000000000000E+20
 20
-1.000000000000000E+20
 30
-1.000000000000000E+20
  9
$PLIMMIN
 10
0.0
 20
0.0
  9
$PLIMMAX
 10
420.0
 20
297.0
  9
$UNITMODE
 70
     0
  9
$VISRETAIN
 70
     1
  9
$PLINEGEN
 70
     0
  9
$PSLTSCALE
 70
     1
  9
$TREEDEPTH
 70
  3020
  9
$PICKSTYLE
 70
     1
  9
$CMLSTYLE
  2
STANDARD
  9
$CMLJUST
 70
     0
  9
$CMLSCALE
 40
1.0
  9
$PROXYGRAPHICS
 70
     1
  9
$MEASUREMENT
 70
     1
  0
ENDSEC
  0
SECTION
  2
CLASSES
  0
CLASS
  1
ACDBDICTIONARYWDFLT
  2
AcDbDictionaryWithDefault
  3
ObjectDBX Classes
 90
        0
280
     0
281
     0
  0
CLASS
  1
ACDBPLACEHOLDER
  2
AcDbPlaceHolder
  3
ObjectDBX Classes
 90
        0
280
     0
281
     0
  0
CLASS
  1
LAYOUT
  2
AcDbLayout
  3
ObjectDBX Classes
 90
        0
280
     0
281
     0
  0
CLASS
  1
TABLESTYLE
  2
AcDbTableStyle
  3
ObjectDBX Classes
 90
     4095
280
     0
281
     0
  0
CLASS
  1
ACAD_TABLE
  2
AcDbTable
  3
ObjectDBX Classes
 90
     1025
280
     0
281
     1
  0
CLASS
  1
SCALE
  2
AcDbScale
  3
ObjectDBX Classes
 90
     1153
280
     0
281
     0
  0
CLASS
  1
TABLEGEOMETRY
  2
AcDbTableGeometry
  3
ObjectDBX Classes
 90
     1152
280
     0
281
     0
  0
CLASS
  1
VISUALSTYLE
  2
AcDbVisualStyle
  3
ObjectDBX Classes
 90
     4095
280
     0
281
     0
  0
CLASS
  1
MATERIAL
  2
AcDbMaterial
  3
ObjectDBX Classes
 90
     1153
280
     0
281
     0
  0
CLASS
  1
MLEADERSTYLE
  2
AcDbMLeaderStyle
  3
ACDB_MLEADERSTYLE_CLASS
 90
     4095
280
     0
281
     0
  0
CLASS
  1
SUN
  2
AcDbSun
  3
SCENEOE
 90
     1153
280
     0
281
     0
  0
CLASS
  1
DICTIONARYVAR
  2
AcDbDictionaryVar
  3
ObjectDBX Classes
 90
        0
280
     0
281
     0
  0
CLASS
  1
DIMASSOC
  2
AcDbDimAssoc
  3
"AcDbDimAssoc|Product Desc:     AcDim ARX App For Dimension|Company:          Autodesk, Inc.|WEB Address:      www.autodesk.com"
 90
        0
280
     0
281
     0
  0
CLASS
  1
XRECORD
  2
AcDbXrecord
  3
ObjectDBX Classes
 90
        0
280
     0
281
     0
  0
CLASS
  1
LWPOLYLINE
  2
AcDbPolyline
  3
ObjectDBX Classes
 90
        0
280
     0
281
     1
  0
CLASS
  1
HATCH
  2
AcDbHatch
  3
ObjectDBX Classes
 90
        0
280
     0
281
     1
  0
ENDSEC
  0
SECTION
  2
TABLES
  0
TABLE
  2
VPORT
  5
8
330
0
100
AcDbSymbolTable
 70
     1
  0
VPORT
  5
1F4
330
8
100
AcDbSymbolTableRecord
100
AcDbViewportTableRecord
  2
*ACTIVE
 70
     0
 10
0.0
 20
0.0
 11
1.0
 21
1.0
 12
357.8316227379092
 22
257.7282832718743
 13
0.0
 23
0.0
 14
1.0
 24
1.0
 15
0.0
 25
0.0
 16
0.0
 26
0.0
 36
1.0
 17
0.0
 27
0.0
 37
0.0
 40
906.3720703124991
 41
1.929961089494164
 42
50.0
 43
0.0
 44
0.0
 50
0.0
 51
0.0
 71
    16
 72
   100
 73
     1
 74
     1
 75
     0
 76
     0
 77
     0
 78
     0
  0
ENDTAB
  0
TABLE
  2
LTYPE
  5
5
330
0
100
AcDbSymbolTable
 70
     6
  0
LTYPE
  5
14
330
5
100
AcDbSymbolTableRecord
100
AcDbLinetypeTableRecord
  2
BYBLOCK
 70
     0
  3

 72
    65
 73
     0
 40
0.0
  0
LTYPE
  5
15
330
5
100
AcDbSymbolTableRecord
100
AcDbLinetypeTableRecord
  2
BYLAYER
 70
     0
  3

 72
    65
 73
     0
 40
0.0
  0
LTYPE
  5
16
330
5
100
AcDbSymbolTableRecord
100
AcDbLinetypeTableRecord
  2
CONTINUOUS
 70
     0
  3
Solid line
 72
    65
 73
     0
 40
0.0
  0
LTYPE
  5
1F5
330
5
100
AcDbSymbolTableRecord
100
AcDbLinetypeTableRecord
  2
CENTER
 70
     0
  3
____ _ ____ _ ____ _ ____ _ ____ _ ____ _ ____
 72
    65
 73
     4
 40
0.6
 49
0.375
 74
     0
 49
-0.075
 74
     0
 49
0.075
 74
     0
 49
-0.075
 74
     0
  0
LTYPE
  5
1F6
330
5
100
AcDbSymbolTableRecord
100
AcDbLinetypeTableRecord
  2
HIDDEN
 70
     0
  3
- - - - - - - - - - - - - - - - - - - -
 72
    65
 73
     2
 40
0.2
 49
0.1
 74
     0
 49
-0.1
 74
     0
  0
LTYPE
  5
1F7
330
5
100
AcDbSymbolTableRecord
100
AcDbLinetypeTableRecord
  2
PHANTOM
 70
     0
  3
_____ _ _ _____ _ _ _____ _ _ _____
 72
    65
 73
     6
 40
0.8
 49
0.45
 74
     0
 49
-0.05
 74
     0
 49
0.1
 74
     0
 49
-0.05
 74
     0
 49
0.1
 74
     0
 49
-0.05
 74
     0
  0
LTYPE
  5
1F8
330
5
100
AcDbSymbolTableRecord
100
AcDbLinetypeTableRecord
  2
DOT
 70
     0
  3
. . . . . . . . . . . . . . . . . . . .
 72
    65
 73
     2
 40
0.2
 49
0.1
 74
     0
 49
-0.1
 74
     0
  0
LTYPE
  5
1F9
330
5
100
AcDbSymbolTableRecord
100
AcDbLinetypeTableRecord
  2
DASHED
 70
     0
  3
- - - - - - - - - - - - - - - - - - - -
 72
    65
 73
     2
 40
0.2
 49
0.1
 74
     0
 49
-0.1
 74
     0
  0
ENDTAB
  0
TABLE
  2
LAYER
  5
2
330
0
100
AcDbSymbolTable
 70
    41
  0
LAYER
  5
10
330
2
100
AcDbSymbolTableRecord
100
AcDbLayerTableRecord
  2
0
 70
     0
 62
     7
  6
CONTINUOUS
  0
LAYER
  5
1FA
330
2
100
AcDbSymbolTableRecord
100
AcDbLayerTableRecord
  2
DEFAULT_1
 70
     0
 62
     7
  6
CENTER
  0
LAYER
  5
1FB
330
2
100
AcDbSymbolTableRecord
100
AcDbLayerTableRecord
  2
DEFAULT_2
 70
     0
 62
     8
  6
HIDDEN
  0
LAYER
  5
1FC
330
2
100
AcDbSymbolTableRecord
100
AcDbLayerTableRecord
  2
DEFAULT_3
 70
     0
 62
     7
  6
PHANTOM
  0
LAYER
  5
1FD
330
2
100
AcDbSymbolTableRecord
100
AcDbLayerTableRecord
  2
01_ALL_DTM_PLN
 70
     0
 62
     7
  6
CONTINUOUS
  0
LAYER
  5
1FE
330
2
100
AcDbSymbolTableRecord
100
AcDbLayerTableRecord
  2
01__ASM_ALL_DTM_PLN
 70
     0
 62
     7
  6
CONTINUOUS
  0
LAYER
  5
1FF
330
2
100
AcDbSymbolTableRecord
100
AcDbLayerTableRecord
  2
01__ASM_DEF_DTM_PLN
 70
     0
 62
     7
  6
CONTINUOUS
  0
LAYER
  5
200
330
2
100
AcDbSymbolTableRecord
100
AcDbLayerTableRecord
  2
01___PRT_ALL_DTM_PLN
 70
     0
 62
     7
  6
CONTINUOUS
  0
LAYER
  5
201
330
2
100
AcDbSymbolTableRecord
100
AcDbLayerTableRecord
  2
01___PRT_DEF_DTM_PLN
 70
     0
 62
     7
  6
CONTINUOUS
  0
LAYER
  5
202
330
2
100
AcDbSymbolTableRecord
100
AcDbLayerTableRecord
  2
02_ALL_AXES
 70
     0
 62
     7
  6
CONTINUOUS
  0
LAYER
  5
203
330
2
100
AcDbSymbolTableRecord
100
AcDbLayerTableRecord
  2
02__ASM_ALL_AXES
 70
     0
 62
     7
  6
CONTINUOUS
  0
LAYER
  5
204
330
2
100
AcDbSymbolTableRecord
100
AcDbLayerTableRecord
  2
02___PRT_ALL_AXES
 70
     0
 62
     7
  6
CONTINUOUS
  0
LAYER
  5
205
330
2
100
AcDbSymbolTableRecord
100
AcDbLayerTableRecord
  2
03_ALL_CURVES
 70
     0
 62
     7
  6
CONTINUOUS
  0
LAYER
  5
206
330
2
100
AcDbSymbolTableRecord
100
AcDbLayerTableRecord
  2
03__ASM_ALL_CURVES
 70
     0
 62
     7
  6
CONTINUOUS
  0
LAYER
  5
207
330
2
100
AcDbSymbolTableRecord
100
AcDbLayerTableRecord
  2
03___PRT_ALL_CURVES
 70
     0
 62
     7
  6
CONTINUOUS
  0
LAYER
  5
208
330
2
100
AcDbSymbolTableRecord
100
AcDbLayerTableRecord
  2
04_ALL_DTM_PNT
 70
     0
 62
     7
  6
CONTINUOUS
  0
LAYER
  5
209
330
2
100
AcDbSymbolTableRecord
100
AcDbLayerTableRecord
  2
04__ASM_ALL_DTM_PNT
 70
     0
 62
     7
  6
CONTINUOUS
  0
LAYER
  5
20A
330
2
100
AcDbSymbolTableRecord
100
AcDbLayerTableRecord
  2
04___PRT_ALL_DTM_PNT
 70
     0
 62
     7
  6
CONTINUOUS
  0
LAYER
  5
20B
330
2
100
AcDbSymbolTableRecord
100
AcDbLayerTableRecord
  2
05_ALL_DTM_CSYS
 70
     0
 62
     7
  6
CONTINUOUS
  0
LAYER
  5
20C
330
2
100
AcDbSymbolTableRecord
100
AcDbLayerTableRecord
  2
05__ASM_ALL_DTM_CSYS
 70
     0
 62
     7
  6
CONTINUOUS
  0
LAYER
  5
20D
330
2
100
AcDbSymbolTableRecord
100
AcDbLayerTableRecord
  2
05__ASM_DEF_DTM_CSYS
 70
     0
 62
     7
  6
CONTINUOUS
  0
LAYER
  5
20E
330
2
100
AcDbSymbolTableRecord
100
AcDbLayerTableRecord
  2
05___PRT_ALL_DTM_CSYS
 70
     0
 62
     7
  6
CONTINUOUS
  0
LAYER
  5
20F
330
2
100
AcDbSymbolTableRecord
100
AcDbLayerTableRecord
  2
05___PRT_DEF_DTM_CSYS
 70
     0
 62
     7
  6
CONTINUOUS
  0
LAYER
  5
210
330
2
100
AcDbSymbolTableRecord
100
AcDbLayerTableRecord
  2
06_ALL_SURFS
 70
     0
 62
     7
  6
CONTINUOUS
  0
LAYER
  5
211
330
2
100
AcDbSymbolTableRecord
100
AcDbLayerTableRecord
  2
06__ASM_ALL_SURFS
 70
     0
 62
     7
  6
CONTINUOUS
  0
LAYER
  5
212
330
2
100
AcDbSymbolTableRecord
100
AcDbLayerTableRecord
  2
06___PRT_ALL_SURFS
 70
     0
 62
     7
  6
CONTINUOUS
  0
LAYER
  5
213
330
2
100
AcDbSymbolTableRecord
100
AcDbLayerTableRecord
  2
07__ASM_ALL_SKELETONS
 70
     0
 62
     7
  6
CONTINUOUS
  0
LAYER
  5
214
330
2
100
AcDbSymbolTableRecord
100
AcDbLayerTableRecord
  2
1_ALL_PLANES
 70
     0
 62
     7
  6
CONTINUOUS
  0
LAYER
  5
215
330
2
100
AcDbSymbolTableRecord
100
AcDbLayerTableRecord
  2
2_ALL_CSYS
 70
     0
 62
     7
  6
CONTINUOUS
  0
LAYER
  5
216
330
2
100
AcDbSymbolTableRecord
100
AcDbLayerTableRecord
  2
3_ALL_AXES
 70
     0
 62
     7
  6
CONTINUOUS
  0
LAYER
  5
217
330
2
100
AcDbSymbolTableRecord
100
AcDbLayerTableRecord
  2
4_ALL_POINTS
 70
     0
 62
     7
  6
CONTINUOUS
  0
LAYER
  5
218
330
2
100
AcDbSymbolTableRecord
100
AcDbLayerTableRecord
  2
5_ALL_CURVES
 70
     0
 62
     7
  6
CONTINUOUS
  0
LAYER
  5
219
330
2
100
AcDbSymbolTableRecord
100
AcDbLayerTableRecord
  2
6_ALL_SURFS
 70
     0
 62
     7
  6
CONTINUOUS
  0
LAYER
  5
21A
330
2
100
AcDbSymbolTableRecord
100
AcDbLayerTableRecord
  2
6__APPOGGIO
 70
     0
 62
     7
  6
CONTINUOUS
  0
LAYER
  5
21B
330
2
100
AcDbSymbolTableRecord
100
AcDbLayerTableRecord
  2
6__APPOGGIO1
 70
     0
 62
     7
  6
CONTINUOUS
  0
LAYER
  5
21C
330
2
100
AcDbSymbolTableRecord
100
AcDbLayerTableRecord
  2
6__APPOGGIO2
 70
     0
 62
     7
  6
CONTINUOUS
  0
LAYER
  5
21D
330
2
100
AcDbSymbolTableRecord
100
AcDbLayerTableRecord
  2
7_ALL_FEATURES
 70
     0
 62
     7
  6
CONTINUOUS
  0
LAYER
  5
21E
330
2
100
AcDbSymbolTableRecord
100
AcDbLayerTableRecord
  2
8_ALL_NOTES_BALLOONS_SYMBO
 70
     0
 62
     7
  6
CONTINUOUS
  0
LAYER
  5
21F
330
2
100
AcDbSymbolTableRecord
100
AcDbLayerTableRecord
  2
INTFCLR_3
 70
     0
 62
     7
  6
CONTINUOUS
  0
LAYER
  5
220
330
2
100
AcDbSymbolTableRecord
100
AcDbLayerTableRecord
  2
XXX_SOLIDO
 70
     0
 62
     7
  6
CONTINUOUS
  0
LAYER
  5
640
330
2
100
AcDbSymbolTableRecord
100
AcDbLayerTableRecord
  2
DEFPOINTS
 70
     0
 62
     7
  6
CONTINUOUS
  0
ENDTAB
  0
TABLE
  2
STYLE
  5
3
330
0
100
AcDbSymbolTable
 70
     5
  0
STYLE
  5
11
330
3
100
AcDbSymbolTableRecord
100
AcDbTextStyleTableRecord
  2
STANDARD
 70
     0
 40
0.0
 41
0.85
 50
0.0
 71
     0
 42
0.2
  3
txt
  4

  0
STYLE
  5
221
330
3
100
AcDbSymbolTableRecord
100
AcDbTextStyleTableRecord
  2
TEXTSTYLE_1
 70
     0
 40
0.0
 41
0.8
 50
0.0
 71
     0
 42
0.2
  3
gdt
  4

  0
STYLE
  5
222
330
3
100
AcDbSymbolTableRecord
100
AcDbTextStyleTableRecord
  2
TEXTSTYLE_2
 70
     0
 40
0.0
 41
0.9
 50
0.0
 71
     0
 42
0.2
  3
txt
  4

  0
STYLE
  5
223
330
3
100
AcDbSymbolTableRecord
100
AcDbTextStyleTableRecord
  2
TEXTSTYLE_3
 70
     0
 40
0.0
 41
0.9
 50
0.0
 71
     0
 42
0.2
  3
txt
  4

  0
STYLE
  5
224
330
3
100
AcDbSymbolTableRecord
100
AcDbTextStyleTableRecord
  2
TEXTSTYLE_4
 70
     0
 40
0.0
 41
0.85
 50
0.0
 71
     0
 42
0.2
  3
txt
  4

  0
ENDTAB
  0
TABLE
  2
VIEW
  5
6
330
0
100
AcDbSymbolTable
 70
     0
  0
ENDTAB
  0
TABLE
  2
UCS
  5
7
330
0
100
AcDbSymbolTable
 70
     0
  0
ENDTAB
  0
TABLE
  2
APPID
  5
9
330
0
100
AcDbSymbolTable
 70
     1
  0
APPID
  5
225
330
9
100
AcDbSymbolTableRecord
100
AcDbRegAppTableRecord
  2
ACAD
 70
     0
  0
ENDTAB
  0
TABLE
  2
DIMSTYLE
  5
A
330
0
100
AcDbSymbolTable
 70
     4
  0
DIMSTYLE
105
230
330
A
100
AcDbSymbolTableRecord
100
AcDbDimStyleTableRecord
  2
STANDARD
 70
     0
  3

  4

  5
CLOSED
  6
CLOSED
  7
CLOSED
 40
1.0
 41
2.5
 42
0.0625
 43
0.38
 44
0.18
 45
0.0
 46
0.0
 47
0.01
 48
0.01
140
3.0
141
0.09
142
0.0
143
25.4
144
1.0
145
0.0
146
1.0
147
0.09
 71
     1
 72
     0
 73
     0
 74
     0
 75
     0
 76
     0
 77
     1
 78
     8
170
     0
171
     2
172
     0
173
     0
174
     0
175
     0
176
     0
177
     0
178
     0
270
     2
271
     2
272
     2
273
     2
274
     2
340
11
275
     0
280
     0
281
     0
282
     0
283
     1
284
     8
285
     0
286
     0
287
     3
288
     0
  0
DIMSTYLE
105
231
330
A
100
AcDbSymbolTableRecord
100
AcDbDimStyleTableRecord
  2
DIMSTYLE_1
 70
     0
  3

  4

  5
CLOSED
  6
CLOSED
  7
CLOSED
 40
1.0
 41
2.5
 42
0.0625
 43
0.38
 44
0.18
 45
0.0
 46
0.0
 47
0.3
 48
0.3
140
3.0
141
0.09
142
0.0
143
25.4
144
2.0
145
0.0
146
1.0
147
0.09
 71
     0
 72
     0
 73
     0
 74
     0
 75
     0
 76
     0
 77
     1
 78
     8
170
     0
171
     2
172
     0
173
     0
174
     0
175
     0
176
     0
177
     0
178
     0
270
     2
271
     2
272
     2
273
     2
274
     2
340
11
275
     0
280
     0
281
     0
282
     0
283
     1
284
     8
285
     0
286
     0
287
     3
288
     0
  0
DIMSTYLE
105
232
330
A
100
AcDbSymbolTableRecord
100
AcDbDimStyleTableRecord
  2
DIMSTYLE_2
 70
     0
  3

  4

  5
CLOSED
  6
CLOSED
  7
CLOSED
 40
1.0
 41
2.5
 42
0.0625
 43
0.38
 44
0.18
 45
0.0
 46
0.0
 47
0.5
 48
0.5
140
3.0
141
0.09
142
0.0
143
25.4
144
2.0
145
0.0
146
1.0
147
0.09
 71
     0
 72
     0
 73
     0
 74
     0
 75
     0
 76
     0
 77
     1
 78
     8
170
     0
171
     2
172
     0
173
     0
174
     0
175
     0
176
     0
177
     0
178
     0
270
     2
271
     2
272
     2
273
     2
274
     2
340
11
275
     0
280
     0
281
     0
282
     0
283
     1
284
     8
285
     0
286
     0
287
     3
288
     0
  0
DIMSTYLE
105
233
330
A
100
AcDbSymbolTableRecord
100
AcDbDimStyleTableRecord
  2
DIMSTYLE_3
 70
     0
  3

  4

  5
CLOSED
  6
CLOSED
  7
CLOSED
 40
1.0
 41
2.5
 42
0.0625
 43
0.38
 44
0.18
 45
0.0
 46
0.0
 47
0.8
 48
0.8
140
3.0
141
0.09
142
0.0
143
25.4
144
2.0
145
0.0
146
1.0
147
0.09
 71
     0
 72
     0
 73
     0
 74
     0
 75
     0
 76
     0
 77
     1
 78
     8
170
     0
171
     2
172
     0
173
     0
174
     0
175
     0
176
     0
177
     0
178
     0
270
     2
271
     2
272
     2
273
     2
274
     2
340
11
275
     0
280
     0
281
     0
282
     0
283
     1
284
     8
285
     0
286
     0
287
     3
288
     0
  0
ENDTAB
  0
TABLE
  2
BLOCK_RECORD
  5
1
330
0
100
AcDbSymbolTable
 70
    13
  0
BLOCK_RECORD
  5
226
330
1
100
AcDbSymbolTableRecord
100
AcDbBlockTableRecord
  2
*MODEL_SPACE
  0
BLOCK_RECORD
  5
227
330
1
100
AcDbSymbolTableRecord
100
AcDbBlockTableRecord
  2
*PAPER_SPACE
  0
BLOCK_RECORD
  5
228
330
1
100
AcDbSymbolTableRecord
100
AcDbBlockTableRecord
  2
_CLOSED
  0
BLOCK_RECORD
  5
229
330
1
100
AcDbSymbolTableRecord
100
AcDbBlockTableRecord
  2
*D1
  0
BLOCK_RECORD
  5
22A
330
1
100
AcDbSymbolTableRecord
100
AcDbBlockTableRecord
  2
*D2
  0
BLOCK_RECORD
  5
22B
330
1
100
AcDbSymbolTableRecord
100
AcDbBlockTableRecord
  2
*D3
  0
BLOCK_RECORD
  5
22C
330
1
100
AcDbSymbolTableRecord
100
AcDbBlockTableRecord
  2
*D4
  0
BLOCK_RECORD
  5
22D
330
1
100
AcDbSymbolTableRecord
100
AcDbBlockTableRecord
  2
*D5
  0
BLOCK_RECORD
  5
22E
330
1
100
AcDbSymbolTableRecord
100
AcDbBlockTableRecord
  2
LOGO2_BL0
  0
BLOCK_RECORD
  5
22F
330
1
100
AcDbSymbolTableRecord
100
AcDbBlockTableRecord
  2
*T7
  0
BLOCK_RECORD
  5
64A
330
1
100
AcDbSymbolTableRecord
100
AcDbBlockTableRecord
  2
*D8
  0
BLOCK_RECORD
  5
65A
330
1
100
AcDbSymbolTableRecord
100
AcDbBlockTableRecord
  2
*D9
  0
BLOCK_RECORD
  5
66B
330
1
100
AcDbSymbolTableRecord
100
AcDbBlockTableRecord
  2
*D10
  0
BLOCK_RECORD
  5
67F
330
1
100
AcDbSymbolTableRecord
100
AcDbBlockTableRecord
  2
*D11
  0
BLOCK_RECORD
  5
69E
330
1
100
AcDbSymbolTableRecord
100
AcDbBlockTableRecord
  2
*D12
  0
ENDTAB
  0
ENDSEC
  0
SECTION
  2
BLOCKS
  0
BLOCK
  5
20
330
226
100
AcDbEntity
  8
0
100
AcDbBlockBegin
  2
*MODEL_SPACE
 70
     0
 10
0.0
 20
0.0
 30
0.0
  3
*MODEL_SPACE
  1

  0
ENDBLK
  5
21
330
226
100
AcDbEntity
  8
0
100
AcDbBlockEnd
  0
BLOCK
  5
1C
330
227
100
AcDbEntity
 67
     1
  8
0
100
AcDbBlockBegin
  2
*PAPER_SPACE
 70
     0
 10
0.0
 20
0.0
 30
0.0
  3
*PAPER_SPACE
  1

  0
ENDBLK
  5
1D
330
227
100
AcDbEntity
 67
     1
  8
0
100
AcDbBlockEnd
  0
BLOCK
  5
270
330
228
100
AcDbEntity
  8
0
100
AcDbBlockBegin
  2
_CLOSED
 70
     0
 10
0.0
 20
0.0
 30
0.0
  3
_CLOSED
  1

  0
LINE
  5
271
330
228
100
AcDbEntity
  8
0
  6
BYBLOCK
 62
     0
100
AcDbLine
 10
0.0
 20
0.0
 30
0.0
 11
-1.0
 21
0.2
 31
0.0
  0
LINE
  5
272
330
228
100
AcDbEntity
  8
0
  6
BYBLOCK
 62
     0
100
AcDbLine
 10
-1.0
 20
0.2
 30
0.0
 11
-1.0
 21
-0.2
 31
0.0
  0
LINE
  5
273
330
228
100
AcDbEntity
  8
0
  6
BYBLOCK
 62
     0
100
AcDbLine
 10
-1.0
 20
-0.2
 30
0.0
 11
0.0
 21
0.0
 31
0.0
  0
LINE
  5
274
330
228
100
AcDbEntity
  8
0
  6
BYBLOCK
 62
     0
100
AcDbLine
 10
-1.0
 20
0.0
 30
0.0
 11
0.0
 21
0.0
 31
0.0
  0
ENDBLK
  5
275
330
228
100
AcDbEntity
  8
0
  6
BYBLOCK
 62
     0
100
AcDbBlockEnd
  0
BLOCK
  5
276
330
229
100
AcDbEntity
  8
0
100
AcDbBlockBegin
  2
*D1
 70
     1
 10
0.0
 20
0.0
 30
0.0
  3
*D1
  1

  0
LINE
  5
277
330
229
100
AcDbEntity
  8
0
  6
CONTINUOUS
 62
     0
100
AcDbLine
 10
212.5766469095
 20
166.56492741495
 30
0.0
 11
260.8666984984999
 21
166.5649274149499
 31
0.0
  0
LINE
  5
278
330
229
100
AcDbEntity
  8
0
  6
CONTINUOUS
 62
     0
100
AcDbLine
 10
212.5766469095
 20
61.56492741495001
 30
0.0
 11
260.8666984984999
 21
61.56492741494998
 31
0.0
  0
LINE
  5
279
330
229
100
AcDbEntity
  8
0
  6
CONTINUOUS
 62
     0
100
AcDbLine
 10
260.6866984984999
 20
164.0649274149499
 30
0.0
 11
260.6866984984999
 21
64.06492741494998
 31
0.0
  0
INSERT
  5
27A
330
229
100
AcDbEntity
  8
0
 62
     0
100
AcDbBlockReference
  2
_CLOSED
 10
260.6866984984999
 20
166.5649274149499
 30
0.0
 41
2.5
 42
2.5
 43
2.5
 50
90.0
  0
INSERT
  5
27B
330
229
100
AcDbEntity
  8
0
 62
     0
100
AcDbBlockReference
  2
_CLOSED
 10
260.6866984984999
 20
61.56492741494998
 30
0.0
 41
2.5
 42
2.5
 43
2.5
 50
270.0
  0
MTEXT
  5
27C
330
229
100
AcDbEntity
  8
0
 62
     0
100
AcDbMText
 10
257.5966984985
 20
109.7000534587066
 30
0.0
 40
3.0
 41
0.0
 71
     2
 72
     1
  1
\A1;210
 11
0.0
 21
1.0
 31
0.0
  0
POINT
  5
68C
330
229
100
AcDbEntity
  8
DEFPOINTS
 62
     0
100
AcDbPoint
 10
212.5141469095
 20
166.56492741495
 30
0.0
  0
POINT
  5
68D
330
229
100
AcDbEntity
  8
DEFPOINTS
 62
     0
100
AcDbPoint
 10
212.5141469095
 20
61.56492741495001
 30
0.0
  0
POINT
  5
68E
330
229
100
AcDbEntity
  8
DEFPOINTS
 62
     0
100
AcDbPoint
 10
260.6866984984999
 20
61.56492741495
 30
0.0
  0
ENDBLK
  5
27D
330
229
100
AcDbEntity
  8
0
  6
BYBLOCK
 62
     0
100
AcDbBlockEnd
  0
BLOCK
  5
27E
330
22A
100
AcDbEntity
  8
0
100
AcDbBlockBegin
  2
*D2
 70
     1
 10
0.0
 20
0.0
 30
0.0
  3
*D2
  1

  0
LINE
  5
27F
330
22A
100
AcDbEntity
  8
0
  6
CONTINUOUS
 62
     0
100
AcDbLine
 10
31.1821145587
 20
54.03611379035
 30
0.0
 11
31.18211455869999
 21
22.88492741495001
 31
0.0
  0
LINE
  5
280
330
22A
100
AcDbEntity
  8
0
  6
CONTINUOUS
 62
     0
100
AcDbLine
 10
206.1821145587
 20
54.51866698175
 30
0.0
 11
206.1821145587
 21
22.88492741495001
 31
0.0
  0
LINE
  5
281
330
22A
100
AcDbEntity
  8
0
  6
CONTINUOUS
 62
     0
100
AcDbLine
 10
33.68211455869999
 20
23.06492741495001
 30
0.0
 11
203.6821145587
 21
23.06492741495001
 31
0.0
  0
INSERT
  5
282
330
22A
100
AcDbEntity
  8
0
 62
     0
100
AcDbBlockReference
  2
_CLOSED
 10
31.18211455869999
 20
23.06492741495001
 30
0.0
 41
2.5
 42
2.5
 43
2.5
 50
180.0
  0
INSERT
  5
283
330
22A
100
AcDbEntity
  8
0
 62
     0
100
AcDbBlockReference
  2
_CLOSED
 10
206.1821145587
 20
23.06492741495001
 30
0.0
 41
2.5
 42
2.5
 43
2.5
  0
MTEXT
  5
284
330
22A
100
AcDbEntity
  8
0
 62
     0
100
AcDbMText
 10
112.4678288443
 20
26.15492741495001
 30
0.0
 40
3.0
 41
0.0
 71
     2
 72
     1
  1
\A1;350
  0
POINT
  5
68F
330
22A
100
AcDbEntity
  8
DEFPOINTS
 62
     0
100
AcDbPoint
 10
31.1821145587
 20
54.09861379035
 30
0.0
  0
POINT
  5
690
330
22A
100
AcDbEntity
  8
DEFPOINTS
 62
     0
100
AcDbPoint
 10
206.1821145587
 20
54.58116698175
 30
0.0
  0
POINT
  5
691
330
22A
100
AcDbEntity
  8
DEFPOINTS
 62
     0
100
AcDbPoint
 10
206.1821145587
 20
21.56492741495001
 30
0.0
  0
ENDBLK
  5
285
330
22A
100
AcDbEntity
  8
0
  6
BYBLOCK
 62
     0
100
AcDbBlockEnd
  0
BLOCK
  5
286
330
22B
100
AcDbEntity
  8
0
100
AcDbBlockBegin
  2
*D3
 70
     1
 10
0.0
 20
0.0
 30
0.0
  3
*D3
  1

  0
LINE
  5
287
330
22B
100
AcDbEntity
  8
0
  6
CONTINUOUS
 62
     0
100
AcDbLine
 10
218.5181924347
 20
476.51153353995
 30
0.0
 11
255.3950090500749
 21
476.51153353995
 31
0.0
  0
LINE
  5
288
330
22B
100
AcDbEntity
  8
0
  6
CONTINUOUS
 62
     0
100
AcDbLine
 10
219.3867881793
 20
322.08349264415
 30
0.0
 11
255.3950090500749
 21
322.08349264415
 31
0.0
  0
LINE
  5
289
330
22B
100
AcDbEntity
  8
0
  6
CONTINUOUS
 62
     0
100
AcDbLine
 10
255.2150090500749
 20
474.01153353995
 30
0.0
 11
255.2150090500749
 21
324.58349264415
 31
0.0
  0
INSERT
  5
28A
330
22B
100
AcDbEntity
  8
0
 62
     0
100
AcDbBlockReference
  2
_CLOSED
 10
255.2150090500749
 20
476.51153353995
 30
0.0
 41
2.5
 42
2.5
 43
2.5
 50
89.99999999999999
  0
INSERT
  5
28B
330
22B
100
AcDbEntity
  8
0
 62
     0
100
AcDbBlockReference
  2
_CLOSED
 10
255.2150090500749
 20
322.08349264415
 30
0.0
 41
2.5
 42
2.5
 43
2.5
 50
270.0
  0
MTEXT
  5
28C
330
22B
100
AcDbEntity
  8
0
 62
     0
100
AcDbMText
 10
252.1250090500749
 20
377.3044825381227
 30
0.0
 40
3.0
 41
0.0
 71
     2
 72
     1
  1
\A1;600 - 308.86
 11
1.840450041685208E-16
 21
1.0
 31
0.0
  0
POINT
  5
692
330
22B
100
AcDbEntity
  8
DEFPOINTS
 62
     0
100
AcDbPoint
 10
218.4556924347
 20
476.51153353995
 30
0.0
  0
POINT
  5
693
330
22B
100
AcDbEntity
  8
DEFPOINTS
 62
     0
100
AcDbPoint
 10
219.3242881793
 20
322.08349264415
 30
0.0
  0
POINT
  5
694
330
22B
100
AcDbEntity
  8
DEFPOINTS
 62
     0
100
AcDbPoint
 10
255.2150090500749
 20
322.08349264415
 30
0.0
  0
ENDBLK
  5
28D
330
22B
100
AcDbEntity
  8
0
  6
BYBLOCK
 62
     0
100
AcDbBlockEnd
  0
BLOCK
  5
28E
330
22C
100
AcDbEntity
  8
0
100
AcDbBlockBegin
  2
*D4
 70
     1
 10
0.0
 20
0.0
 30
0.0
  3
*D4
  1

  0
LINE
  5
28F
330
22C
100
AcDbEntity
  8
0
  6
CONTINUOUS
 62
     0
100
AcDbLine
 10
33.6821145587
 20
482.94233435055
 30
0.0
 11
33.68211455869999
 21
540.3283113318965
 31
0.0
  0
LINE
  5
290
330
22C
100
AcDbEntity
  8
0
  6
CONTINUOUS
 62
     0
100
AcDbLine
 10
203.6821145587
 20
482.94233435055
 30
0.0
 11
203.6821145587
 21
540.3283113318965
 31
0.0
  0
LINE
  5
291
330
22C
100
AcDbEntity
  8
0
  6
CONTINUOUS
 62
     0
100
AcDbLine
 10
36.18211455869999
 20
540.1483113318966
 30
0.0
 11
201.1821145587
 21
540.1483113318966
 31
0.0
  0
INSERT
  5
292
330
22C
100
AcDbEntity
  8
0
 62
     0
100
AcDbBlockReference
  2
_CLOSED
 10
33.68211455869999
 20
540.1483113318966
 30
0.0
 41
2.5
 42
2.5
 43
2.5
 50
180.0
  0
INSERT
  5
293
330
22C
100
AcDbEntity
  8
0
 62
     0
100
AcDbBlockReference
  2
_CLOSED
 10
203.6821145587
 20
540.1483113318966
 30
0.0
 41
2.5
 42
2.5
 43
2.5
  0
MTEXT
  5
294
330
22C
100
AcDbEntity
  8
0
 62
     0
100
AcDbMText
 10
110.5545333691413
 20
543.2383113318966
 30
0.0
 40
3.0
 41
0.0
 71
     2
 72
     1
  1
\A1;340
  0
POINT
  5
695
330
22C
100
AcDbEntity
  8
DEFPOINTS
 62
     0
100
AcDbPoint
 10
33.6821145587
 20
482.87983435055
 30
0.0
  0
POINT
  5
696
330
22C
100
AcDbEntity
  8
DEFPOINTS
 62
     0
100
AcDbPoint
 10
203.6821145587
 20
482.87983435055
 30
0.0
  0
POINT
  5
697
330
22C
100
AcDbEntity
  8
DEFPOINTS
 62
     0
100
AcDbPoint
 10
203.6821145587
 20
540.1483113318966
 30
0.0
  0
ENDBLK
  5
295
330
22C
100
AcDbEntity
  8
0
  6
BYBLOCK
 62
     0
100
AcDbBlockEnd
  0
BLOCK
  5
296
330
22D
100
AcDbEntity
  8
0
100
AcDbBlockBegin
  2
*D5
 70
     1
 10
0.0
 20
0.0
 30
0.0
  3
*D5
  1

  0
LINE
  5
297
330
22D
100
AcDbEntity
  8
0
  6
CONTINUOUS
 62
     0
100
AcDbLine
 10
273.0977355698762
 20
482.9423343505499
 30
0.0
 11
273.0977355698762
 21
533.9607237832583
 31
0.0
  0
LINE
  5
298
330
22D
100
AcDbEntity
  8
0
  6
CONTINUOUS
 62
     0
100
AcDbLine
 10
373.0977355698762
 20
482.9423343505499
 30
0.0
 11
373.0977355698762
 21
533.9607237832583
 31
0.0
  0
LINE
  5
299
330
22D
100
AcDbEntity
  8
0
  6
CONTINUOUS
 62
     0
100
AcDbLine
 10
275.5977355698762
 20
533.7807237832584
 30
0.0
 11
370.5977355698762
 21
533.7807237832584
 31
0.0
  0
INSERT
  5
29A
330
22D
100
AcDbEntity
  8
0
 62
     0
100
AcDbBlockReference
  2
_CLOSED
 10
273.0977355698762
 20
533.7807237832584
 30
0.0
 41
2.5
 42
2.5
 43
2.5
 50
180.0
  0
INSERT
  5
29B
330
22D
100
AcDbEntity
  8
0
 62
     0
100
AcDbBlockReference
  2
_CLOSED
 10
373.0977355698762
 20
533.7807237832584
 30
0.0
 41
2.5
 42
2.5
 43
2.5
  0
MTEXT
  5
29C
330
22D
100
AcDbEntity
  8
0
 62
     0
100
AcDbMText
 10
314.0178310345107
 20
536.8707237832584
 30
0.0
 40
3.0
 41
0.0
 71
     2
 72
     1
  1
\A1;200
  0
POINT
  5
698
330
22D
100
AcDbEntity
  8
DEFPOINTS
 62
     0
100
AcDbPoint
 10
273.0977355698762
 20
482.8798343505499
 30
0.0
  0
POINT
  5
699
330
22D
100
AcDbEntity
  8
DEFPOINTS
 62
     0
100
AcDbPoint
 10
373.0977355698762
 20
482.8798343505499
 30
0.0
  0
POINT
  5
69A
330
22D
100
AcDbEntity
  8
DEFPOINTS
 62
     0
100
AcDbPoint
 10
373.0977355698762
 20
533.7807237832584
 30
0.0
  0
ENDBLK
  5
29D
330
22D
100
AcDbEntity
  8
0
  6
BYBLOCK
 62
     0
100
AcDbBlockEnd
  0
BLOCK
  5
234
330
22E
100
AcDbEntity
  8
0
100
AcDbBlockBegin
  2
LOGO2_BL0
 70
     0
 10
333.1473869546
 20
37.5239270671
 30
0.0
  3
LOGO2_BL0
  1

  0
LINE
  5
235
330
22E
100
AcDbEntity
  8
0
  6
CONTINUOUS
 62
     7
100
AcDbLine
 10
324.8903121828
 20
40.7194184059
 30
0.0
 11
323.5859712535
 21
40.7194184059
 31
0.0
  0
LINE
  5
236
330
22E
100
AcDbEntity
  8
0
  6
CONTINUOUS
 62
     7
100
AcDbLine
 10
323.5859712535
 20
40.7194184059
 30
0.0
 11
323.5859712535
 21
30.260352346
 31
0.0
  0
LINE
  5
237
330
22E
100
AcDbEntity
  8
0
  6
CONTINUOUS
 62
     7
100
AcDbLine
 10
323.5859712535
 20
30.260352346
 30
0.0
 11
328.0670261417
 21
30.260352346
 31
0.0
  0
LINE
  5
238
330
22E
100
AcDbEntity
  8
0
  6
CONTINUOUS
 62
     7
100
AcDbLine
 10
328.0670261417
 20
30.260352346
 30
0.0
 11
328.0670261417
 21
31.4532066711
 31
0.0
  0
LINE
  5
239
330
22E
100
AcDbEntity
  8
0
  6
CONTINUOUS
 62
     7
100
AcDbLine
 10
328.0670261417
 20
31.4532066711
 30
0.0
 11
324.8903121828
 21
31.4532066711
 31
0.0
  0
LINE
  5
23A
330
22E
100
AcDbEntity
  8
0
  6
CONTINUOUS
 62
     7
100
AcDbLine
 10
324.8903121828
 20
31.4532066711
 30
0.0
 11
324.8903121828
 21
40.7194184059
 31
0.0
  0
LINE
  5
23B
330
22E
100
AcDbEntity
  8
0
  6
CONTINUOUS
 62
     7
100
AcDbLine
 10
339.8266383991
 20
40.7194184059
 30
0.0
 11
338.522820881
 21
40.7194184059
 31
0.0
  0
LINE
  5
23C
330
22E
100
AcDbEntity
  8
0
  6
CONTINUOUS
 62
     7
100
AcDbLine
 10
338.522820881
 20
40.7194184059
 30
0.0
 11
338.522820881
 21
30.260352346
 31
0.0
  0
LINE
  5
23D
330
22E
100
AcDbEntity
  8
0
  6
CONTINUOUS
 62
     7
100
AcDbLine
 10
338.522820881
 20
30.260352346
 30
0.0
 11
343.0040066221
 21
30.260352346
 31
0.0
  0
LINE
  5
23E
330
22E
100
AcDbEntity
  8
0
  6
CONTINUOUS
 62
     7
100
AcDbLine
 10
343.0040066221
 20
30.260352346
 30
0.0
 11
343.0040066221
 21
31.4532066711
 31
0.0
  0
LINE
  5
23F
330
22E
100
AcDbEntity
  8
0
  6
CONTINUOUS
 62
     7
100
AcDbLine
 10
343.0040066221
 20
31.4532066711
 30
0.0
 11
339.8266383991
 21
31.4532066711
 31
0.0
  0
LINE
  5
240
330
22E
100
AcDbEntity
  8
0
  6
CONTINUOUS
 62
     7
100
AcDbLine
 10
339.8266383991
 20
31.4532066711
 30
0.0
 11
339.8266383991
 21
40.7194184059
 31
0.0
  0
LWPOLYLINE
  5
241
330
22E
100
AcDbEntity
  8
0
  6
CONTINUOUS
 62
     7
100
AcDbPolyline
 90
        2
 70
     0
 43
0.2
 10
321.9403661644
 20
26.9168010391
 10
321.9403661644
 20
25.0597377898
  0
LWPOLYLINE
  5
242
330
22E
100
AcDbEntity
  8
0
  6
CONTINUOUS
 62
     7
100
AcDbPolyline
 90
        2
 70
     0
 43
0.2
 10
321.9403661644
 20
25.0597377898
 10
322.7360821748
 20
25.0597377898
  0
LWPOLYLINE
  5
243
330
22E
100
AcDbEntity
  8
0
  6
CONTINUOUS
 62
     7
100
AcDbPolyline
 90
        2
 70
     0
 43
0.2
 10
322.7360821748
 20
25.0597377898
 10
322.7360821748
 20
25.2717193614
  0
LWPOLYLINE
  5
244
330
22E
100
AcDbEntity
  8
0
  6
CONTINUOUS
 62
     7
100
AcDbPolyline
 90
        2
 70
     0
 43
0.2
 10
322.7360821748
 20
25.2717193614
 10
322.1719756593
 20
25.2717193614
  0
LWPOLYLINE
  5
245
330
22E
100
AcDbEntity
  8
0
  6
CONTINUOUS
 62
     7
100
AcDbPolyline
 90
        2
 70
     0
 43
0.2
 10
322.1719756593
 20
25.2717193614
 10
322.1719756593
 20
26.9168010391
  0
LWPOLYLINE
  5
246
330
22E
100
AcDbEntity
  8
0
  6
CONTINUOUS
 62
     7
100
AcDbPolyline
 90
        2
 70
     0
 43
0.2
 10
322.1719756593
 20
26.9168010391
 10
321.9403661644
 20
26.9168010391
  0
SPLINE
  5
247
330
22E
100
AcDbEntity
  8
0
  6
CONTINUOUS
 62
     7
100
AcDbSpline
 70
     3
 71
     3
 72
    35
 73
    31
 74
     0
 42
0.000000001
 43
0.0000001
 40
0.0
 40
0.0
 40
0.0
 40
0.0
 40
1.0
 40
1.0
 40
1.0
 40
2.0
 40
2.0
 40
2.0
 40
3.0
 40
3.0
 40
3.0
 40
4.0
 40
4.0
 40
4.0
 40
5.0
 40
5.0
 40
5.0
 40
6.0
 40
6.0
 40
6.0
 40
7.0
 40
7.0
 40
7.0
 40
8.0
 40
8.0
 40
8.0
 40
9.0
 40
9.0
 40
9.0
 40
10.0
 40
10.0
 40
10.0
 40
10.0
 10
324.1343754303
 20
26.2122894457
 30
0.0
 10
324.1343754303
 20
26.2122894457
 30
0.0
 10
324.1343754303
 20
25.5501741665
 30
0.0
 10
324.1343754303
 20
25.5501741665
 30
0.0
 10
324.1343754303
 20
25.2350805712
 30
0.0
 10
324.2822391191
 20
25.0204819432
 30
0.0
 10
324.6223256034
 20
25.0204819432
 30
0.0
 10
324.9618886764
 20
25.0204819432
 30
0.0
 10
325.1100140709
 20
25.2350805712
 30
0.0
 10
325.1100140709
 20
25.5501741665
 30
0.0
 10
325.1100140709
 20
25.5501741665
 30
0.0
 10
325.1100140709
 20
26.2122894457
 30
0.0
 10
325.1100140709
 20
26.2122894457
 30
0.0
 10
325.1100140709
 20
26.2122894457
 30
0.0
 10
324.887956832
 20
26.2122894457
 30
0.0
 10
324.887956832
 20
26.2122894457
 30
0.0
 10
324.887956832
 20
26.2122894457
 30
0.0
 10
324.887956832
 20
25.5752979083
 30
0.0
 10
324.887956832
 20
25.5752979083
 30
0.0
 10
324.887956832
 20
25.3894869011
 30
0.0
 10
324.8412423746
 20
25.2267059906
 30
0.0
 10
324.6223256034
 20
25.2267059906
 30
0.0
 10
324.402885421
 20
25.2267059906
 30
0.0
 10
324.3561709636
 20
25.3894869011
 30
0.0
 10
324.3561709636
 20
25.5752979083
 30
0.0
 10
324.3561709636
 20
25.5752979083
 30
0.0
 10
324.3561709636
 20
26.2122894457
 30
0.0
 10
324.3561709636
 20
26.2122894457
 30
0.0
 10
324.3561709636
 20
26.2122894457
 30
0.0
 10
324.1343754303
 20
26.2122894457
 30
0.0
 10
324.1343754303
 20
26.2122894457
 30
0.0
  0
SPLINE
  5
248
330
22E
100
AcDbEntity
  8
0
  6
CONTINUOUS
 62
     7
100
AcDbSpline
 70
     3
 71
     3
 72
    35
 73
    31
 74
     0
 42
0.000000001
 43
0.0000001
 40
0.0
 40
0.0
 40
0.0
 40
0.0
 40
1.0
 40
1.0
 40
1.0
 40
2.0
 40
2.0
 40
2.0
 40
3.0
 40
3.0
 40
3.0
 40
4.0
 40
4.0
 40
4.0
 40
5.0
 40
5.0
 40
5.0
 40
6.0
 40
6.0
 40
6.0
 40
7.0
 40
7.0
 40
7.0
 40
8.0
 40
8.0
 40
8.0
 40
9.0
 40
9.0
 40
9.0
 40
10.0
 40
10.0
 40
10.0
 40
10.0
 10
327.5331466281
 20
26.1709399539
 30
0.0
 10
327.4446901205
 20
26.2222342601
 30
0.0
 10
327.3312407238
 20
26.2473580019
 30
0.0
 10
327.2276052888
 20
26.2473580019
 30
0.0
 10
326.8727324356
 20
26.2473580019
 30
0.0
 10
326.5972872454
 20
25.9835587129
 30
0.0
 10
326.5972872454
 20
25.6260688032
 30
0.0
 10
326.5972872454
 20
25.2811407645
 30
0.0
 10
326.8757420505
 20
25.0210053545
 30
0.0
 10
327.2153051235
 20
25.0210053545
 30
0.0
 10
327.3312407238
 20
25.0210053545
 30
0.0
 10
327.4319973967
 20
25.0429886286
 30
0.0
 10
327.5331466281
 20
25.0968999912
 30
0.0
 10
327.5331466281
 20
25.0968999912
 30
0.0
 10
327.5331466281
 20
25.3795420867
 30
0.0
 10
327.5331466281
 20
25.3795420867
 30
0.0
 10
327.4492699692
 20
25.2863748774
 30
0.0
 10
327.345765387
 20
25.2272294019
 30
0.0
 10
327.2176604743
 20
25.2272294019
 30
0.0
 10
326.9839573343
 20
25.2272294019
 30
0.0
 10
326.8186902202
 20
25.3994317156
 30
0.0
 10
326.8186902202
 20
25.6360136177
 30
0.0
 10
326.8186902202
 20
25.8479951893
 30
0.0
 10
326.9864435379
 20
26.040087132
 30
0.0
 10
327.2032666639
 20
26.040087132
 30
0.0
 10
327.3360822782
 20
26.040087132
 30
0.0
 10
327.4446901205
 20
25.9861757693
 30
0.0
 10
327.5331466281
 20
25.8851573907
 30
0.0
 10
327.5331466281
 20
25.8851573907
 30
0.0
 10
327.5331466281
 20
26.1709399539
 30
0.0
 10
327.5331466281
 20
26.1709399539
 30
0.0
  0
SPLINE
  5
249
330
22E
100
AcDbEntity
  8
0
  6
CONTINUOUS
 62
     7
100
AcDbSpline
 70
     3
 71
     3
 72
    32
 73
    28
 74
     0
 42
0.000000001
 43
0.0000001
 40
0.0
 40
0.0
 40
0.0
 40
0.0
 40
1.0
 40
1.0
 40
1.0
 40
2.0
 40
2.0
 40
2.0
 40
3.0
 40
3.0
 40
3.0
 40
4.0
 40
4.0
 40
4.0
 40
5.0
 40
5.0
 40
5.0
 40
6.0
 40
6.0
 40
6.0
 40
7.0
 40
7.0
 40
7.0
 40
8.0
 40
8.0
 40
8.0
 40
9.0
 40
9.0
 40
9.0
 40
9.0
 10
330.0650178804
 20
25.5993748276
 30
0.0
 10
330.0650178804
 20
25.5993748276
 30
0.0
 10
330.0650178804
 20
25.6333965613
 30
0.0
 10
330.0650178804
 20
25.6333965613
 30
0.0
 10
330.0650178804
 20
25.9757075435
 30
0.0
 10
329.8921613025
 20
26.2473580019
 30
0.0
 10
329.5255116954
 20
26.2473580019
 30
0.0
 10
329.153889681
 20
26.2473580019
 30
0.0
 10
328.9641530891
 20
25.9809416564
 30
0.0
 10
328.9641530891
 20
25.6260688032
 30
0.0
 10
328.9641530891
 20
25.2863748774
 30
0.0
 10
329.1782283059
 20
25.0204819432
 30
0.0
 10
329.5303532498
 20
25.0204819432
 30
0.0
 10
329.754373281
 20
25.0204819432
 30
0.0
 10
329.9565408909
 20
25.1361558378
 30
0.0
 10
330.0650178804
 20
25.3355755385
 30
0.0
 10
330.0650178804
 20
25.3355755385
 30
0.0
 10
329.8773749337
 20
25.4423514412
 30
0.0
 10
329.8773749337
 20
25.4423514412
 30
0.0
 10
329.7938908332
 20
25.3036474499
 30
0.0
 10
329.7026864163
 20
25.2178079987
 30
0.0
 10
329.5331011591
 20
25.2178079987
 30
0.0
 10
329.3211195875
 20
25.2178079987
 30
0.0
 10
329.1881731204
 20
25.4025721833
 30
0.0
 10
329.1858177696
 20
25.5993748276
 30
0.0
 10
329.1858177696
 20
25.5993748276
 30
0.0
 10
330.0650178804
 20
25.5993748276
 30
0.0
 10
330.0650178804
 20
25.5993748276
 30
0.0
  0
SPLINE
  5
24A
330
22E
100
AcDbEntity
  8
0
  6
CONTINUOUS
 62
     7
100
AcDbSpline
 70
     3
 71
     3
 72
    14
 73
    10
 74
     0
 42
0.000000001
 43
0.0000001
 40
0.0
 40
0.0
 40
0.0
 40
0.0
 40
1.0
 40
1.0
 40
1.0
 40
2.0
 40
2.0
 40
2.0
 40
3.0
 40
3.0
 40
3.0
 40
3.0
 10
329.1978562292
 20
25.7668664397
 30
0.0
 10
329.2254661746
 20
25.9317409954
 30
0.0
 10
329.3533093817
 20
26.054742648
 30
0.0
 10
329.5255116954
 20
26.054742648
 30
0.0
 10
329.7026864163
 20
26.054742648
 30
0.0
 10
329.816135813
 20
25.9390687534
 30
0.0
 10
329.8433531999
 20
25.7668664397
 30
0.0
 10
329.8433531999
 20
25.7668664397
 30
0.0
 10
329.1978562292
 20
25.7668664397
 30
0.0
 10
329.1978562292
 20
25.7668664397
 30
0.0
  0
SPLINE
  5
24B
330
22E
100
AcDbEntity
  8
0
  6
CONTINUOUS
 62
     7
100
AcDbSpline
 70
     3
 71
     3
 72
    20
 73
    16
 74
     0
 42
0.000000001
 43
0.0000001
 40
0.0
 40
0.0
 40
0.0
 40
0.0
 40
1.0
 40
1.0
 40
1.0
 40
2.0
 40
2.0
 40
2.0
 40
3.0
 40
3.0
 40
3.0
 40
4.0
 40
4.0
 40
4.0
 40
5.0
 40
5.0
 40
5.0
 40
5.0
 10
332.0890493306
 20
25.9762309548
 30
0.0
 10
332.0890493306
 20
25.9762309548
 30
0.0
 10
332.5001888972
 20
25.4737561185
 30
0.0
 10
332.5001888972
 20
25.4737561185
 30
0.0
 10
332.3841224441
 20
25.3580822239
 30
0.0
 10
332.2463344226
 20
25.2277528132
 30
0.0
 10
332.0743938145
 20
25.2277528132
 30
0.0
 10
331.8969573879
 20
25.2277528132
 30
0.0
 10
331.7294657758
 20
25.3921039576
 30
0.0
 10
331.7294657758
 20
25.5690169729
 30
0.0
 10
331.7294657758
 20
25.7469768107
 30
0.0
 10
331.9392228494
 20
25.8731189311
 30
0.0
 10
332.0668043508
 20
25.9610520275
 30
0.0
 10
332.0668043508
 20
25.9610520275
 30
0.0
 10
332.0890493306
 20
25.9762309548
 30
0.0
 10
332.0890493306
 20
25.9762309548
 30
0.0
  0
SPLINE
  5
24C
330
22E
100
AcDbEntity
  8
0
  6
CONTINUOUS
 62
     7
100
AcDbSpline
 70
     3
 71
     3
 72
    23
 73
    19
 74
     0
 42
0.000000001
 43
0.0000001
 40
0.0
 40
0.0
 40
0.0
 40
0.0
 40
1.0
 40
1.0
 40
1.0
 40
2.0
 40
2.0
 40
2.0
 40
3.0
 40
3.0
 40
3.0
 40
4.0
 40
4.0
 40
4.0
 40
5.0
 40
5.0
 40
5.0
 40
6.0
 40
6.0
 40
6.0
 40
6.0
 10
332.1383808444
 20
26.2672476309
 30
0.0
 10
332.1383808444
 20
26.2672476309
 30
0.0
 10
332.0767491653
 20
26.3457593241
 30
0.0
 10
332.0767491653
 20
26.3457593241
 30
0.0
 10
332.0228378026
 20
26.4143262028
 30
0.0
 10
331.9660476779
 20
26.4834164928
 30
0.0
 10
331.9660476779
 20
26.5771071133
 30
0.0
 10
331.9660476779
 20
26.6959214757
 30
0.0
 10
332.0619627964
 20
26.7733863463
 30
0.0
 10
332.1729259894
 20
26.7733863463
 30
0.0
 10
332.2961893477
 20
26.7733863463
 30
0.0
 10
332.3894874098
 20
26.7022024111
 30
0.0
 10
332.3894874098
 20
26.5718730004
 30
0.0
 10
332.3894874098
 20
26.4368328882
 30
0.0
 10
332.2613824971
 20
26.3604148401
 30
0.0
 10
332.1678227294
 20
26.2866138485
 30
0.0
 10
332.1678227294
 20
26.2866138485
 30
0.0
 10
332.1383808444
 20
26.2672476309
 30
0.0
 10
332.1383808444
 20
26.2672476309
 30
0.0
  0
SPLINE
  5
24D
330
22E
100
AcDbEntity
  8
0
  6
CONTINUOUS
 62
     7
100
AcDbSpline
 70
     3
 71
     3
 72
    50
 73
    46
 74
     0
 42
0.000000001
 43
0.0000001
 40
0.0
 40
0.0
 40
0.0
 40
0.0
 40
1.0
 40
1.0
 40
1.0
 40
2.0
 40
2.0
 40
2.0
 40
3.0
 40
3.0
 40
3.0
 40
4.0
 40
4.0
 40
4.0
 40
5.0
 40
5.0
 40
5.0
 40
6.0
 40
6.0
 40
6.0
 40
7.0
 40
7.0
 40
7.0
 40
8.0
 40
8.0
 40
8.0
 40
9.0
 40
9.0
 40
9.0
 40
10.0
 40
10.0
 40
10.0
 40
11.0
 40
11.0
 40
11.0
 40
12.0
 40
12.0
 40
12.0
 40
13.0
 40
13.0
 40
13.0
 40
14.0
 40
14.0
 40
14.0
 40
15.0
 40
15.0
 40
15.0
 40
15.0
 10
332.8405370871
 20
25.0602612011
 30
0.0
 10
332.8405370871
 20
25.0602612011
 30
0.0
 10
333.1259270918
 20
25.0602612011
 30
0.0
 10
333.1259270918
 20
25.0602612011
 30
0.0
 10
333.1259270918
 20
25.0602612011
 30
0.0
 10
332.793560924
 20
25.471139062
 30
0.0
 10
332.793560924
 20
25.471139062
 30
0.0
 10
332.793560924
 20
25.471139062
 30
0.0
 10
333.0200671588
 20
25.7370319963
 30
0.0
 10
333.0200671588
 20
25.7370319963
 30
0.0
 10
333.0200671588
 20
25.7370319963
 30
0.0
 10
332.8718109116
 20
25.8898680923
 30
0.0
 10
332.8718109116
 20
25.8898680923
 30
0.0
 10
332.8718109116
 20
25.8898680923
 30
0.0
 10
332.6559037553
 20
25.6386306742
 30
0.0
 10
332.6559037553
 20
25.6386306742
 30
0.0
 10
332.6559037553
 20
25.6386306742
 30
0.0
 10
332.2688411079
 20
26.1065603655
 30
0.0
 10
332.2688411079
 20
26.1065603655
 30
0.0
 10
332.4242942604
 20
26.2206640263
 30
0.0
 10
332.6065722414
 20
26.3604148401
 30
0.0
 10
332.6065722414
 20
26.5697793553
 30
0.0
 10
332.6065722414
 20
26.8136890154
 30
0.0
 10
332.4045354843
 20
26.9571037083
 30
0.0
 10
332.1780292495
 20
26.9571037083
 30
0.0
 10
331.9338578837
 20
26.9571037083
 30
0.0
 10
331.7494862575
 20
26.8063612574
 30
0.0
 10
331.7494862575
 20
26.5498897263
 30
0.0
 10
331.7494862575
 20
26.3923429287
 30
0.0
 10
331.8481492853
 20
26.25468576
 30
0.0
 10
331.953485807
 20
26.1437225669
 30
0.0
 10
331.953485807
 20
26.1437225669
 30
0.0
 10
331.8379427652
 20
26.0599767609
 30
0.0
 10
331.8379427652
 20
26.0599767609
 30
0.0
 10
331.660244633
 20
25.9317409954
 30
0.0
 10
331.5129043554
 20
25.8040286411
 30
0.0
 10
331.5129043554
 20
25.5669233277
 30
0.0
 10
331.5129043554
 20
25.2465956195
 30
0.0
 10
331.7714695316
 20
25.0204819432
 30
0.0
 10
332.0818524253
 20
25.0204819432
 30
0.0
 10
332.3007691965
 20
25.0204819432
 30
0.0
 10
332.4979643992
 20
25.145577241
 30
0.0
 10
332.6382386243
 20
25.3114986192
 30
0.0
 10
332.6382386243
 20
25.3114986192
 30
0.0
 10
332.8405370871
 20
25.0602612011
 30
0.0
 10
332.8405370871
 20
25.0602612011
 30
0.0
  0
LWPOLYLINE
  5
24E
330
22E
100
AcDbEntity
  8
0
  6
CONTINUOUS
 62
     7
100
AcDbPolyline
 90
        2
 70
     0
 43
0.2
 10
334.7759811768
 20
26.9168010391
 10
334.5446333876
 20
26.9168010391
  0
LWPOLYLINE
  5
24F
330
22E
100
AcDbEntity
  8
0
  6
CONTINUOUS
 62
     7
100
AcDbPolyline
 90
        2
 70
     0
 43
0.2
 10
334.5446333876
 20
26.9168010391
 10
334.5446333876
 20
25.0597377898
  0
LWPOLYLINE
  5
250
330
22E
100
AcDbEntity
  8
0
  6
CONTINUOUS
 62
     7
100
AcDbPolyline
 90
        2
 70
     0
 43
0.2
 10
334.5446333876
 20
25.0597377898
 10
335.3399568395
 20
25.0597377898
  0
LWPOLYLINE
  5
251
330
22E
100
AcDbEntity
  8
0
  6
CONTINUOUS
 62
     7
100
AcDbPolyline
 90
        2
 70
     0
 43
0.2
 10
335.3399568395
 20
25.0597377898
 10
335.3399568395
 20
25.2717193614
  0
LWPOLYLINE
  5
252
330
22E
100
AcDbEntity
  8
0
  6
CONTINUOUS
 62
     7
100
AcDbPolyline
 90
        2
 70
     0
 43
0.2
 10
335.3399568395
 20
25.2717193614
 10
334.7759811768
 20
25.2717193614
  0
LWPOLYLINE
  5
253
330
22E
100
AcDbEntity
  8
0
  6
CONTINUOUS
 62
     7
100
AcDbPolyline
 90
        2
 70
     0
 43
0.2
 10
334.7759811768
 20
25.2717193614
 10
334.7759811768
 20
26.9168010391
  0
LWPOLYLINE
  5
254
330
22E
100
AcDbEntity
  8
0
  6
CONTINUOUS
 62
     7
100
AcDbPolyline
 90
        2
 70
     0
 43
0.2
 10
337.019060251
 20
26.2122894457
 10
336.7979189819
 20
26.2122894457
  0
LWPOLYLINE
  5
255
330
22E
100
AcDbEntity
  8
0
  6
CONTINUOUS
 62
     7
100
AcDbPolyline
 90
        2
 70
     0
 43
0.2
 10
336.7979189819
 20
26.2122894457
 10
336.7979189819
 20
25.0602612011
  0
LWPOLYLINE
  5
256
330
22E
100
AcDbEntity
  8
0
  6
CONTINUOUS
 62
     7
100
AcDbPolyline
 90
        2
 70
     0
 43
0.2
 10
336.7979189819
 20
25.0602612011
 10
337.019060251
 20
25.0602612011
  0
LWPOLYLINE
  5
257
330
22E
100
AcDbEntity
  8
0
  6
CONTINUOUS
 62
     7
100
AcDbPolyline
 90
        2
 70
     0
 43
0.2
 10
337.019060251
 20
25.0602612011
 10
337.019060251
 20
26.2122894457
  0
SPLINE
  5
258
330
22E
100
AcDbEntity
  8
0
  6
CONTINUOUS
 62
     7
100
AcDbSpline
 70
     3
 71
     3
 72
    17
 73
    13
 74
     0
 42
0.000000001
 43
0.0000001
 40
0.0
 40
0.0
 40
0.0
 40
0.0
 40
1.0
 40
1.0
 40
1.0
 40
2.0
 40
2.0
 40
2.0
 40
3.0
 40
3.0
 40
3.0
 40
4.0
 40
4.0
 40
4.0
 40
4.0
 10
336.9086204693
 20
26.894817765
 30
0.0
 10
336.8246129576
 20
26.894817765
 30
0.0
 10
336.7560460788
 20
26.825727475
 30
0.0
 10
336.7560460788
 20
26.7398880238
 30
0.0
 10
336.7560460788
 20
26.6556188065
 30
0.0
 10
336.8246129576
 20
26.5896689842
 30
0.0
 10
336.9086204693
 20
26.5896689842
 30
0.0
 10
336.9923662753
 20
26.5896689842
 30
0.0
 10
337.0611948597
 20
26.6556188065
 30
0.0
 10
337.0611948597
 20
26.7398880238
 30
0.0
 10
337.0611948597
 20
26.825727475
 30
0.0
 10
336.9923662753
 20
26.894817765
 30
0.0
 10
336.9086204693
 20
26.894817765
 30
0.0
  0
SPLINE
  5
259
330
22E
100
AcDbEntity
  8
0
  6
CONTINUOUS
 62
     7
100
AcDbSpline
 70
     3
 71
     3
 72
    17
 73
    13
 74
     0
 42
0.000000001
 43
0.0000001
 40
0.0
 40
0.0
 40
0.0
 40
0.0
 40
1.0
 40
1.0
 40
1.0
 40
2.0
 40
2.0
 40
2.0
 40
3.0
 40
3.0
 40
3.0
 40
4.0
 40
4.0
 40
4.0
 40
4.0
 10
339.1493441926
 20
25.2178079987
 30
0.0
 10
338.915379347
 20
25.2178079987
 30
0.0
 10
338.7850499363
 20
25.4198447558
 30
0.0
 10
338.7850499363
 20
25.6360136177
 30
0.0
 10
338.7850499363
 20
25.8506122457
 30
0.0
 10
338.9208751655
 20
26.0495085351
 30
0.0
 10
339.1493441926
 20
26.0495085351
 30
0.0
 10
339.3888048568
 20
26.0495085351
 30
0.0
 10
339.5243683804
 20
25.8605570602
 30
0.0
 10
339.5243683804
 20
25.6360136177
 30
0.0
 10
339.5243683804
 20
25.4098999414
 30
0.0
 10
339.3911602076
 20
25.2178079987
 30
0.0
 10
339.1493441926
 20
25.2178079987
 30
0.0
  0
SPLINE
  5
25A
330
22E
100
AcDbEntity
  8
0
  6
CONTINUOUS
 62
     7
100
AcDbSpline
 70
     3
 71
     3
 72
    50
 73
    46
 74
     0
 42
0.000000001
 43
0.0000001
 40
0.0
 40
0.0
 40
0.0
 40
0.0
 40
1.0
 40
1.0
 40
1.0
 40
2.0
 40
2.0
 40
2.0
 40
3.0
 40
3.0
 40
3.0
 40
4.0
 40
4.0
 40
4.0
 40
5.0
 40
5.0
 40
5.0
 40
6.0
 40
6.0
 40
6.0
 40
7.0
 40
7.0
 40
7.0
 40
8.0
 40
8.0
 40
8.0
 40
9.0
 40
9.0
 40
9.0
 40
10.0
 40
10.0
 40
10.0
 40
11.0
 40
11.0
 40
11.0
 40
12.0
 40
12.0
 40
12.0
 40
13.0
 40
13.0
 40
13.0
 40
14.0
 40
14.0
 40
14.0
 40
15.0
 40
15.0
 40
15.0
 40
15.0
 10
339.7334711899
 20
26.2128128569
 30
0.0
 10
339.7334711899
 20
26.2128128569
 30
0.0
 10
339.5118065095
 20
26.2128128569
 30
0.0
 10
339.5118065095
 20
26.2128128569
 30
0.0
 10
339.5118065095
 20
26.2128128569
 30
0.0
 10
339.5118065095
 20
26.0154868014
 30
0.0
 10
339.5118065095
 20
26.0154868014
 30
0.0
 10
339.5118065095
 20
26.0154868014
 30
0.0
 10
339.5070958079
 20
26.0154868014
 30
0.0
 10
339.5070958079
 20
26.0154868014
 30
0.0
 10
339.4157605382
 20
26.158378083
 30
0.0
 10
339.2778416638
 20
26.2468345907
 30
0.0
 10
339.1051159388
 20
26.2468345907
 30
0.0
 10
338.772749771
 20
26.2468345907
 30
0.0
 10
338.5636469615
 20
25.9589583823
 30
0.0
 10
338.5636469615
 20
25.6433413757
 30
0.0
 10
338.5636469615
 20
25.3135922644
 30
0.0
 10
338.7607113114
 20
25.0204819432
 30
0.0
 10
339.1155841646
 20
25.0204819432
 30
0.0
 10
339.2778416638
 20
25.0204819432
 30
0.0
 10
339.4178541833
 20
25.1089384508
 30
0.0
 10
339.5070958079
 20
25.2397912728
 30
0.0
 10
339.5070958079
 20
25.2397912728
 30
0.0
 10
339.5118065095
 20
25.2397912728
 30
0.0
 10
339.5118065095
 20
25.2397912728
 30
0.0
 10
339.5118065095
 20
25.2397912728
 30
0.0
 10
339.5118065095
 20
25.0204819432
 30
0.0
 10
339.5118065095
 20
25.0204819432
 30
0.0
 10
339.5118065095
 20
24.7839000411
 30
0.0
 10
339.4552780904
 20
24.5970422113
 30
0.0
 10
339.1820573981
 20
24.5970422113
 30
0.0
 10
338.9797589354
 20
24.5970422113
 30
0.0
 10
338.8371293594
 20
24.7153331624
 30
0.0
 10
338.8371293594
 20
24.9215572098
 30
0.0
 10
338.8371293594
 20
24.9215572098
 30
0.0
 10
338.615464679
 20
24.9215572098
 30
0.0
 10
338.615464679
 20
24.9215572098
 30
0.0
 10
338.6204370862
 20
24.5970422113
 30
0.0
 10
338.8515231698
 20
24.4002395671
 30
0.0
 10
339.171850878
 20
24.4002395671
 30
0.0
 10
339.6198909404
 20
24.4002395671
 30
0.0
 10
339.7334711899
 20
24.6854987189
 30
0.0
 10
339.7334711899
 20
25.0822444751
 30
0.0
 10
339.7334711899
 20
25.0822444751
 30
0.0
 10
339.7334711899
 20
26.2128128569
 30
0.0
 10
339.7334711899
 20
26.2128128569
 30
0.0
  0
SPLINE
  5
25B
330
22E
100
AcDbEntity
  8
0
  6
CONTINUOUS
 62
     7
100
AcDbSpline
 70
     3
 71
     3
 72
    44
 73
    40
 74
     0
 42
0.000000001
 43
0.0000001
 40
0.0
 40
0.0
 40
0.0
 40
0.0
 40
1.0
 40
1.0
 40
1.0
 40
2.0
 40
2.0
 40
2.0
 40
3.0
 40
3.0
 40
3.0
 40
4.0
 40
4.0
 40
4.0
 40
5.0
 40
5.0
 40
5.0
 40
6.0
 40
6.0
 40
6.0
 40
7.0
 40
7.0
 40
7.0
 40
8.0
 40
8.0
 40
8.0
 40
9.0
 40
9.0
 40
9.0
 40
10.0
 40
10.0
 40
10.0
 40
11.0
 40
11.0
 40
11.0
 40
12.0
 40
12.0
 40
12.0
 40
13.0
 40
13.0
 40
13.0
 40
13.0
 10
341.3023965253
 20
27.1978729007
 30
0.0
 10
341.3023965253
 20
27.1978729007
 30
0.0
 10
341.3023965253
 20
25.0597377898
 30
0.0
 10
341.3023965253
 20
25.0597377898
 30
0.0
 10
341.3023965253
 20
25.0597377898
 30
0.0
 10
341.5237995001
 20
25.0597377898
 30
0.0
 10
341.5237995001
 20
25.0597377898
 30
0.0
 10
341.5237995001
 20
25.0597377898
 30
0.0
 10
341.5237995001
 20
25.5894300131
 30
0.0
 10
341.5237995001
 20
25.5894300131
 30
0.0
 10
341.5237995001
 20
25.7993179395
 30
0.0
 10
341.5237995001
 20
26.0500319464
 30
0.0
 10
341.8090586519
 20
26.0500319464
 30
0.0
 10
342.0359574452
 20
26.0500319464
 30
0.0
 10
342.0629131266
 20
25.9170854793
 30
0.0
 10
342.0629131266
 20
25.7208062464
 30
0.0
 10
342.0629131266
 20
25.7208062464
 30
0.0
 10
342.0629131266
 20
25.0597377898
 30
0.0
 10
342.0629131266
 20
25.0597377898
 30
0.0
 10
342.0629131266
 20
25.0597377898
 30
0.0
 10
342.2848395126
 20
25.0597377898
 30
0.0
 10
342.2848395126
 20
25.0597377898
 30
0.0
 10
342.2848395126
 20
25.0597377898
 30
0.0
 10
342.2848395126
 20
25.7469768107
 30
0.0
 10
342.2848395126
 20
25.7469768107
 30
0.0
 10
342.2848395126
 20
26.027525261
 30
0.0
 10
342.2008320009
 20
26.2473580019
 30
0.0
 10
341.8757935911
 20
26.2473580019
 30
0.0
 10
341.7360427773
 20
26.2473580019
 30
0.0
 10
341.5978621973
 20
26.1808847684
 30
0.0
 10
341.5285102016
 20
26.0578831157
 30
0.0
 10
341.5285102016
 20
26.0578831157
 30
0.0
 10
341.5237995001
 20
26.0578831157
 30
0.0
 10
341.5237995001
 20
26.0578831157
 30
0.0
 10
341.5237995001
 20
26.0578831157
 30
0.0
 10
341.5237995001
 20
27.1978729007
 30
0.0
 10
341.5237995001
 20
27.1978729007
 30
0.0
 10
341.5237995001
 20
27.1978729007
 30
0.0
 10
341.3023965253
 20
27.1978729007
 30
0.0
 10
341.3023965253
 20
27.1978729007
 30
0.0
  0
LWPOLYLINE
  5
25C
330
22E
100
AcDbEntity
  8
0
  6
CONTINUOUS
 62
     7
100
AcDbPolyline
 90
        2
 70
     0
 43
0.2
 10
344.1246301895
 20
26.005541987
 10
344.341060757
 20
26.005541987
  0
LWPOLYLINE
  5
25D
330
22E
100
AcDbEntity
  8
0
  6
CONTINUOUS
 62
     7
100
AcDbPolyline
 90
        2
 70
     0
 43
0.2
 10
344.341060757
 20
26.005541987
 10
344.341060757
 20
26.2122894457
  0
LWPOLYLINE
  5
25E
330
22E
100
AcDbEntity
  8
0
  6
CONTINUOUS
 62
     7
100
AcDbPolyline
 90
        2
 70
     0
 43
0.2
 10
344.341060757
 20
26.2122894457
 10
344.1246301895
 20
26.2122894457
  0
LWPOLYLINE
  5
25F
330
22E
100
AcDbEntity
  8
0
  6
CONTINUOUS
 62
     7
100
AcDbPolyline
 90
        2
 70
     0
 43
0.2
 10
344.1246301895
 20
26.2122894457
 10
344.1246301895
 20
26.65300175
  0
LWPOLYLINE
  5
260
330
22E
100
AcDbEntity
  8
0
  6
CONTINUOUS
 62
     7
100
AcDbPolyline
 90
        2
 70
     0
 43
0.2
 10
344.1246301895
 20
26.65300175
 10
343.9029655091
 20
26.65300175
  0
LWPOLYLINE
  5
261
330
22E
100
AcDbEntity
  8
0
  6
CONTINUOUS
 62
     7
100
AcDbPolyline
 90
        2
 70
     0
 43
0.2
 10
343.9029655091
 20
26.65300175
 10
343.9029655091
 20
26.2122894457
  0
LWPOLYLINE
  5
262
330
22E
100
AcDbEntity
  8
0
  6
CONTINUOUS
 62
     7
100
AcDbPolyline
 90
        2
 70
     0
 43
0.2
 10
343.9029655091
 20
26.2122894457
 10
343.7823192072
 20
26.2122894457
  0
LWPOLYLINE
  5
263
330
22E
100
AcDbEntity
  8
0
  6
CONTINUOUS
 62
     7
100
AcDbPolyline
 90
        2
 70
     0
 43
0.2
 10
343.7823192072
 20
26.2122894457
 10
343.7823192072
 20
26.005541987
  0
LWPOLYLINE
  5
264
330
22E
100
AcDbEntity
  8
0
  6
CONTINUOUS
 62
     7
100
AcDbPolyline
 90
        2
 70
     0
 43
0.2
 10
343.7823192072
 20
26.005541987
 10
343.9029655091
 20
26.005541987
  0
LWPOLYLINE
  5
265
330
22E
100
AcDbEntity
  8
0
  6
CONTINUOUS
 62
     7
100
AcDbPolyline
 90
        2
 70
     0
 43
0.2
 10
343.9029655091
 20
26.005541987
 10
343.9029655091
 20
25.0597377898
  0
LWPOLYLINE
  5
266
330
22E
100
AcDbEntity
  8
0
  6
CONTINUOUS
 62
     7
100
AcDbPolyline
 90
        2
 70
     0
 43
0.2
 10
343.9029655091
 20
25.0597377898
 10
344.1246301895
 20
25.0597377898
  0
LWPOLYLINE
  5
267
330
22E
100
AcDbEntity
  8
0
  6
CONTINUOUS
 62
     7
100
AcDbPolyline
 90
        2
 70
     0
 43
0.2
 10
344.1246301895
 20
25.0597377898
 10
344.1246301895
 20
26.005541987
  0
SPLINE
  5
268
330
22E
100
AcDbEntity
  8
0
  6
CONTINUOUS
 62
     7
100
AcDbSpline
 70
     3
 71
     3
 72
    20
 73
    16
 74
     0
 42
0.000000001
 43
0.0000001
 40
0.0
 40
0.0
 40
0.0
 40
0.0
 40
1.0
 40
1.0
 40
1.0
 40
2.0
 40
2.0
 40
2.0
 40
3.0
 40
3.0
 40
3.0
 40
4.0
 40
4.0
 40
4.0
 40
5.0
 40
5.0
 40
5.0
 40
5.0
 10
331.9066404967
 20
35.4206642332
 30
0.0
 10
331.9066404967
 20
35.4206642332
 30
0.0
 10
334.2229971512
 20
32.5911028109
 30
0.0
 10
334.2229971512
 20
32.5911028109
 30
0.0
 10
333.5713500978
 20
31.9389323462
 30
0.0
 10
332.7944768938
 20
31.2030160755
 30
0.0
 10
331.8232872491
 20
31.2030160755
 30
0.0
 10
330.8247493647
 20
31.2030160755
 30
0.0
 10
329.8814313711
 20
32.1325945228
 30
0.0
 10
329.8814313711
 20
33.1317866713
 30
0.0
 10
329.8814313711
 20
34.1309788198
 30
0.0
 10
331.0602844442
 20
34.8375840585
 30
0.0
 10
331.7818069046
 20
35.3374418384
 30
0.0
 10
331.7818069046
 20
35.3374418384
 30
0.0
 10
331.9066404967
 20
35.4206642332
 30
0.0
 10
331.9066404967
 20
35.4206642332
 30
0.0
  0
SPLINE
  5
269
330
22E
100
AcDbEntity
  8
0
  6
CONTINUOUS
 62
     7
100
AcDbSpline
 70
     3
 71
     3
 72
    23
 73
    19
 74
     0
 42
0.000000001
 43
0.0000001
 40
0.0
 40
0.0
 40
0.0
 40
0.0
 40
1.0
 40
1.0
 40
1.0
 40
2.0
 40
2.0
 40
2.0
 40
3.0
 40
3.0
 40
3.0
 40
4.0
 40
4.0
 40
4.0
 40
5.0
 40
5.0
 40
5.0
 40
6.0
 40
6.0
 40
6.0
 40
6.0
 10
332.1840484793
 20
37.0584181529
 30
0.0
 10
332.1840484793
 20
37.0584181529
 30
0.0
 10
331.8375502067
 20
37.5017475137
 30
0.0
 10
331.8375502067
 20
37.5017475137
 30
0.0
 10
331.5317471618
 20
37.8898569837
 30
0.0
 10
331.2128588347
 20
38.2783590121
 30
0.0
 10
331.2128588347
 20
38.8053033262
 30
0.0
 10
331.2128588347
 20
39.4714750428
 30
0.0
 10
331.7541969591
 20
39.9151969621
 30
0.0
 10
332.3781032143
 20
39.9151969621
 30
0.0
 10
333.0718848763
 20
39.9151969621
 30
0.0
 10
333.5990908961
 20
39.5129553874
 30
0.0
 10
333.5990908961
 20
38.7779550864
 30
0.0
 10
333.5990908961
 20
38.0146905758
 30
0.0
 10
332.8778301414
 20
37.58457735
 30
0.0
 10
332.3507549745
 20
37.1688579346
 30
0.0
 10
332.3507549745
 20
37.1688579346
 30
0.0
 10
332.1840484793
 20
37.0584181529
 30
0.0
 10
332.1840484793
 20
37.0584181529
 30
0.0
  0
SPLINE
  5
26A
330
22E
100
AcDbEntity
  8
0
  6
CONTINUOUS
 62
     7
100
AcDbSpline
 70
     3
 71
     3
 72
    50
 73
    46
 74
     0
 42
0.000000001
 43
0.0000001
 40
0.0
 40
0.0
 40
0.0
 40
0.0
 40
1.0
 40
1.0
 40
1.0
 40
2.0
 40
2.0
 40
2.0
 40
3.0
 40
3.0
 40
3.0
 40
4.0
 40
4.0
 40
4.0
 40
5.0
 40
5.0
 40
5.0
 40
6.0
 40
6.0
 40
6.0
 40
7.0
 40
7.0
 40
7.0
 40
8.0
 40
8.0
 40
8.0
 40
9.0
 40
9.0
 40
9.0
 40
10.0
 40
10.0
 40
10.0
 40
11.0
 40
11.0
 40
11.0
 40
12.0
 40
12.0
 40
12.0
 40
13.0
 40
13.0
 40
13.0
 40
14.0
 40
14.0
 40
14.0
 40
15.0
 40
15.0
 40
15.0
 40
15.0
 10
336.1376356422
 20
30.2598289348
 30
0.0
 10
336.1376356422
 20
30.2598289348
 30
0.0
 10
337.7468636468
 20
30.2598289348
 30
0.0
 10
337.7468636468
 20
30.2598289348
 30
0.0
 10
337.7468636468
 20
30.2598289348
 30
0.0
 10
335.8738363531
 20
32.5769707062
 30
0.0
 10
335.8738363531
 20
32.5769707062
 30
0.0
 10
335.8738363531
 20
32.5769707062
 30
0.0
 10
337.1501747786
 20
34.0744504008
 30
0.0
 10
337.1501747786
 20
34.0744504008
 30
0.0
 10
337.1501747786
 20
34.0744504008
 30
0.0
 10
336.3179508309
 20
34.9354619693
 30
0.0
 10
336.3179508309
 20
34.9354619693
 30
0.0
 10
336.3179508309
 20
34.9354619693
 30
0.0
 10
335.0973557076
 20
33.5201578469
 30
0.0
 10
335.0973557076
 20
33.5201578469
 30
0.0
 10
335.0973557076
 20
33.5201578469
 30
0.0
 10
332.9194413388
 20
36.1555336813
 30
0.0
 10
332.9194413388
 20
36.1555336813
 30
0.0
 10
333.7930147782
 20
36.7935720412
 30
0.0
 10
334.8196860194
 20
37.58457735
 30
0.0
 10
334.8196860194
 20
38.7634304231
 30
0.0
 10
334.8196860194
 20
40.1371233482
 30
0.0
 10
333.6817898795
 20
40.9416064976
 30
0.0
 10
332.4064982766
 20
40.9416064976
 30
0.0
 10
331.0330670573
 20
40.9416064976
 30
0.0
 10
329.9921328585
 20
40.0953812979
 30
0.0
 10
329.9921328585
 20
38.6527289358
 30
0.0
 10
329.9921328585
 20
37.7651542444
 30
0.0
 10
330.547472235
 20
36.9882810403
 30
0.0
 10
331.1436376918
 20
36.3638513739
 30
0.0
 10
331.1436376918
 20
36.3638513739
 30
0.0
 10
330.4917289328
 20
35.8922578035
 30
0.0
 10
330.4917289328
 20
35.8922578035
 30
0.0
 10
329.4931910484
 20
35.1709970488
 30
0.0
 10
328.6603128365
 20
34.4497362942
 30
0.0
 10
328.6603128365
 20
33.1181779778
 30
0.0
 10
328.6603128365
 20
31.3145026798
 30
0.0
 10
330.1173590091
 20
30.0379025487
 30
0.0
 10
331.8648984465
 20
30.0379025487
 30
0.0
 10
333.0997565274
 20
30.0379025487
 30
0.0
 10
334.2091267521
 20
30.7460780212
 30
0.0
 10
335.000001208
 20
31.6746096459
 30
0.0
 10
335.000001208
 20
31.6746096459
 30
0.0
 10
336.1376356422
 20
30.2598289348
 30
0.0
 10
336.1376356422
 20
30.2598289348
 30
0.0
  0
LINE
  5
26B
330
22E
100
AcDbEntity
  8
0
  6
CONTINUOUS
 62
     7
100
AcDbLine
 10
321.9404970172
 20
28.2337038394
 30
0.0
 11
344.3544077449
 21
28.2337038394
 31
0.0
  0
LINE
  5
26C
330
22E
100
AcDbEntity
  8
0
  6
CONTINUOUS
 62
     7
100
AcDbLine
 10
344.3544077449
 20
28.2337038394
 30
0.0
 11
344.3544077449
 21
50.6476145671
 31
0.0
  0
LINE
  5
26D
330
22E
100
AcDbEntity
  8
0
  6
CONTINUOUS
 62
     7
100
AcDbLine
 10
344.3544077449
 20
50.6476145671
 30
0.0
 11
321.9404970172
 21
50.6476145671
 31
0.0
  0
LINE
  5
26E
330
22E
100
AcDbEntity
  8
0
  6
CONTINUOUS
 62
     7
100
AcDbLine
 10
321.9404970172
 20
50.6476145671
 30
0.0
 11
321.9404970172
 21
28.2337038394
 31
0.0
  0
ENDBLK
  5
26F
330
22E
100
AcDbEntity
  8
0
  6
BYBLOCK
 62
     0
100
AcDbBlockEnd
  0
BLOCK
  5
29E
330
22F
100
AcDbEntity
  8
0
100
AcDbBlockBegin
  2
*T7
 70
     1
 10
0.0
 20
0.0
 30
0.0
  3
*T7
  1

  0
LINE
  5
29F
330
22F
100
AcDbEntity
  8
0
  6
CONTINUOUS
 62
     2
100
AcDbLine
 10
0.0
 20
0.0
 30
0.0
 11
90.0
 21
0.0
 31
0.0
  0
LINE
  5
2A0
330
22F
100
AcDbEntity
  8
0
  6
CONTINUOUS
 62
     2
100
AcDbLine
 10
0.0
 20
0.0
 30
0.0
 11
0.0
 21
-40.0
 31
0.0
  0
LINE
  5
2A1
330
22F
100
AcDbEntity
  8
0
  6
CONTINUOUS
 62
     2
100
AcDbLine
 10
30.0
 20
-6.0
 30
0.0
 11
90.0
 21
-6.0
 31
0.0
  0
LINE
  5
2A2
330
22F
100
AcDbEntity
  8
0
  6
CONTINUOUS
 62
     2
100
AcDbLine
 10
30.0
 20
-12.0
 30
0.0
 11
90.0
 21
-12.0
 31
0.0
  0
LINE
  5
2A3
330
22F
100
AcDbEntity
  8
0
  6
CONTINUOUS
 62
     2
100
AcDbLine
 10
30.0
 20
-22.0
 30
0.0
 11
90.0
 21
-22.0
 31
0.0
  0
LINE
  5
2A4
330
22F
100
AcDbEntity
  8
0
  6
CONTINUOUS
 62
     2
100
AcDbLine
 10
0.0
 20
-27.0
 30
0.0
 11
90.0
 21
-27.0
 31
0.0
  0
LINE
  5
2A5
330
22F
100
AcDbEntity
  8
0
  6
CONTINUOUS
 62
     2
100
AcDbLine
 10
0.0
 20
-40.0
 30
0.0
 11
90.0
 21
-40.0
 31
0.0
  0
LINE
  5
2A6
330
22F
100
AcDbEntity
  8
0
  6
CONTINUOUS
 62
     2
100
AcDbLine
 10
30.0
 20
0.0
 30
0.0
 11
30.0
 21
-27.0
 31
0.0
  0
LINE
  5
2A7
330
22F
100
AcDbEntity
  8
0
  6
CONTINUOUS
 62
     2
100
AcDbLine
 10
70.0
 20
0.0
 30
0.0
 11
70.0
 21
-12.0
 31
0.0
  0
LINE
  5
2A8
330
22F
100
AcDbEntity
  8
0
  6
CONTINUOUS
 62
     2
100
AcDbLine
 10
90.0
 20
0.0
 30
0.0
 11
90.0
 21
-40.0
 31
0.0
  0
ENDBLK
  5
2A9
330
22F
100
AcDbEntity
  8
0
100
AcDbBlockEnd
  0
BLOCK
  5
64B
330
64A
100
AcDbEntity
  8
0
100
AcDbBlockBegin
  2
*D8
 70
     1
 10
0.0
 20
0.0
 30
0.0
  3
*D8
  1

  0
LINE
  5
64D
330
64A
100
AcDbEntity
  8
0
 62
     0
100
AcDbLine
 10
422.625
 20
297.0
 30
0.0
 11
521.8323647276266
 21
297.0
 31
0.0
  0
LINE
  5
64E
330
64A
100
AcDbEntity
  8
0
 62
     0
100
AcDbLine
 10
422.625
 20
-0.0000000000000002
 30
0.0
 11
521.8323647276266
 21
-0.0000000000000062
 31
0.0
  0
LINE
  5
64F
330
64A
100
AcDbEntity
  8
0
 62
     0
100
AcDbLine
 10
514.2723647276266
 20
294.5
 30
0.0
 11
514.2723647276266
 21
150.09
 31
0.0
  0
LINE
  5
650
330
64A
100
AcDbEntity
  8
0
 62
     0
100
AcDbLine
 10
514.2723647276266
 20
2.499999999999994
 30
0.0
 11
514.2723647276266
 21
146.91
 31
0.0
  0
INSERT
  5
651
330
64A
100
AcDbEntity
  8
0
 62
     0
100
AcDbBlockReference
  2
_CLOSED
 10
514.2723647276266
 20
297.0
 30
0.0
 41
2.5
 42
2.5
 43
2.5
 50
90.0
  0
INSERT
  5
652
330
64A
100
AcDbEntity
  8
0
 62
     0
100
AcDbBlockReference
  2
_CLOSED
 10
514.2723647276266
 20
-0.0000000000000058
 30
0.0
 41
2.5
 42
2.5
 43
2.5
 50
270.0
  0
MTEXT
  5
653
330
64A
100
AcDbEntity
  8
0
 62
     0
100
AcDbMText
 10
514.2723647276266
 20
148.5
 30
0.0
 40
3.0
 41
0.0
 71
     5
 72
     1
  1
\A1;297.0000%%p0.0100
  0
POINT
  5
654
330
64A
100
AcDbEntity
  8
DEFPOINTS
 62
     0
100
AcDbPoint
 10
420.0
 20
297.0
 30
0.0
  0
POINT
  5
655
330
64A
100
AcDbEntity
  8
DEFPOINTS
 62
     0
100
AcDbPoint
 10
420.0
 20
0.0
 30
0.0
  0
POINT
  5
656
330
64A
100
AcDbEntity
  8
DEFPOINTS
 62
     0
100
AcDbPoint
 10
514.2723647276266
 20
-0.0000000000000058
 30
0.0
  0
ENDBLK
  5
64C
330
64A
100
AcDbEntity
  8
0
100
AcDbBlockEnd
  0
BLOCK
  5
65B
330
65A
100
AcDbEntity
  8
0
100
AcDbBlockBegin
  2
*D9
 70
     1
 10
0.0
 20
0.0
 30
0.0
  3
*D9
  1

  0
LINE
  5
65D
330
65A
100
AcDbEntity
  8
0
 62
     0
100
AcDbLine
 10
0.0
 20
-2.625
 30
0.0
 11
0.0
 21
-69.82236523540854
 31
0.0
  0
LINE
  5
65E
330
65A
100
AcDbEntity
  8
0
 62
     0
100
AcDbLine
 10
422.625
 20
-2.625
 30
0.0
 11
422.625
 21
-69.82236523540854
 31
0.0
  0
LINE
  5
65F
330
65A
100
AcDbEntity
  8
0
 62
     0
100
AcDbLine
 10
2.5
 20
-62.26236523540854
 30
0.0
 11
195.71
 21
-62.26236523540854
 31
0.0
  0
LINE
  5
660
330
65A
100
AcDbEntity
  8
0
 62
     0
100
AcDbLine
 10
420.125
 20
-62.26236523540854
 30
0.0
 11
226.915
 21
-62.26236523540854
 31
0.0
  0
INSERT
  5
661
330
65A
100
AcDbEntity
  8
0
 62
     0
100
AcDbBlockReference
  2
_CLOSED
 10
0.0
 20
-62.26236523540854
 30
0.0
 41
2.5
 42
2.5
 43
2.5
 50
180.0
  0
INSERT
  5
662
330
65A
100
AcDbEntity
  8
0
 62
     0
100
AcDbBlockReference
  2
_CLOSED
 10
422.625
 20
-62.26236523540854
 30
0.0
 41
2.5
 42
2.5
 43
2.5
  0
MTEXT
  5
663
330
65A
100
AcDbEntity
  8
0
 62
     0
100
AcDbMText
 10
211.3125
 20
-62.26236523540854
 30
0.0
 40
3.0
 41
0.0
 71
     5
 72
     1
  1
\A1;422.6250%%p0.0100
  0
POINT
  5
664
330
65A
100
AcDbEntity
  8
DEFPOINTS
 62
     0
100
AcDbPoint
 10
0.0
 20
0.0
 30
0.0
  0
POINT
  5
665
330
65A
100
AcDbEntity
  8
DEFPOINTS
 62
     0
100
AcDbPoint
 10
422.625
 20
-0.0000000000000002
 30
0.0
  0
POINT
  5
666
330
65A
100
AcDbEntity
  8
DEFPOINTS
 62
     0
100
AcDbPoint
 10
422.625
 20
-62.26236523540854
 30
0.0
  0
ENDBLK
  5
65C
330
65A
100
AcDbEntity
  8
0
100
AcDbBlockEnd
  0
BLOCK
  5
66C
330
66B
100
AcDbEntity
  8
0
100
AcDbBlockBegin
  2
*D10
 70
     1
 10
0.0
 20
0.0
 30
0.0
  3
*D10
  1

  0
LINE
  5
66E
330
66B
100
AcDbEntity
  8
0
 62
     0
100
AcDbLine
 10
-14.01148109081799
 20
499.8244243884772
 30
0.0
 11
-99.74256718031214
 21
499.8244243884772
 31
0.0
  0
LINE
  5
66F
330
66B
100
AcDbEntity
  8
0
 62
     0
100
AcDbLine
 10
-2.625
 20
0.0
 30
0.0
 11
-99.74256718031216
 21
0.0
 31
0.0
  0
LINE
  5
670
330
66B
100
AcDbEntity
  8
0
 62
     0
100
AcDbLine
 10
-92.18256718031213
 20
497.3244243884772
 30
0.0
 11
-92.18256718031215
 21
274.7007803510114
 31
0.0
  0
LINE
  5
671
330
66B
100
AcDbEntity
  8
0
 62
     0
100
AcDbLine
 10
-92.18256718031216
 20
2.5
 30
0.0
 11
-92.18256718031215
 21
271.5207803510114
 31
0.0
  0
INSERT
  5
672
330
66B
100
AcDbEntity
  8
0
 62
     0
100
AcDbBlockReference
  2
_CLOSED
 10
-92.18256718031213
 20
499.8244243884772
 30
0.0
 41
2.5
 42
2.5
 43
2.5
 50
90.0
  0
INSERT
  5
673
330
66B
100
AcDbEntity
  8
0
 62
     0
100
AcDbBlockReference
  2
_CLOSED
 10
-92.18256718031216
 20
0.0
 30
0.0
 41
2.5
 42
2.5
 43
2.5
 50
270.0
  0
MTEXT
  5
674
330
66B
100
AcDbEntity
  8
0
 62
     0
100
AcDbMText
 10
-92.18256718031215
 20
273.1107803510114
 30
0.0
 40
3.0
 41
0.0
 71
     5
 72
     1
  1
\A1;499.8244%%p0.0100
  0
POINT
  5
675
330
66B
100
AcDbEntity
  8
DEFPOINTS
 62
     0
100
AcDbPoint
 10
-11.38648109081799
 20
499.8244243884772
 30
0.0
  0
POINT
  5
676
330
66B
100
AcDbEntity
  8
DEFPOINTS
 62
     0
100
AcDbPoint
 10
0.0
 20
0.0
 30
0.0
  0
POINT
  5
677
330
66B
100
AcDbEntity
  8
DEFPOINTS
 62
     0
100
AcDbPoint
 10
-92.18256718031216
 20
0.0000000000000056
 30
0.0
  0
ENDBLK
  5
66D
330
66B
100
AcDbEntity
  8
0
100
AcDbBlockEnd
  0
BLOCK
  5
680
330
67F
100
AcDbEntity
  8
0
100
AcDbBlockBegin
  2
*D11
 70
     1
 10
0.0
 20
0.0
 30
0.0
  3
*D11
  1

  0
LINE
  5
682
330
67F
100
AcDbEntity
  8
0
 62
     0
100
AcDbLine
 10
-2.625
 20
597.0
 30
0.0
 11
-115.8529332430549
 21
597.0
 31
0.0
  0
LINE
  5
683
330
67F
100
AcDbEntity
  8
0
 62
     0
100
AcDbLine
 10
-2.625
 20
0.0000000000000002
 30
0.0
 11
-115.852933243055
 21
0.0000000000000071
 31
0.0
  0
LINE
  5
684
330
67F
100
AcDbEntity
  8
0
 62
     0
100
AcDbLine
 10
-108.2929332430549
 20
594.5
 30
0.0
 11
-108.2929332430549
 21
300.09
 31
0.0
  0
LINE
  5
685
330
67F
100
AcDbEntity
  8
0
 62
     0
100
AcDbLine
 10
-108.292933243055
 20
2.500000000000007
 30
0.0
 11
-108.292933243055
 21
296.91
 31
0.0
  0
INSERT
  5
686
330
67F
100
AcDbEntity
  8
0
 62
     0
100
AcDbBlockReference
  2
_CLOSED
 10
-108.2929332430549
 20
597.0
 30
0.0
 41
2.5
 42
2.5
 43
2.5
 50
90.0
  0
INSERT
  5
687
330
67F
100
AcDbEntity
  8
0
 62
     0
100
AcDbBlockReference
  2
_CLOSED
 10
-108.292933243055
 20
0.0000000000000066
 30
0.0
 41
2.5
 42
2.5
 43
2.5
 50
270.0
  0
MTEXT
  5
688
330
67F
100
AcDbEntity
  8
0
 62
     0
100
AcDbMText
 10
-108.292933243055
 20
298.5
 30
0.0
 40
3.0
 41
0.0
 71
     5
 72
     1
  1
\A1;597.0000%%p0.0100
  0
POINT
  5
689
330
67F
100
AcDbEntity
  8
DEFPOINTS
 62
     0
100
AcDbPoint
 10
0.0
 20
597.0
 30
0.0
  0
POINT
  5
68A
330
67F
100
AcDbEntity
  8
DEFPOINTS
 62
     0
100
AcDbPoint
 10
0.0
 20
0.0
 30
0.0
  0
POINT
  5
68B
330
67F
100
AcDbEntity
  8
DEFPOINTS
 62
     0
100
AcDbPoint
 10
-108.292933243055
 20
0.0000000000000066
 30
0.0
  0
ENDBLK
  5
681
330
67F
100
AcDbEntity
  8
0
100
AcDbBlockEnd
  0
BLOCK
  5
69F
330
69E
100
AcDbEntity
  8
0
100
AcDbBlockBegin
  2
*D12
 70
     1
 10
0.0
 20
0.0
 30
0.0
  3
*D12
  1

  0
LINE
  5
6A1
330
69E
100
AcDbEntity
  8
0
 62
     0
100
AcDbLine
 10
206.8071145587
 20
166.56492741495
 30
0.0
 11
288.8753030219863
 21
166.56492741495
 31
0.0
  0
LINE
  5
6A2
330
69E
100
AcDbEntity
  8
0
 62
     0
100
AcDbLine
 10
206.8071145587
 20
61.56492741495001
 30
0.0
 11
288.8753030219863
 21
61.56492741495
 31
0.0
  0
LINE
  5
6A3
330
69E
100
AcDbEntity
  8
0
 62
     0
100
AcDbLine
 10
281.3153030219863
 20
164.06492741495
 30
0.0
 11
281.3153030219863
 21
115.65492741495
 31
0.0
  0
LINE
  5
6A4
330
69E
100
AcDbEntity
  8
0
 62
     0
100
AcDbLine
 10
281.3153030219863
 20
64.06492741495
 30
0.0
 11
281.3153030219863
 21
112.47492741495
 31
0.0
  0
INSERT
  5
6A5
330
69E
100
AcDbEntity
  8
0
 62
     0
100
AcDbBlockReference
  2
_CLOSED
 10
281.3153030219863
 20
166.56492741495
 30
0.0
 41
2.5
 42
2.5
 43
2.5
 50
90.0
  0
INSERT
  5
6A6
330
69E
100
AcDbEntity
  8
0
 62
     0
100
AcDbBlockReference
  2
_CLOSED
 10
281.3153030219863
 20
61.56492741495
 30
0.0
 41
2.5
 42
2.5
 43
2.5
 50
270.0
  0
MTEXT
  5
6A7
330
69E
100
AcDbEntity
  8
0
 62
     0
100
AcDbMText
 10
281.3153030219863
 20
114.06492741495
 30
0.0
 40
3.0
 41
0.0
 71
     5
 72
     1
  1
\A1;105.0000%%p0.0100
  0
POINT
  5
6A8
330
69E
100
AcDbEntity
  8
DEFPOINTS
 62
     0
100
AcDbPoint
 10
204.1821145587
 20
166.56492741495
 30
0.0
  0
POINT
  5
6A9
330
69E
100
AcDbEntity
  8
DEFPOINTS
 62
     0
100
AcDbPoint
 10
204.1821145587
 20
61.56492741495001
 30
0.0
  0
POINT
  5
6AA
330
69E
100
AcDbEntity
  8
DEFPOINTS
 62
     0
100
AcDbPoint
 10
281.3153030219863
 20
61.56492741495
 30
0.0
  0
ENDBLK
  5
6A0
330
69E
100
AcDbEntity
  8
0
100
AcDbBlockEnd
  0
ENDSEC
  0
SECTION
  2
ENTITIES
  0
INSERT
  5
2AF
330
226
100
AcDbEntity
  8
0
  6
CONTINUOUS
 62
     2
100
AcDbBlockReference
  2
LOGO2_BL0
 10
333.1473869546
 20
37.5239270671
 30
0.0
  0
LWPOLYLINE
  5
2B0
330
226
100
AcDbEntity
  8
0
  6
CONTINUOUS
 62
     2
100
AcDbPolyline
 90
        3
 70
     0
 43
0.0
 10
351.3802697754
 20
49.5239263916
 10
352.2374194336
 20
48.2382147217
 10
352.2374194336
 20
46.5239282227
  0
LINE
  5
2B1
330
226
100
AcDbEntity
  8
0
  6
CONTINUOUS
 62
     2
100
AcDbLine
 10
352.2374194336
 20
48.2382147217
 30
0.0
 11
353.094543457
 21
49.5239263916
 31
0.0
  0
LINE
  5
2B2
330
226
100
AcDbEntity
  8
0
  6
CONTINUOUS
 62
     2
100
AcDbLine
 10
354.5231176758
 20
46.5239282227
 30
0.0
 11
354.5231176758
 21
49.5239263916
 31
0.0
  0
LWPOLYLINE
  5
2B3
330
226
100
AcDbEntity
  8
0
  6
CONTINUOUS
 62
     2
100
AcDbPolyline
 90
       10
 70
     0
 43
0.0
 10
356.9517041016
 20
49.5239263916
 10
356.3088354492
 20
48.8810705566
 10
355.8802734375
 20
48.0239273071
 10
355.8802734375
 20
46.9524966431
 10
356.3088354492
 20
46.5239282227
 10
356.9517041016
 20
46.5239282227
 10
357.3802661133
 20
46.9524966431
 10
357.3802661133
 20
47.8096398926
 10
356.9517041016
 20
48.2382147217
 10
356.0231359863
 20
48.2382147217
  0
LINE
  5
2B4
330
226
100
AcDbEntity
  8
0
  6
CONTINUOUS
 62
     2
100
AcDbLine
 10
358.2374157715
 20
46.5239282227
 30
0.0
 11
359.9516894531
 21
46.5239282227
 31
0.0
  0
LWPOLYLINE
  5
2B5
330
226
100
AcDbEntity
  8
0
  6
CONTINUOUS
 62
     2
100
AcDbPolyline
 90
        6
 70
     0
 43
0.0
 10
361.8802697754
 20
46.5239282227
 10
361.0231201172
 20
46.5239282227
 10
360.5945581055
 20
46.9524966431
 10
360.5945581055
 20
49.0953579712
 10
361.0231201172
 20
49.5239263916
 10
361.8802697754
 20
49.5239263916
  0
LINE
  5
2B6
330
226
100
AcDbEntity
  8
0
  6
CONTINUOUS
 62
     2
100
AcDbLine
 10
363.0945629883
 20
46.5239282227
 30
0.0
 11
364.8088366699
 21
46.5239282227
 31
0.0
  0
LWPOLYLINE
  5
2B7
330
226
100
AcDbEntity
  8
0
  6
CONTINUOUS
 62
     2
100
AcDbPolyline
 90
       13
 70
     0
 43
0.0
 10
365.4517053223
 20
47.3810714722
 10
365.4517053223
 20
48.6667831421
 10
365.6659863281
 20
49.0953579712
 10
366.0945483398
 20
49.5239263916
 10
366.3088293457
 20
49.5239263916
 10
366.7374169922
 20
49.0953579712
 10
366.951697998
 20
48.6667831421
 10
366.951697998
 20
47.3810714722
 10
366.7374169922
 20
46.9524966431
 10
366.3088293457
 20
46.5239282227
 10
366.0945483398
 20
46.5239282227
 10
365.6659863281
 20
46.9524966431
 10
365.4517053223
 20
47.3810714722
  0
LWPOLYLINE
  5
2B8
330
226
100
AcDbEntity
  8
0
  6
CONTINUOUS
 62
     2
100
AcDbPolyline
 90
       13
 70
     0
 43
0.0
 10
367.8088476563
 20
47.3810714722
 10
367.8088476563
 20
48.6667831421
 10
368.0231286621
 20
49.0953579712
 10
368.4516906738
 20
49.5239263916
 10
368.6659716797
 20
49.5239263916
 10
369.0945593262
 20
49.0953579712
 10
369.308840332
 20
48.6667831421
 10
369.308840332
 20
47.3810714722
 10
369.0945593262
 20
46.9524966431
 10
368.6659716797
 20
46.5239282227
 10
368.4516906738
 20
46.5239282227
 10
368.0231286621
 20
46.9524966431
 10
367.8088476563
 20
47.3810714722
  0
LWPOLYLINE
  5
2B9
330
226
100
AcDbEntity
  8
0
  6
CONTINUOUS
 62
     2
100
AcDbPolyline
 90
        7
 70
     0
 43
0.0
 10
371.665982666
 20
46.5239282227
 10
370.1659899902
 20
46.5239282227
 10
371.665982666
 20
48.6667831421
 10
371.665982666
 20
49.0953579712
 10
371.2374206543
 20
49.5239263916
 10
370.594552002
 20
49.5239263916
 10
370.1659899902
 20
48.8810705566
  0
LWPOLYLINE
  5
2BA
330
226
100
AcDbEntity
  8
0
  6
CONTINUOUS
 62
     2
100
AcDbPolyline
 90
        9
 70
     0
 43
0.0
 10
391.5525878906
 20
45.7739254761
 10
391.5525878906
 20
49.2739297485
 10
392.4822839355
 20
49.2739297485
 10
392.8541418457
 20
48.9822573853
 10
393.0400964355
 20
48.6905914307
 10
393.0400964355
 20
48.1072595215
 10
392.8541418457
 20
47.8155935669
 10
392.4822839355
 20
47.5239276123
 10
391.5525878906
 20
47.5239276123
  0
LINE
  5
2BB
330
226
100
AcDbEntity
  8
0
  6
CONTINUOUS
 62
     2
100
AcDbLine
 10
392.4822839355
 20
47.5239276123
 30
0.0
 11
393.0400964355
 21
45.7739254761
 31
0.0
  0
LWPOLYLINE
  5
2BC
330
226
100
AcDbEntity
  8
0
  6
CONTINUOUS
 62
     2
100
AcDbPolyline
 90
       11
 70
     0
 43
0.0
 10
395.8291589355
 20
46.3572573853
 10
395.6432043457
 20
46.0655914307
 10
395.2713464355
 20
45.7739254761
 10
394.8994628906
 20
46.0655914307
 10
394.5275793457
 20
46.6489297485
 10
394.5275793457
 20
47.2322616577
 10
394.8994628906
 20
47.8155935669
 10
395.2713464355
 20
48.1072595215
 10
395.6432043457
 20
47.8155935669
 10
395.8291589355
 20
47.2322616577
 10
394.5275793457
 20
47.2322616577
  0
LWPOLYLINE
  5
2BD
330
226
100
AcDbEntity
  8
0
  6
CONTINUOUS
 62
     2
100
AcDbPolyline
 90
        3
 70
     0
 43
0.0
 10
397.6885253906
 20
48.1072595215
 10
398.2463378906
 20
45.7739254761
 10
398.8041503906
 20
48.1072595215
  0
LWPOLYLINE
  5
2BE
330
226
100
AcDbEntity
  8
0
  6
CONTINUOUS
 62
     2
100
AcDbPolyline
 90
        4
 70
     0
 43
0.0
 10
401.2213293457
 20
45.7739254761
 10
401.0354003906
 20
45.7739254761
 10
401.0354003906
 20
46.0655914307
 10
401.2213293457
 20
45.7739254761
  0
LWPOLYLINE
  5
2BF
330
226
100
AcDbEntity
  8
0
  6
CONTINUOUS
 62
     2
100
AcDbPolyline
 90
        4
 70
     0
 43
0.0
 10
401.2213293457
 20
48.1072595215
 10
401.2213293457
 20
47.8155935669
 10
401.0354003906
 20
48.1072595215
 10
401.2213293457
 20
48.1072595215
  0
LWPOLYLINE
  5
2C0
330
226
100
AcDbEntity
  8
0
  6
CONTINUOUS
 62
     2
100
AcDbPolyline
 90
       15
 70
     0
 43
0.0
 10
404.1963464355
 20
45.7739254761
 10
403.8244628906
 20
46.0655914307
 10
403.6385339355
 20
46.3572573853
 10
403.4525793457
 20
46.9405957031
 10
403.4525793457
 20
48.1072595215
 10
403.6385339355
 20
48.6905914307
 10
403.8244628906
 20
48.9822573853
 10
404.1963464355
 20
49.2739297485
 10
404.5682043457
 20
48.9822573853
 10
404.7541589355
 20
48.6905914307
 10
404.9400878906
 20
48.1072595215
 10
404.9400878906
 20
46.9405957031
 10
404.7541589355
 20
46.3572573853
 10
404.5682043457
 20
46.0655914307
 10
404.1963464355
 20
45.7739254761
  0
LWPOLYLINE
  5
2C1
330
226
100
AcDbEntity
  8
0
  6
CONTINUOUS
 62
     2
100
AcDbPolyline
 90
       15
 70
     0
 43
0.0
 10
407.1713378906
 20
45.7739254761
 10
406.7994543457
 20
46.0655914307
 10
406.6135253906
 20
46.3572573853
 10
406.4275964355
 20
46.9405957031
 10
406.4275964355
 20
48.1072595215
 10
406.6135253906
 20
48.6905914307
 10
406.7994543457
 20
48.9822573853
 10
407.1713378906
 20
49.2739297485
 10
407.5432214355
 20
48.9822573853
 10
407.7291503906
 20
48.6905914307
 10
407.9150793457
 20
48.1072595215
 10
407.9150793457
 20
46.9405957031
 10
407.7291503906
 20
46.3572573853
 10
407.5432214355
 20
46.0655914307
 10
407.1713378906
 20
45.7739254761
  0
LWPOLYLINE
  5
2C2
330
226
100
AcDbEntity
  8
0
  6
CONTINUOUS
 62
     2
100
AcDbPolyline
 90
       10
 70
     0
 43
0.0
 10
350.8088452148
 20
40.0239257812
 10
351.0588354492
 20
39.7739291382
 10
352.0588476563
 20
39.7739291382
 10
352.558828125
 20
40.273928833
 10
352.558828125
 20
40.7739285278
 10
350.8088452148
 20
42.2739276123
 10
350.8088452148
 20
42.7739273071
 10
351.3088513184
 20
43.273927002
 10
352.3088378906
 20
43.273927002
 10
352.558828125
 20
43.0239239502
  0
LWPOLYLINE
  5
2C3
330
226
100
AcDbEntity
  8
0
  6
CONTINUOUS
 62
     2
100
AcDbPolyline
 90
        6
 70
     0
 43
0.0
 10
354.8088427734
 20
39.7739291382
 10
353.8088305664
 20
39.7739291382
 10
353.558840332
 20
40.0239257812
 10
353.558840332
 20
42.0239245605
 10
353.8088305664
 20
42.2739276123
 10
354.8088427734
 20
42.2739276123
  0
LWPOLYLINE
  5
2C4
330
226
100
AcDbEntity
  8
0
  6
CONTINUOUS
 62
     2
100
AcDbPolyline
 90
        4
 70
     0
 43
0.0
 10
357.3088476563
 20
39.7739291382
 10
357.3088476563
 20
41.7739279175
 10
357.0588317871
 20
42.2739276123
 10
355.8088293457
 20
42.2739276123
  0
LWPOLYLINE
  5
2C5
330
226
100
AcDbEntity
  8
0
  6
CONTINUOUS
 62
     2
100
AcDbPolyline
 90
        6
 70
     0
 43
0.0
 10
357.3088476563
 20
39.7739291382
 10
356.3088354492
 20
39.7739291382
 10
355.8088293457
 20
40.0239257812
 10
355.8088293457
 20
40.7739285278
 10
356.3088354492
 20
41.0239251709
 10
357.3088476563
 20
41.0239251709
  0
LWPOLYLINE
  5
2C6
330
226
100
AcDbEntity
  8
0
  6
CONTINUOUS
 62
     2
100
AcDbPolyline
 90
        4
 70
     0
 43
0.0
 10
359.0588305664
 20
39.7739291382
 10
358.5588500977
 20
39.7739291382
 10
358.3088342285
 20
40.0239257812
 10
358.3088342285
 20
43.273927002
  0
LWPOLYLINE
  5
2C7
330
226
100
AcDbEntity
  8
0
  6
CONTINUOUS
 62
     2
100
AcDbPolyline
 90
        9
 70
     0
 43
0.0
 10
361.5588354492
 20
39.7739291382
 10
360.558848877
 20
39.7739291382
 10
360.0588427734
 20
40.273928833
 10
360.0588427734
 20
41.7739279175
 10
360.558848877
 20
42.2739276123
 10
361.0588293457
 20
42.2739276123
 10
361.5588354492
 20
41.7739279175
 10
361.5588354492
 20
41.0239251709
 10
360.0588427734
 20
41.0239251709
  0
LWPOLYLINE
  5
2C8
330
226
100
AcDbEntity
  8
0
  6
CONTINUOUS
 62
     2
100
AcDbPolyline
 90
        4
 70
     0
 43
0.0
 10
362.5588476563
 20
39.7739291382
 10
362.5588476563
 20
40.0239257812
 10
362.7254992676
 20
40.0239257812
 10
362.5588476563
 20
39.7739291382
  0
LWPOLYLINE
  5
2C9
330
226
100
AcDbEntity
  8
0
  6
CONTINUOUS
 62
     2
100
AcDbPolyline
 90
        4
 70
     0
 43
0.0
 10
362.5588476563
 20
41.2739282227
 10
362.5588476563
 20
41.5239248657
 10
362.7254992676
 20
41.5239248657
 10
362.5588476563
 20
41.2739282227
  0
LWPOLYLINE
  5
2CA
330
226
100
AcDbEntity
  8
0
  6
CONTINUOUS
 62
     2
100
AcDbPolyline
 90
        3
 70
     0
 43
0.0
 10
363.8088500977
 20
42.2739276123
 10
364.8088366699
 20
43.273927002
 10
364.8088366699
 20
39.7739291382
  0
LWPOLYLINE
  5
2CB
330
226
100
AcDbEntity
  8
0
  6
CONTINUOUS
 62
     2
100
AcDbPolyline
 90
        4
 70
     0
 43
0.0
 10
365.808848877
 20
39.7739291382
 10
365.808848877
 20
40.0239257812
 10
365.9755004883
 20
40.0239257812
 10
365.808848877
 20
39.7739291382
  0
LWPOLYLINE
  5
2CC
330
226
100
AcDbEntity
  8
0
  6
CONTINUOUS
 62
     2
100
AcDbPolyline
 90
        4
 70
     0
 43
0.0
 10
365.808848877
 20
41.2739282227
 10
365.808848877
 20
41.5239248657
 10
365.9755004883
 20
41.5239248657
 10
365.808848877
 20
41.2739282227
  0
LWPOLYLINE
  5
2CD
330
226
100
AcDbEntity
  8
0
  6
CONTINUOUS
 62
     2
100
AcDbPolyline
 90
        3
 70
     0
 43
0.0
 10
367.0588513184
 20
42.2739276123
 10
368.0588378906
 20
43.273927002
 10
368.0588378906
 20
39.7739291382
  0
LWPOLYLINE
  5
2CE
330
226
100
AcDbEntity
  8
0
  6
CONTINUOUS
 62
     2
100
AcDbPolyline
 90
        3
 70
     0
 43
0.0
 10
390.8088464355
 20
40.273928833
 10
391.8088330078
 20
43.7739266968
 10
392.8088452148
 20
40.273928833
  0
LINE
  5
2CF
330
226
100
AcDbEntity
  8
0
  6
CONTINUOUS
 62
     2
100
AcDbLine
 10
391.142175293
 20
41.2739282227
 30
0.0
 11
392.4755163574
 21
41.2739282227
 31
0.0
  0
LWPOLYLINE
  5
2D0
330
226
100
AcDbEntity
  8
0
  6
CONTINUOUS
 62
     2
100
AcDbPolyline
 90
        6
 70
     0
 43
0.0
 10
393.8088317871
 20
40.273928833
 10
395.0588342285
 20
40.273928833
 10
395.3088500977
 20
40.5239254761
 10
395.3088500977
 20
41.7739279175
 10
394.8088439941
 20
42.2739276123
 10
394.3088378906
 20
42.2739276123
  0
LWPOLYLINE
  5
2D1
330
226
100
AcDbEntity
  8
0
  6
CONTINUOUS
 62
     2
100
AcDbPolyline
 90
        5
 70
     0
 43
0.0
 10
394.8088439941
 20
42.2739276123
 10
395.2255114746
 20
42.5239242554
 10
395.2255114746
 20
43.273927002
 10
394.8088439941
 20
43.7739266968
 10
393.8088317871
 20
43.7739266968
  0
LWPOLYLINE
  5
2D2
330
226
100
AcDbEntity
  8
0
  6
CONTINUOUS
 62
     2
100
AcDbPolyline
 90
        8
 70
     0
 43
0.0
 10
351.4755029297
 20
32.2739273071
 10
351.4755029297
 20
35.7739251709
 10
352.2254992676
 20
35.7739251709
 10
352.4755151367
 20
35.6905929565
 10
352.9754956055
 20
35.2739254761
 10
352.9754956055
 20
34.5239291382
 10
352.4755151367
 20
34.0239294434
 10
351.4755029297
 20
34.0239294434
  0
LWPOLYLINE
  5
2D3
330
226
100
AcDbEntity
  8
0
  6
CONTINUOUS
 62
     2
100
AcDbPolyline
 90
        6
 70
     0
 43
0.0
 10
352.4755151367
 20
34.0239294434
 10
352.7255053711
 20
34.0239294434
 10
353.2255114746
 20
33.5239297485
 10
353.2255114746
 20
32.773927002
 10
352.7255053711
 20
32.2739273071
 10
351.4755029297
 20
32.2739273071
  0
LINE
  5
2D4
330
226
100
AcDbEntity
  8
0
  6
CONTINUOUS
 62
     2
100
AcDbLine
 10
354.8921813965
 20
32.2739273071
 30
0.0
 11
354.8921813965
 21
35.7739251709
 31
0.0
  0
LINE
  5
2D5
330
226
100
AcDbEntity
  8
0
  6
CONTINUOUS
 62
     2
100
AcDbLine
 10
357.4754992676
 20
32.2739273071
 30
0.0
 11
357.4754992676
 21
35.7739251709
 31
0.0
  0
LINE
  5
2D6
330
226
100
AcDbEntity
  8
0
  6
CONTINUOUS
 62
     2
100
AcDbLine
 10
356.4755126953
 20
35.7739251709
 30
0.0
 11
358.4755114746
 21
35.7739251709
 31
0.0
  0
LINE
  5
2D7
330
226
100
AcDbEntity
  8
0
  6
CONTINUOUS
 62
     2
100
AcDbLine
 10
360.4755102539
 20
32.2739273071
 30
0.0
 11
360.4755102539
 21
35.7739251709
 31
0.0
  0
LINE
  5
2D8
330
226
100
AcDbEntity
  8
0
  6
CONTINUOUS
 62
     2
100
AcDbLine
 10
359.4754980469
 20
35.7739251709
 30
0.0
 11
361.4754968262
 21
35.7739251709
 31
0.0
  0
LWPOLYLINE
  5
2D9
330
226
100
AcDbEntity
  8
0
  6
CONTINUOUS
 62
     2
100
AcDbPolyline
 90
        3
 70
     0
 43
0.0
 10
362.4755090332
 20
32.2739273071
 10
363.4754956055
 20
35.7739251709
 10
364.4755078125
 20
32.2739273071
  0
LINE
  5
2DA
330
226
100
AcDbEntity
  8
0
  6
CONTINUOUS
 62
     2
100
AcDbLine
 10
362.8088378906
 20
33.2739266968
 30
0.0
 11
364.1421789551
 21
33.2739266968
 31
0.0
  0
LWPOLYLINE
  5
2DB
330
226
100
AcDbEntity
  8
0
  6
CONTINUOUS
 62
     2
100
AcDbPolyline
 90
        3
 70
     0
 43
0.0
 10
368.2255151367
 20
34.7739257812
 10
369.225501709
 20
35.7739251709
 10
369.225501709
 20
32.2739273071
  0
LWPOLYLINE
  5
2DC
330
226
100
AcDbEntity
  8
0
  6
CONTINUOUS
 62
     2
100
AcDbPolyline
 90
        9
 70
     0
 43
0.0
 10
370.9755102539
 20
32.8572592163
 10
371.058848877
 20
32.6905947876
 10
371.058848877
 20
32.6072625732
 10
370.9755102539
 20
32.4405917358
 10
370.8088330078
 20
32.4405917358
 10
370.7254943848
 20
32.6072625732
 10
370.7254943848
 20
32.6905947876
 10
370.8088330078
 20
32.8572592163
 10
370.9755102539
 20
32.8572592163
  0
LWPOLYLINE
  5
2DD
330
226
100
AcDbEntity
  8
0
  6
CONTINUOUS
 62
     2
100
AcDbPolyline
 90
       13
 70
     0
 43
0.0
 10
372.2255126953
 20
33.2739266968
 10
372.2255126953
 20
34.7739257812
 10
372.4755029297
 20
35.2739254761
 10
372.9755090332
 20
35.7739251709
 10
373.2254992676
 20
35.7739251709
 10
373.7255053711
 20
35.2739254761
 10
373.9754956055
 20
34.7739257812
 10
373.9754956055
 20
33.2739266968
 10
373.7255053711
 20
32.773927002
 10
373.2254992676
 20
32.2739273071
 10
372.9755090332
 20
32.2739273071
 10
372.4755029297
 20
32.773927002
 10
372.2255126953
 20
33.2739266968
  0
LINE
  5
2DE
330
226
100
AcDbEntity
  8
0
  6
CONTINUOUS
 62
     2
100
AcDbLine
 10
377.7255029297
 20
33.5239297485
 30
0.0
 11
379.2254956055
 21
33.5239297485
 31
0.0
  0
LWPOLYLINE
  5
2DF
330
226
100
AcDbEntity
  8
0
  6
CONTINUOUS
 62
     2
100
AcDbPolyline
 90
        3
 70
     0
 43
0.0
 10
382.9755029297
 20
34.7739257812
 10
383.9755151367
 20
35.7739251709
 10
383.9755151367
 20
32.2739273071
  0
LWPOLYLINE
  5
2E0
330
226
100
AcDbEntity
  8
0
  6
CONTINUOUS
 62
     2
100
AcDbPolyline
 90
        9
 70
     0
 43
0.0
 10
385.7254980469
 20
32.8572592163
 10
385.8088366699
 20
32.6905947876
 10
385.8088366699
 20
32.6072625732
 10
385.7254980469
 20
32.4405917358
 10
385.5588464355
 20
32.4405917358
 10
385.4755078125
 20
32.6072625732
 10
385.4755078125
 20
32.6905947876
 10
385.5588464355
 20
32.8572592163
 10
385.7254980469
 20
32.8572592163
  0
LWPOLYLINE
  5
2E1
330
226
100
AcDbEntity
  8
0
  6
CONTINUOUS
 62
     2
100
AcDbPolyline
 90
        3
 70
     0
 43
0.0
 10
386.9755004883
 20
34.7739257812
 10
387.9755126953
 20
35.7739251709
 10
387.9755126953
 20
32.2739273071
  0
LWPOLYLINE
  5
2E2
330
226
100
AcDbEntity
  8
0
  6
CONTINUOUS
 62
     2
100
AcDbPolyline
 90
        7
 70
     0
 43
0.0
 10
350.8088452148
 20
25.2739251709
 10
350.8088452148
 20
27.7739300537
 10
351.7017041016
 20
27.7739300537
 10
352.0588476563
 20
27.416786499
 10
352.0588476563
 20
25.6310687256
 10
351.7017041016
 20
25.2739251709
 10
350.8088452148
 20
25.2739251709
  0
LWPOLYLINE
  5
2E3
330
226
100
AcDbEntity
  8
0
  6
CONTINUOUS
 62
     2
100
AcDbPolyline
 90
        3
 70
     0
 43
0.0
 10
353.0707543945
 20
25.2739251709
 10
353.7850415039
 20
27.7739300537
 10
354.4993286133
 20
25.2739251709
  0
LINE
  5
2E4
330
226
100
AcDbEntity
  8
0
  6
CONTINUOUS
 62
     2
100
AcDbLine
 10
353.3088500977
 20
25.9882122803
 30
0.0
 11
354.2612329102
 21
25.9882122803
 31
0.0
  0
LINE
  5
2E5
330
226
100
AcDbEntity
  8
0
  6
CONTINUOUS
 62
     2
100
AcDbLine
 10
355.9278771973
 20
25.2739251709
 30
0.0
 11
355.9278771973
 21
27.7739300537
 31
0.0
  0
LINE
  5
2E6
330
226
100
AcDbEntity
  8
0
  6
CONTINUOUS
 62
     2
100
AcDbLine
 10
355.2135900879
 20
27.7739300537
 30
0.0
 11
356.6421643066
 21
27.7739300537
 31
0.0
  0
LWPOLYLINE
  5
2E7
330
226
100
AcDbEntity
  8
0
  6
CONTINUOUS
 62
     2
100
AcDbPolyline
 90
        3
 70
     0
 43
0.0
 10
357.356451416
 20
25.2739251709
 10
357.356451416
 20
27.7739300537
 10
358.4278820801
 20
27.7739300537
  0
LINE
  5
2E8
330
226
100
AcDbEntity
  8
0
  6
CONTINUOUS
 62
     2
100
AcDbLine
 10
358.0707385254
 20
26.7024993896
 30
0.0
 11
357.356451416
 21
26.7024993896
 31
0.0
  0
LINE
  5
2E9
330
226
100
AcDbEntity
  8
0
  6
CONTINUOUS
 62
     2
100
AcDbLine
 10
357.356451416
 20
25.2739251709
 30
0.0
 11
358.4278820801
 21
25.2739251709
 31
0.0
  0
LWPOLYLINE
  5
2EA
330
226
100
AcDbEntity
  8
0
  6
CONTINUOUS
 62
     2
100
AcDbPolyline
 90
        4
 70
     0
 43
0.0
 10
359.1421691895
 20
25.2739251709
 10
359.1421691895
 20
25.4524969482
 10
359.261217041
 20
25.4524969482
 10
359.1421691895
 20
25.2739251709
  0
LWPOLYLINE
  5
2EB
330
226
100
AcDbEntity
  8
0
  6
CONTINUOUS
 62
     2
100
AcDbPolyline
 90
        4
 70
     0
 43
0.0
 10
359.1421691895
 20
26.345355835
 10
359.1421691895
 20
26.5239276123
 10
359.261217041
 20
26.5239276123
 10
359.1421691895
 20
26.345355835
  0
LWPOLYLINE
  5
2EC
330
226
100
AcDbEntity
  8
0
  6
CONTINUOUS
 62
     2
100
AcDbPolyline
 90
        3
 70
     0
 43
0.0
 10
360.0350280762
 20
27.0596429443
 10
360.7493151855
 20
27.7739300537
 10
360.7493151855
 20
25.2739251709
  0
LWPOLYLINE
  5
2ED
330
226
100
AcDbEntity
  8
0
  6
CONTINUOUS
 62
     2
100
AcDbPolyline
 90
        7
 70
     0
 43
0.0
 10
362.7136047363
 20
25.2739251709
 10
361.4636022949
 20
25.2739251709
 10
362.7136047363
 20
27.0596429443
 10
362.7136047363
 20
27.416786499
 10
362.3564611816
 20
27.7739300537
 10
361.8207458496
 20
27.7739300537
 10
361.4636022949
 20
27.2382147217
  0
LINE
  5
2EE
330
226
100
AcDbEntity
  8
0
  6
CONTINUOUS
 62
     2
100
AcDbLine
 10
364.8564660645
 20
27.5358343506
 30
0.0
 11
363.4278918457
 21
25.3334490967
 31
0.0
  0
LWPOLYLINE
  5
2EF
330
226
100
AcDbEntity
  8
0
  6
CONTINUOUS
 62
     2
100
AcDbPolyline
 90
       13
 70
     0
 43
0.0
 10
365.3326574707
 20
25.9882122803
 10
365.3326574707
 20
27.0596429443
 10
365.511229248
 20
27.416786499
 10
365.8683728027
 20
27.7739300537
 10
366.0469445801
 20
27.7739300537
 10
366.4040881348
 20
27.416786499
 10
366.5826599121
 20
27.0596429443
 10
366.5826599121
 20
25.9882122803
 10
366.4040881348
 20
25.6310687256
 10
366.0469445801
 20
25.2739251709
 10
365.8683728027
 20
25.2739251709
 10
365.511229248
 20
25.6310687256
 10
365.3326574707
 20
25.9882122803
  0
LWPOLYLINE
  5
2F0
330
226
100
AcDbEntity
  8
0
  6
CONTINUOUS
 62
     2
100
AcDbPolyline
 90
        7
 70
     0
 43
0.0
 10
368.5469238281
 20
25.2739251709
 10
367.2969470215
 20
25.2739251709
 10
368.5469238281
 20
27.0596429443
 10
368.5469238281
 20
27.416786499
 10
368.1897802734
 20
27.7739300537
 10
367.6540905762
 20
27.7739300537
 10
367.2969470215
 20
27.2382147217
  0
LINE
  5
2F1
330
226
100
AcDbEntity
  8
0
  6
CONTINUOUS
 62
     2
100
AcDbLine
 10
370.6897851562
 20
27.5358343506
 30
0.0
 11
369.2612109375
 21
25.3334490967
 31
0.0
  0
LWPOLYLINE
  5
2F2
330
226
100
AcDbEntity
  8
0
  6
CONTINUOUS
 62
     2
100
AcDbPolyline
 90
        7
 70
     0
 43
0.0
 10
372.4159790039
 20
25.2739251709
 10
371.1659765625
 20
25.2739251709
 10
372.4159790039
 20
27.0596429443
 10
372.4159790039
 20
27.416786499
 10
372.0588354492
 20
27.7739300537
 10
371.5231201172
 20
27.7739300537
 10
371.1659765625
 20
27.2382147217
  0
LWPOLYLINE
  5
2F3
330
226
100
AcDbEntity
  8
0
  6
CONTINUOUS
 62
     2
100
AcDbPolyline
 90
       13
 70
     0
 43
0.0
 10
373.1302661133
 20
25.9882122803
 10
373.1302661133
 20
27.0596429443
 10
373.3088378906
 20
27.416786499
 10
373.6659814453
 20
27.7739300537
 10
373.8445532227
 20
27.7739300537
 10
374.2016967773
 20
27.416786499
 10
374.3802685547
 20
27.0596429443
 10
374.3802685547
 20
25.9882122803
 10
374.2016967773
 20
25.6310687256
 10
373.8445532227
 20
25.2739251709
 10
373.6659814453
 20
25.2739251709
 10
373.3088378906
 20
25.6310687256
 10
373.1302661133
 20
25.9882122803
  0
LWPOLYLINE
  5
2F4
330
226
100
AcDbEntity
  8
0
  6
CONTINUOUS
 62
     2
100
AcDbPolyline
 90
        3
 70
     0
 43
0.0
 10
375.0945556641
 20
27.0596429443
 10
375.8088427734
 20
27.7739300537
 10
375.8088427734
 20
25.2739251709
  0
LINE
  5
2F5
330
226
100
AcDbEntity
  8
0
  6
CONTINUOUS
 62
     2
100
AcDbLine
 10
377.3564648437
 20
25.2739251709
 30
0.0
 11
377.3564648437
 21
26.5239276123
 31
0.0
  0
LWPOLYLINE
  5
2F6
330
226
100
AcDbEntity
  8
0
  6
CONTINUOUS
 62
     2
100
AcDbPolyline
 90
        3
 70
     0
 43
0.0
 10
377.7731323242
 20
25.8096405029
 10
376.5231298828
 20
25.8096405029
 10
377.0588452148
 20
27.7739300537
  0
LWPOLYLINE
  5
2F7
330
226
100
AcDbEntity
  8
0
  6
CONTINUOUS
 62
     2
100
AcDbPolyline
 90
        3
 70
     0
 43
0.0
 10
321.1036889648
 20
20.4239268494
 10
321.5950817871
 20
22.273927002
 10
322.0865002441
 20
20.4239268494
  0
LINE
  5
2F8
330
226
100
AcDbEntity
  8
0
  6
CONTINUOUS
 62
     2
100
AcDbLine
 10
321.3002563477
 20
21.0405935669
 30
0.0
 11
321.8899328613
 21
21.0405935669
 31
0.0
  0
LINE
  5
2F9
330
226
100
AcDbEntity
  8
0
  6
CONTINUOUS
 62
     2
100
AcDbLine
 10
322.8727441406
 20
20.4239268494
 30
0.0
 11
322.8727441406
 21
21.6572602844
 31
0.0
  0
LWPOLYLINE
  5
2FA
330
226
100
AcDbEntity
  8
0
  6
CONTINUOUS
 62
     2
100
AcDbPolyline
 90
        5
 70
     0
 43
0.0
 10
322.8727441406
 20
21.3489285278
 10
323.0693115234
 20
21.6572602844
 10
323.2658789063
 20
21.6572602844
 10
323.4624462891
 20
21.3489285278
 10
323.4624462891
 20
20.4239268494
  0
LWPOLYLINE
  5
2FB
330
226
100
AcDbEntity
  8
0
  6
CONTINUOUS
 62
     2
100
AcDbPolyline
 90
        5
 70
     0
 43
0.0
 10
324.346973877
 20
21.6572602844
 10
324.7400830078
 20
20.5780943298
 10
324.6417993164
 20
20.1155950928
 10
324.4452575684
 20
19.8072601318
 10
324.2486901855
 20
19.8072601318
  0
LINE
  5
2FC
330
226
100
AcDbEntity
  8
0
  6
CONTINUOUS
 62
     2
100
AcDbLine
 10
324.7400830078
 20
20.5780943298
 30
0.0
 11
325.1332177734
 21
21.6572602844
 31
0.0
  0
LINE
  5
2FD
330
226
100
AcDbEntity
  8
0
  6
CONTINUOUS
 62
     2
100
AcDbLine
 10
327.8850842285
 20
22.273927002
 30
0.0
 11
327.8850842285
 21
22.1197595215
 31
0.0
  0
LINE
  5
2FE
330
226
100
AcDbEntity
  8
0
  6
CONTINUOUS
 62
     2
100
AcDbLine
 10
327.8850842285
 20
21.6572602844
 30
0.0
 11
327.8850842285
 21
20.4239268494
 31
0.0
  0
LINE
  5
2FF
330
226
100
AcDbEntity
  8
0
  6
CONTINUOUS
 62
     2
100
AcDbLine
 10
329.162746582
 20
20.4239268494
 30
0.0
 11
329.162746582
 21
21.6572602844
 31
0.0
  0
LWPOLYLINE
  5
300
330
226
100
AcDbEntity
  8
0
  6
CONTINUOUS
 62
     2
100
AcDbPolyline
 90
        5
 70
     0
 43
0.0
 10
329.162746582
 20
21.3489285278
 10
329.3593139648
 20
21.6572602844
 10
329.5558813477
 20
21.6572602844
 10
329.7524230957
 20
21.3489285278
 10
329.7524230957
 20
20.4239268494
  0
LINE
  5
301
330
226
100
AcDbEntity
  8
0
  6
CONTINUOUS
 62
     2
100
AcDbLine
 10
331.0300854492
 20
20.4239268494
 30
0.0
 11
331.0300854492
 21
22.273927002
 31
0.0
  0
LINE
  5
302
330
226
100
AcDbEntity
  8
0
  6
CONTINUOUS
 62
     2
100
AcDbLine
 10
330.735234375
 20
21.503092804
 30
0.0
 11
331.3249365234
 21
21.503092804
 31
0.0
  0
LWPOLYLINE
  5
303
330
226
100
AcDbEntity
  8
0
  6
CONTINUOUS
 62
     2
100
AcDbPolyline
 90
       11
 70
     0
 43
0.0
 10
332.8974243164
 20
20.7322618103
 10
332.799140625
 20
20.5780943298
 10
332.602598877
 20
20.4239268494
 10
332.4060314941
 20
20.5780943298
 10
332.2094641113
 20
20.8864260864
 10
332.2094641113
 20
21.1947610474
 10
332.4060314941
 20
21.503092804
 10
332.602598877
 20
21.6572602844
 10
332.799140625
 20
21.503092804
 10
332.8974243164
 20
21.1947610474
 10
332.2094641113
 20
21.1947610474
  0
LWPOLYLINE
  5
304
330
226
100
AcDbEntity
  8
0
  6
CONTINUOUS
 62
     2
100
AcDbPolyline
 90
       10
 70
     0
 43
0.0
 10
334.5682214355
 20
20.8864260864
 10
334.3716540527
 20
20.5780943298
 10
334.1750866699
 20
20.4239268494
 10
333.9785192871
 20
20.5780943298
 10
333.7819775391
 20
20.8864260864
 10
333.7819775391
 20
21.1947610474
 10
333.9785192871
 20
21.503092804
 10
334.1750866699
 20
21.6572602844
 10
334.3716540527
 20
21.503092804
 10
334.5682214355
 20
21.1947610474
  0
LWPOLYLINE
  5
305
330
226
100
AcDbEntity
  8
0
  6
CONTINUOUS
 62
     2
100
AcDbPolyline
 90
        6
 70
     0
 43
0.0
 10
334.5682214355
 20
21.6572602844
 10
334.5682214355
 20
20.2697593689
 10
334.4699377441
 20
19.9614276123
 10
334.3716540527
 20
19.8072601318
 10
333.9785192871
 20
19.8072601318
 10
333.8802355957
 20
19.9614276123
  0
LINE
  5
306
330
226
100
AcDbEntity
  8
0
  6
CONTINUOUS
 62
     2
100
AcDbLine
 10
335.4527490234
 20
20.4239268494
 30
0.0
 11
335.4527490234
 21
21.6572602844
 31
0.0
  0
LWPOLYLINE
  5
307
330
226
100
AcDbEntity
  8
0
  6
CONTINUOUS
 62
     2
100
AcDbPolyline
 90
        4
 70
     0
 43
0.0
 10
335.4527490234
 20
21.3489285278
 10
335.6493164062
 20
21.6572602844
 10
335.8458837891
 20
21.6572602844
 10
335.9441418457
 20
21.503092804
  0
LWPOLYLINE
  5
308
330
226
100
AcDbEntity
  8
0
  6
CONTINUOUS
 62
     2
100
AcDbPolyline
 90
       10
 70
     0
 43
0.0
 10
337.7132226562
 20
20.8864260864
 10
337.5166552734
 20
20.5780943298
 10
337.3200878906
 20
20.4239268494
 10
337.1235205078
 20
20.5780943298
 10
336.926953125
 20
20.8864260864
 10
336.926953125
 20
21.1947610474
 10
337.1235205078
 20
21.503092804
 10
337.3200878906
 20
21.6572602844
 10
337.5166552734
 20
21.503092804
 10
337.7132226562
 20
21.1947610474
  0
LINE
  5
309
330
226
100
AcDbEntity
  8
0
  6
CONTINUOUS
 62
     2
100
AcDbLine
 10
337.7132226562
 20
21.6572602844
 30
0.0
 11
337.7132226562
 21
20.4239268494
 31
0.0
  0
LINE
  5
30A
330
226
100
AcDbEntity
  8
0
  6
CONTINUOUS
 62
     2
100
AcDbLine
 10
338.8926013184
 20
20.4239268494
 30
0.0
 11
338.8926013184
 21
22.273927002
 31
0.0
  0
LWPOLYLINE
  5
30B
330
226
100
AcDbEntity
  8
0
  6
CONTINUOUS
 62
     2
100
AcDbPolyline
 90
       11
 70
     0
 43
0.0
 10
342.4307116699
 20
20.8864260864
 10
342.2341442871
 20
20.5780943298
 10
342.0376025391
 20
20.4239268494
 10
341.8410351562
 20
20.5780943298
 10
341.6444677734
 20
20.8864260864
 10
341.6444677734
 20
21.1947610474
 10
341.8410351562
 20
21.503092804
 10
342.0376025391
 20
21.6572602844
 10
342.2341442871
 20
21.503092804
 10
342.4307116699
 20
21.1947610474
 10
342.4307116699
 20
20.8864260864
  0
LINE
  5
30C
330
226
100
AcDbEntity
  8
0
  6
CONTINUOUS
 62
     2
100
AcDbLine
 10
343.3152392578
 20
20.4239268494
 30
0.0
 11
343.3152392578
 21
21.6572602844
 31
0.0
  0
LWPOLYLINE
  5
30D
330
226
100
AcDbEntity
  8
0
  6
CONTINUOUS
 62
     2
100
AcDbPolyline
 90
        4
 70
     0
 43
0.0
 10
343.3152392578
 20
21.3489285278
 10
343.5118066406
 20
21.6572602844
 10
343.7083740234
 20
21.6572602844
 10
343.8066577148
 20
21.503092804
  0
LWPOLYLINE
  5
30E
330
226
100
AcDbEntity
  8
0
  6
CONTINUOUS
 62
     2
100
AcDbPolyline
 90
       10
 70
     0
 43
0.0
 10
346.3619567871
 20
21.1947610474
 10
346.5585241699
 20
21.503092804
 10
346.7550915527
 20
21.6572602844
 10
346.9516589355
 20
21.503092804
 10
347.1482263184
 20
21.1947610474
 10
347.1482263184
 20
20.8864260864
 10
346.9516589355
 20
20.5780943298
 10
346.7550915527
 20
20.4239268494
 10
346.5585241699
 20
20.4239268494
 10
346.3619567871
 20
20.8864260864
  0
LINE
  5
30F
330
226
100
AcDbEntity
  8
0
  6
CONTINUOUS
 62
     2
100
AcDbLine
 10
346.3619567871
 20
21.6572602844
 30
0.0
 11
346.3619567871
 21
19.8072601318
 31
0.0
  0
LWPOLYLINE
  5
310
330
226
100
AcDbEntity
  8
0
  6
CONTINUOUS
 62
     2
100
AcDbPolyline
 90
       10
 70
     0
 43
0.0
 10
348.7207141113
 20
20.8864260864
 10
348.5241467285
 20
20.5780943298
 10
348.3275793457
 20
20.4239268494
 10
348.1310375977
 20
20.5780943298
 10
347.9344702148
 20
20.8864260864
 10
347.9344702148
 20
21.1947610474
 10
348.1310375977
 20
21.503092804
 10
348.3275793457
 20
21.6572602844
 10
348.5241467285
 20
21.503092804
 10
348.7207141113
 20
21.1947610474
  0
LINE
  5
311
330
226
100
AcDbEntity
  8
0
  6
CONTINUOUS
 62
     2
100
AcDbLine
 10
348.7207141113
 20
21.6572602844
 30
0.0
 11
348.7207141113
 21
20.4239268494
 31
0.0
  0
LINE
  5
312
330
226
100
AcDbEntity
  8
0
  6
CONTINUOUS
 62
     2
100
AcDbLine
 10
349.6052416992
 20
20.4239268494
 30
0.0
 11
349.6052416992
 21
21.6572602844
 31
0.0
  0
LWPOLYLINE
  5
313
330
226
100
AcDbEntity
  8
0
  6
CONTINUOUS
 62
     2
100
AcDbPolyline
 90
        4
 70
     0
 43
0.0
 10
349.6052416992
 20
21.3489285278
 10
349.801809082
 20
21.6572602844
 10
349.9983764648
 20
21.6572602844
 10
350.0966601562
 20
21.503092804
  0
LINE
  5
314
330
226
100
AcDbEntity
  8
0
  6
CONTINUOUS
 62
     2
100
AcDbLine
 10
351.4725805664
 20
20.4239268494
 30
0.0
 11
351.4725805664
 21
22.273927002
 31
0.0
  0
LINE
  5
315
330
226
100
AcDbEntity
  8
0
  6
CONTINUOUS
 62
     2
100
AcDbLine
 10
351.177755127
 20
21.503092804
 30
0.0
 11
351.7674316406
 21
21.503092804
 31
0.0
  0
LINE
  5
316
330
226
100
AcDbEntity
  8
0
  6
CONTINUOUS
 62
     2
100
AcDbLine
 10
353.0450939941
 20
22.273927002
 30
0.0
 11
353.0450939941
 21
22.1197595215
 31
0.0
  0
LINE
  5
317
330
226
100
AcDbEntity
  8
0
  6
CONTINUOUS
 62
     2
100
AcDbLine
 10
353.0450939941
 20
21.6572602844
 30
0.0
 11
353.0450939941
 21
20.4239268494
 31
0.0
  0
LWPOLYLINE
  5
318
330
226
100
AcDbEntity
  8
0
  6
CONTINUOUS
 62
     2
100
AcDbPolyline
 90
       10
 70
     0
 43
0.0
 10
355.0107165527
 20
20.8864260864
 10
354.8141491699
 20
20.5780943298
 10
354.6175817871
 20
20.4239268494
 10
354.4210400391
 20
20.5780943298
 10
354.2244726562
 20
20.8864260864
 10
354.2244726562
 20
21.1947610474
 10
354.4210400391
 20
21.503092804
 10
354.6175817871
 20
21.6572602844
 10
354.8141491699
 20
21.503092804
 10
355.0107165527
 20
21.1947610474
  0
LINE
  5
319
330
226
100
AcDbEntity
  8
0
  6
CONTINUOUS
 62
     2
100
AcDbLine
 10
355.0107165527
 20
21.6572602844
 30
0.0
 11
355.0107165527
 21
20.4239268494
 31
0.0
  0
LINE
  5
31A
330
226
100
AcDbEntity
  8
0
  6
CONTINUOUS
 62
     2
100
AcDbLine
 10
356.1900952148
 20
20.4239268494
 30
0.0
 11
356.1900952148
 21
22.273927002
 31
0.0
  0
LINE
  5
31B
330
226
100
AcDbEntity
  8
0
  6
CONTINUOUS
 62
     2
100
AcDbLine
 10
359.0402453613
 20
20.4239268494
 30
0.0
 11
359.0402453613
 21
21.6572602844
 31
0.0
  0
LWPOLYLINE
  5
31C
330
226
100
AcDbEntity
  8
0
  6
CONTINUOUS
 62
     2
100
AcDbPolyline
 90
        4
 70
     0
 43
0.0
 10
359.0402453613
 20
21.3489285278
 10
359.2368127441
 20
21.6572602844
 10
359.433380127
 20
21.6572602844
 10
359.5316638184
 20
21.503092804
  0
LWPOLYLINE
  5
31D
330
226
100
AcDbEntity
  8
0
  6
CONTINUOUS
 62
     2
100
AcDbPolyline
 90
       11
 70
     0
 43
0.0
 10
361.2024353027
 20
20.7322618103
 10
361.1041516113
 20
20.5780943298
 10
360.9075842285
 20
20.4239268494
 10
360.7110168457
 20
20.5780943298
 10
360.5144750977
 20
20.8864260864
 10
360.5144750977
 20
21.1947610474
 10
360.7110168457
 20
21.503092804
 10
360.9075842285
 20
21.6572602844
 10
361.1041516113
 20
21.503092804
 10
361.2024353027
 20
21.1947610474
 10
360.5144750977
 20
21.1947610474
  0
LWPOLYLINE
  5
31E
330
226
100
AcDbEntity
  8
0
  6
CONTINUOUS
 62
     2
100
AcDbPolyline
 90
       10
 70
     0
 43
0.0
 10
362.0869628906
 20
21.1947610474
 10
362.2835302734
 20
21.503092804
 10
362.4800976562
 20
21.6572602844
 10
362.6766650391
 20
21.503092804
 10
362.8732067871
 20
21.1947610474
 10
362.8732067871
 20
20.8864260864
 10
362.6766650391
 20
20.5780943298
 10
362.4800976562
 20
20.4239268494
 10
362.2835302734
 20
20.4239268494
 10
362.0869628906
 20
20.8864260864
  0
LINE
  5
31F
330
226
100
AcDbEntity
  8
0
  6
CONTINUOUS
 62
     2
100
AcDbLine
 10
362.0869628906
 20
21.6572602844
 30
0.0
 11
362.0869628906
 21
19.8072601318
 31
0.0
  0
LINE
  5
320
330
226
100
AcDbEntity
  8
0
  6
CONTINUOUS
 62
     2
100
AcDbLine
 10
363.757734375
 20
20.4239268494
 30
0.0
 11
363.757734375
 21
21.6572602844
 31
0.0
  0
LWPOLYLINE
  5
321
330
226
100
AcDbEntity
  8
0
  6
CONTINUOUS
 62
     2
100
AcDbPolyline
 90
        4
 70
     0
 43
0.0
 10
363.757734375
 20
21.3489285278
 10
363.9543017578
 20
21.6572602844
 10
364.1508691406
 20
21.6572602844
 10
364.249152832
 20
21.503092804
  0
LWPOLYLINE
  5
322
330
226
100
AcDbEntity
  8
0
  6
CONTINUOUS
 62
     2
100
AcDbPolyline
 90
       11
 70
     0
 43
0.0
 10
366.0182080078
 20
20.8864260864
 10
365.821640625
 20
20.5780943298
 10
365.625098877
 20
20.4239268494
 10
365.4285314941
 20
20.5780943298
 10
365.2319641113
 20
20.8864260864
 10
365.2319641113
 20
21.1947610474
 10
365.4285314941
 20
21.503092804
 10
365.625098877
 20
21.6572602844
 10
365.821640625
 20
21.503092804
 10
366.0182080078
 20
21.1947610474
 10
366.0182080078
 20
20.8864260864
  0
LWPOLYLINE
  5
323
330
226
100
AcDbEntity
  8
0
  6
CONTINUOUS
 62
     2
100
AcDbPolyline
 90
       10
 70
     0
 43
0.0
 10
367.5907214355
 20
20.8864260864
 10
367.3941540527
 20
20.5780943298
 10
367.1975866699
 20
20.4239268494
 10
367.0010192871
 20
20.5780943298
 10
366.8044775391
 20
20.8864260864
 10
366.8044775391
 20
21.1947610474
 10
367.0010192871
 20
21.503092804
 10
367.1975866699
 20
21.6572602844
 10
367.3941540527
 20
21.503092804
 10
367.5907214355
 20
21.1947610474
  0
LINE
  5
324
330
226
100
AcDbEntity
  8
0
  6
CONTINUOUS
 62
     2
100
AcDbLine
 10
367.5907214355
 20
22.273927002
 30
0.0
 11
367.5907214355
 21
20.4239268494
 31
0.0
  0
LWPOLYLINE
  5
325
330
226
100
AcDbEntity
  8
0
  6
CONTINUOUS
 62
     2
100
AcDbPolyline
 90
        5
 70
     0
 43
0.0
 10
368.4752490234
 20
21.6572602844
 10
368.4752490234
 20
20.7322618103
 10
368.6718164063
 20
20.4239268494
 10
368.8683837891
 20
20.4239268494
 10
369.0649255371
 20
20.7322618103
  0
LINE
  5
326
330
226
100
AcDbEntity
  8
0
  6
CONTINUOUS
 62
     2
100
AcDbLine
 10
369.0649255371
 20
21.6572602844
 30
0.0
 11
369.0649255371
 21
20.4239268494
 31
0.0
  0
LWPOLYLINE
  5
327
330
226
100
AcDbEntity
  8
0
  6
CONTINUOUS
 62
     2
100
AcDbPolyline
 90
        8
 70
     0
 43
0.0
 10
370.5391552734
 20
20.5780943298
 10
370.3425878906
 20
20.4239268494
 10
370.1460205078
 20
20.5780943298
 10
369.949453125
 20
20.8864260864
 10
369.949453125
 20
21.1947610474
 10
370.1460205078
 20
21.503092804
 10
370.3425878906
 20
21.6572602844
 10
370.5391552734
 20
21.503092804
  0
LINE
  5
328
330
226
100
AcDbEntity
  8
0
  6
CONTINUOUS
 62
     2
100
AcDbLine
 10
371.9151013184
 20
20.4239268494
 30
0.0
 11
371.9151013184
 21
22.273927002
 31
0.0
  0
LINE
  5
329
330
226
100
AcDbEntity
  8
0
  6
CONTINUOUS
 62
     2
100
AcDbLine
 10
371.6202502441
 20
21.503092804
 30
0.0
 11
372.2099267578
 21
21.503092804
 31
0.0
  0
LINE
  5
32A
330
226
100
AcDbEntity
  8
0
  6
CONTINUOUS
 62
     2
100
AcDbLine
 10
373.4875891113
 20
22.273927002
 30
0.0
 11
373.4875891113
 21
22.1197595215
 31
0.0
  0
LINE
  5
32B
330
226
100
AcDbEntity
  8
0
  6
CONTINUOUS
 62
     2
100
AcDbLine
 10
373.4875891113
 20
21.6572602844
 30
0.0
 11
373.4875891113
 21
20.4239268494
 31
0.0
  0
LWPOLYLINE
  5
32C
330
226
100
AcDbEntity
  8
0
  6
CONTINUOUS
 62
     2
100
AcDbPolyline
 90
       11
 70
     0
 43
0.0
 10
375.4532116699
 20
20.8864260864
 10
375.2566442871
 20
20.5780943298
 10
375.0601025391
 20
20.4239268494
 10
374.8635351563
 20
20.5780943298
 10
374.6669677734
 20
20.8864260864
 10
374.6669677734
 20
21.1947610474
 10
374.8635351563
 20
21.503092804
 10
375.0601025391
 20
21.6572602844
 10
375.2566442871
 20
21.503092804
 10
375.4532116699
 20
21.1947610474
 10
375.4532116699
 20
20.8864260864
  0
LINE
  5
32D
330
226
100
AcDbEntity
  8
0
  6
CONTINUOUS
 62
     2
100
AcDbLine
 10
376.3377392578
 20
20.4239268494
 30
0.0
 11
376.3377392578
 21
21.6572602844
 31
0.0
  0
LWPOLYLINE
  5
32E
330
226
100
AcDbEntity
  8
0
  6
CONTINUOUS
 62
     2
100
AcDbPolyline
 90
        5
 70
     0
 43
0.0
 10
376.3377392578
 20
21.3489285278
 10
376.5343066406
 20
21.6572602844
 10
376.7308740234
 20
21.6572602844
 10
376.9274414063
 20
21.3489285278
 10
376.9274414063
 20
20.4239268494
  0
LWPOLYLINE
  5
32F
330
226
100
AcDbEntity
  8
0
  6
CONTINUOUS
 62
     2
100
AcDbPolyline
 90
       14
 70
     0
 43
0.0
 10
378.4016455078
 20
21.503092804
 10
378.3033618164
 20
21.6572602844
 10
378.1068200684
 20
21.6572602844
 10
378.008536377
 20
21.503092804
 10
378.008536377
 20
21.3489285278
 10
378.205078125
 20
21.1947610474
 10
378.4016455078
 20
21.0405935669
 10
378.4999291992
 20
20.8864260864
 10
378.4999291992
 20
20.7322618103
 10
378.4016455078
 20
20.5780943298
 10
378.3033618164
 20
20.4239268494
 10
378.1068200684
 20
20.4239268494
 10
378.008536377
 20
20.5780943298
 10
377.9102526855
 20
20.7322618103
  0
LWPOLYLINE
  5
330
330
226
100
AcDbEntity
  8
0
  6
CONTINUOUS
 62
     2
100
AcDbPolyline
 90
       10
 70
     0
 43
0.0
 10
381.7432141113
 20
20.8864260864
 10
381.5466467285
 20
20.5780943298
 10
381.3500793457
 20
20.4239268494
 10
381.1535375977
 20
20.5780943298
 10
380.9569702148
 20
20.8864260864
 10
380.9569702148
 20
21.1947610474
 10
381.1535375977
 20
21.503092804
 10
381.3500793457
 20
21.6572602844
 10
381.5466467285
 20
21.503092804
 10
381.7432141113
 20
21.1947610474
  0
LINE
  5
331
330
226
100
AcDbEntity
  8
0
  6
CONTINUOUS
 62
     2
100
AcDbLine
 10
381.7432141113
 20
21.6572602844
 30
0.0
 11
381.7432141113
 21
20.4239268494
 31
0.0
  0
LINE
  5
332
330
226
100
AcDbEntity
  8
0
  6
CONTINUOUS
 62
     2
100
AcDbLine
 10
382.6277416992
 20
20.4239268494
 30
0.0
 11
382.6277416992
 21
21.6572602844
 31
0.0
  0
LWPOLYLINE
  5
333
330
226
100
AcDbEntity
  8
0
  6
CONTINUOUS
 62
     2
100
AcDbPolyline
 90
        4
 70
     0
 43
0.0
 10
382.6277416992
 20
21.3489285278
 10
382.824309082
 20
21.6572602844
 10
383.0208764648
 20
21.6572602844
 10
383.1191601562
 20
21.503092804
  0
LWPOLYLINE
  5
334
330
226
100
AcDbEntity
  8
0
  6
CONTINUOUS
 62
     2
100
AcDbPolyline
 90
       11
 70
     0
 43
0.0
 10
384.7899316406
 20
20.7322618103
 10
384.6916479492
 20
20.5780943298
 10
384.4950805664
 20
20.4239268494
 10
384.2985388184
 20
20.5780943298
 10
384.1019714355
 20
20.8864260864
 10
384.1019714355
 20
21.1947610474
 10
384.2985388184
 20
21.503092804
 10
384.4950805664
 20
21.6572602844
 10
384.6916479492
 20
21.503092804
 10
384.7899316406
 20
21.1947610474
 10
384.1019714355
 20
21.1947610474
  0
LWPOLYLINE
  5
335
330
226
100
AcDbEntity
  8
0
  6
CONTINUOUS
 62
     2
100
AcDbPolyline
 90
       10
 70
     0
 43
0.0
 10
387.2469726562
 20
21.1947610474
 10
387.4435400391
 20
21.503092804
 10
387.6400817871
 20
21.6572602844
 10
387.8366491699
 20
21.503092804
 10
388.0332165527
 20
21.1947610474
 10
388.0332165527
 20
20.8864260864
 10
387.8366491699
 20
20.5780943298
 10
387.6400817871
 20
20.4239268494
 10
387.4435400391
 20
20.4239268494
 10
387.2469726562
 20
20.8864260864
  0
LINE
  5
336
330
226
100
AcDbEntity
  8
0
  6
CONTINUOUS
 62
     2
100
AcDbLine
 10
387.2469726562
 20
21.6572602844
 30
0.0
 11
387.2469726562
 21
19.8072601318
 31
0.0
  0
LINE
  5
337
330
226
100
AcDbEntity
  8
0
  6
CONTINUOUS
 62
     2
100
AcDbLine
 10
388.9177441406
 20
20.4239268494
 30
0.0
 11
388.9177441406
 21
21.6572602844
 31
0.0
  0
LWPOLYLINE
  5
338
330
226
100
AcDbEntity
  8
0
  6
CONTINUOUS
 62
     2
100
AcDbPolyline
 90
        4
 70
     0
 43
0.0
 10
388.9177441406
 20
21.3489285278
 10
389.1143115234
 20
21.6572602844
 10
389.3108789062
 20
21.6572602844
 10
389.4091625977
 20
21.503092804
  0
LWPOLYLINE
  5
339
330
226
100
AcDbEntity
  8
0
  6
CONTINUOUS
 62
     2
100
AcDbPolyline
 90
       11
 70
     0
 43
0.0
 10
391.1782177734
 20
20.8864260864
 10
390.9816503906
 20
20.5780943298
 10
390.7850830078
 20
20.4239268494
 10
390.588515625
 20
20.5780943298
 10
390.391973877
 20
20.8864260864
 10
390.391973877
 20
21.1947610474
 10
390.588515625
 20
21.503092804
 10
390.7850830078
 20
21.6572602844
 10
390.9816503906
 20
21.503092804
 10
391.1782177734
 20
21.1947610474
 10
391.1782177734
 20
20.8864260864
  0
LINE
  5
33A
330
226
100
AcDbEntity
  8
0
  6
CONTINUOUS
 62
     2
100
AcDbLine
 10
392.0627453613
 20
20.4239268494
 30
0.0
 11
392.0627453613
 21
22.273927002
 31
0.0
  0
LWPOLYLINE
  5
33B
330
226
100
AcDbEntity
  8
0
  6
CONTINUOUS
 62
     2
100
AcDbPolyline
 90
        7
 70
     0
 43
0.0
 10
392.0627453613
 20
21.3489285278
 10
392.0627453613
 20
21.503092804
 10
392.2593127441
 20
21.6572602844
 10
392.3575964355
 20
21.6572602844
 10
392.455880127
 20
21.6572602844
 10
392.652421875
 20
21.3489285278
 10
392.652421875
 20
20.4239268494
  0
LINE
  5
33C
330
226
100
AcDbEntity
  8
0
  6
CONTINUOUS
 62
     2
100
AcDbLine
 10
393.9300842285
 20
22.273927002
 30
0.0
 11
393.9300842285
 21
22.1197595215
 31
0.0
  0
LINE
  5
33D
330
226
100
AcDbEntity
  8
0
  6
CONTINUOUS
 62
     2
100
AcDbLine
 10
393.9300842285
 20
21.6572602844
 30
0.0
 11
393.9300842285
 21
20.4239268494
 31
0.0
  0
LWPOLYLINE
  5
33E
330
226
100
AcDbEntity
  8
0
  6
CONTINUOUS
 62
     2
100
AcDbPolyline
 90
       10
 70
     0
 43
0.0
 10
395.1094628906
 20
21.1947610474
 10
395.3060302734
 20
21.503092804
 10
395.5025976562
 20
21.6572602844
 10
395.6991650391
 20
21.503092804
 10
395.8957067871
 20
21.1947610474
 10
395.8957067871
 20
20.8864260864
 10
395.6991650391
 20
20.5780943298
 10
395.5025976562
 20
20.4239268494
 10
395.3060302734
 20
20.5780943298
 10
395.1094628906
 20
20.8864260864
  0
LINE
  5
33F
330
226
100
AcDbEntity
  8
0
  6
CONTINUOUS
 62
     2
100
AcDbLine
 10
395.1094628906
 20
22.273927002
 30
0.0
 11
395.1094628906
 21
20.4239268494
 31
0.0
  0
LINE
  5
340
330
226
100
AcDbEntity
  8
0
  6
CONTINUOUS
 62
     2
100
AcDbLine
 10
397.0750854492
 20
22.273927002
 30
0.0
 11
397.0750854492
 21
22.1197595215
 31
0.0
  0
LINE
  5
341
330
226
100
AcDbEntity
  8
0
  6
CONTINUOUS
 62
     2
100
AcDbLine
 10
397.0750854492
 20
21.6572602844
 30
0.0
 11
397.0750854492
 21
20.4239268494
 31
0.0
  0
LINE
  5
342
330
226
100
AcDbEntity
  8
0
  6
CONTINUOUS
 62
     2
100
AcDbLine
 10
398.647598877
 20
20.4239268494
 30
0.0
 11
398.647598877
 21
22.273927002
 31
0.0
  0
LINE
  5
343
330
226
100
AcDbEntity
  8
0
  6
CONTINUOUS
 62
     2
100
AcDbLine
 10
398.3527478027
 20
21.503092804
 30
0.0
 11
398.9424243164
 21
21.503092804
 31
0.0
  0
LWPOLYLINE
  5
344
330
226
100
AcDbEntity
  8
0
  6
CONTINUOUS
 62
     2
100
AcDbPolyline
 90
       11
 70
     0
 43
0.0
 10
400.5149377441
 20
20.7322618103
 10
400.4166540527
 20
20.5780943298
 10
400.2200866699
 20
20.4239268494
 10
400.0235192871
 20
20.5780943298
 10
399.8269775391
 20
20.8864260864
 10
399.8269775391
 20
21.1947610474
 10
400.0235192871
 20
21.503092804
 10
400.2200866699
 20
21.6572602844
 10
400.4166540527
 20
21.503092804
 10
400.5149377441
 20
21.1947610474
 10
399.8269775391
 20
21.1947610474
  0
LWPOLYLINE
  5
345
330
226
100
AcDbEntity
  8
0
  6
CONTINUOUS
 62
     2
100
AcDbPolyline
 90
       10
 70
     0
 43
0.0
 10
402.1857092285
 20
20.8864260864
 10
401.9891418457
 20
20.5780943298
 10
401.7926000977
 20
20.4239268494
 10
401.5960327148
 20
20.5780943298
 10
401.399465332
 20
20.8864260864
 10
401.399465332
 20
21.1947610474
 10
401.5960327148
 20
21.503092804
 10
401.7926000977
 20
21.6572602844
 10
401.9891418457
 20
21.503092804
 10
402.1857092285
 20
21.1947610474
  0
LINE
  5
346
330
226
100
AcDbEntity
  8
0
  6
CONTINUOUS
 62
     2
100
AcDbLine
 10
402.1857092285
 20
22.273927002
 30
0.0
 11
402.1857092285
 21
20.4239268494
 31
0.0
  0
LWPOLYLINE
  5
347
330
226
100
AcDbEntity
  8
0
  6
CONTINUOUS
 62
     2
100
AcDbPolyline
 90
        5
 70
     0
 43
0.0
 10
321.1036889648
 20
18.8822616577
 10
321.3002563477
 20
17.6489282227
 10
321.5950817871
 20
18.8822616577
 10
321.7916491699
 20
17.6489282227
 10
322.0865002441
 20
18.8822616577
  0
LINE
  5
348
330
226
100
AcDbEntity
  8
0
  6
CONTINUOUS
 62
     2
100
AcDbLine
 10
323.1675952148
 20
19.4989283752
 30
0.0
 11
323.1675952148
 21
19.3447608948
 31
0.0
  0
LINE
  5
349
330
226
100
AcDbEntity
  8
0
  6
CONTINUOUS
 62
     2
100
AcDbLine
 10
323.1675952148
 20
18.8822616577
 30
0.0
 11
323.1675952148
 21
17.6489282227
 31
0.0
  0
LINE
  5
34A
330
226
100
AcDbEntity
  8
0
  6
CONTINUOUS
 62
     2
100
AcDbLine
 10
324.7400830078
 20
17.6489282227
 30
0.0
 11
324.7400830078
 21
19.4989283752
 31
0.0
  0
LINE
  5
34B
330
226
100
AcDbEntity
  8
0
  6
CONTINUOUS
 62
     2
100
AcDbLine
 10
324.4452575684
 20
18.7280941772
 30
0.0
 11
325.034934082
 21
18.7280941772
 31
0.0
  0
LINE
  5
34C
330
226
100
AcDbEntity
  8
0
  6
CONTINUOUS
 62
     2
100
AcDbLine
 10
326.0177453613
 20
17.6489282227
 30
0.0
 11
326.0177453613
 21
19.4989283752
 31
0.0
  0
LWPOLYLINE
  5
34D
330
226
100
AcDbEntity
  8
0
  6
CONTINUOUS
 62
     2
100
AcDbPolyline
 90
        7
 70
     0
 43
0.0
 10
326.0177453613
 20
18.5739266968
 10
326.0177453613
 20
18.7280941772
 10
326.2143127441
 20
18.8822616577
 10
326.3125964355
 20
18.8822616577
 10
326.410880127
 20
18.8822616577
 10
326.607421875
 20
18.5739266968
 10
326.607421875
 20
17.6489282227
  0
LWPOLYLINE
  5
34E
330
226
100
AcDbEntity
  8
0
  6
CONTINUOUS
 62
     2
100
AcDbPolyline
 90
       11
 70
     0
 43
0.0
 10
328.2782189941
 20
18.1114274597
 10
328.0816516113
 20
17.8030924988
 10
327.8850842285
 20
17.6489282227
 10
327.6885168457
 20
17.8030924988
 10
327.4919750977
 20
18.1114274597
 10
327.4919750977
 20
18.4197592163
 10
327.6885168457
 20
18.7280941772
 10
327.8850842285
 20
18.8822616577
 10
328.0816516113
 20
18.7280941772
 10
328.2782189941
 20
18.4197592163
 10
328.2782189941
 20
18.1114274597
  0
LWPOLYLINE
  5
34F
330
226
100
AcDbEntity
  8
0
  6
CONTINUOUS
 62
     2
100
AcDbPolyline
 90
        5
 70
     0
 43
0.0
 10
329.162746582
 20
18.8822616577
 10
329.162746582
 20
17.9572599792
 10
329.3593139648
 20
17.6489282227
 10
329.5558813477
 20
17.6489282227
 10
329.7524230957
 20
17.9572599792
  0
LINE
  5
350
330
226
100
AcDbEntity
  8
0
  6
CONTINUOUS
 62
     2
100
AcDbLine
 10
329.7524230957
 20
18.8822616577
 30
0.0
 11
329.7524230957
 21
17.6489282227
 31
0.0
  0
LINE
  5
351
330
226
100
AcDbEntity
  8
0
  6
CONTINUOUS
 62
     2
100
AcDbLine
 10
331.0300854492
 20
17.6489282227
 30
0.0
 11
331.0300854492
 21
19.4989283752
 31
0.0
  0
LINE
  5
352
330
226
100
AcDbEntity
  8
0
  6
CONTINUOUS
 62
     2
100
AcDbLine
 10
330.735234375
 20
18.7280941772
 30
0.0
 11
331.3249365234
 21
18.7280941772
 31
0.0
  0
LWPOLYLINE
  5
353
330
226
100
AcDbEntity
  8
0
  6
CONTINUOUS
 62
     2
100
AcDbPolyline
 90
       10
 70
     0
 43
0.0
 10
333.7819775391
 20
18.4197592163
 10
333.9785192871
 20
18.7280941772
 10
334.1750866699
 20
18.8822616577
 10
334.3716540527
 20
18.7280941772
 10
334.5682214355
 20
18.4197592163
 10
334.5682214355
 20
18.1114274597
 10
334.3716540527
 20
17.8030924988
 10
334.1750866699
 20
17.6489282227
 10
333.9785192871
 20
17.6489282227
 10
333.7819775391
 20
18.1114274597
  0
LINE
  5
354
330
226
100
AcDbEntity
  8
0
  6
CONTINUOUS
 62
     2
100
AcDbLine
 10
333.7819775391
 20
18.8822616577
 30
0.0
 11
333.7819775391
 21
17.0322615051
 31
0.0
  0
LINE
  5
355
330
226
100
AcDbEntity
  8
0
  6
CONTINUOUS
 62
     2
100
AcDbLine
 10
335.4527490234
 20
17.6489282227
 30
0.0
 11
335.4527490234
 21
18.8822616577
 31
0.0
  0
LWPOLYLINE
  5
356
330
226
100
AcDbEntity
  8
0
  6
CONTINUOUS
 62
     2
100
AcDbPolyline
 90
        4
 70
     0
 43
0.0
 10
335.4527490234
 20
18.5739266968
 10
335.6493164062
 20
18.8822616577
 10
335.8458837891
 20
18.8822616577
 10
335.9441418457
 20
18.7280941772
  0
LINE
  5
357
330
226
100
AcDbEntity
  8
0
  6
CONTINUOUS
 62
     2
100
AcDbLine
 10
337.3200878906
 20
19.4989283752
 30
0.0
 11
337.3200878906
 21
19.3447608948
 31
0.0
  0
LINE
  5
358
330
226
100
AcDbEntity
  8
0
  6
CONTINUOUS
 62
     2
100
AcDbLine
 10
337.3200878906
 20
18.8822616577
 30
0.0
 11
337.3200878906
 21
17.6489282227
 31
0.0
  0
LWPOLYLINE
  5
359
330
226
100
AcDbEntity
  8
0
  6
CONTINUOUS
 62
     2
100
AcDbPolyline
 90
       11
 70
     0
 43
0.0
 10
339.2857104492
 20
18.1114274597
 10
339.0891430664
 20
17.8030924988
 10
338.8926013184
 20
17.6489282227
 10
338.6960339355
 20
17.8030924988
 10
338.4994665527
 20
18.1114274597
 10
338.4994665527
 20
18.4197592163
 10
338.6960339355
 20
18.7280941772
 10
338.8926013184
 20
18.8822616577
 10
339.0891430664
 20
18.7280941772
 10
339.2857104492
 20
18.4197592163
 10
339.2857104492
 20
18.1114274597
  0
LINE
  5
35A
330
226
100
AcDbEntity
  8
0
  6
CONTINUOUS
 62
     2
100
AcDbLine
 10
340.1702380371
 20
17.6489282227
 30
0.0
 11
340.1702380371
 21
18.8822616577
 31
0.0
  0
LWPOLYLINE
  5
35B
330
226
100
AcDbEntity
  8
0
  6
CONTINUOUS
 62
     2
100
AcDbPolyline
 90
        4
 70
     0
 43
0.0
 10
340.1702380371
 20
18.5739266968
 10
340.3668054199
 20
18.8822616577
 10
340.5633728027
 20
18.8822616577
 10
340.6616564941
 20
18.7280941772
  0
LWPOLYLINE
  5
35C
330
226
100
AcDbEntity
  8
0
  6
CONTINUOUS
 62
     2
100
AcDbPolyline
 90
       10
 70
     0
 43
0.0
 10
344.0032250977
 20
18.1114274597
 10
343.8066577148
 20
17.8030924988
 10
343.610090332
 20
17.6489282227
 10
343.4135229492
 20
17.8030924988
 10
343.2169555664
 20
18.1114274597
 10
343.2169555664
 20
18.4197592163
 10
343.4135229492
 20
18.7280941772
 10
343.610090332
 20
18.8822616577
 10
343.8066577148
 20
18.7280941772
 10
344.0032250977
 20
18.4197592163
  0
LINE
  5
35D
330
226
100
AcDbEntity
  8
0
  6
CONTINUOUS
 62
     2
100
AcDbLine
 10
344.0032250977
 20
18.8822616577
 30
0.0
 11
344.0032250977
 21
17.6489282227
 31
0.0
  0
LWPOLYLINE
  5
35E
330
226
100
AcDbEntity
  8
0
  6
CONTINUOUS
 62
     2
100
AcDbPolyline
 90
        5
 70
     0
 43
0.0
 10
344.8877526855
 20
18.8822616577
 10
344.8877526855
 20
17.9572599792
 10
345.0843200684
 20
17.6489282227
 10
345.2808618164
 20
17.6489282227
 10
345.4774291992
 20
17.9572599792
  0
LINE
  5
35F
330
226
100
AcDbEntity
  8
0
  6
CONTINUOUS
 62
     2
100
AcDbLine
 10
345.4774291992
 20
18.8822616577
 30
0.0
 11
345.4774291992
 21
17.6489282227
 31
0.0
  0
LINE
  5
360
330
226
100
AcDbEntity
  8
0
  6
CONTINUOUS
 62
     2
100
AcDbLine
 10
346.7550915527
 20
17.6489282227
 30
0.0
 11
346.7550915527
 21
19.4989283752
 31
0.0
  0
LINE
  5
361
330
226
100
AcDbEntity
  8
0
  6
CONTINUOUS
 62
     2
100
AcDbLine
 10
346.4602404785
 20
18.7280941772
 30
0.0
 11
347.049942627
 21
18.7280941772
 31
0.0
  0
LINE
  5
362
330
226
100
AcDbEntity
  8
0
  6
CONTINUOUS
 62
     2
100
AcDbLine
 10
348.0327539062
 20
17.6489282227
 30
0.0
 11
348.0327539062
 21
19.4989283752
 31
0.0
  0
LWPOLYLINE
  5
363
330
226
100
AcDbEntity
  8
0
  6
CONTINUOUS
 62
     2
100
AcDbPolyline
 90
        7
 70
     0
 43
0.0
 10
348.0327539062
 20
18.5739266968
 10
348.0327539062
 20
18.7280941772
 10
348.2293212891
 20
18.8822616577
 10
348.3275793457
 20
18.8822616577
 10
348.4258630371
 20
18.8822616577
 10
348.6224304199
 20
18.5739266968
 10
348.6224304199
 20
17.6489282227
  0
LWPOLYLINE
  5
364
330
226
100
AcDbEntity
  8
0
  6
CONTINUOUS
 62
     2
100
AcDbPolyline
 90
       11
 70
     0
 43
0.0
 10
350.2932275391
 20
18.1114274597
 10
350.0966601562
 20
17.8030924988
 10
349.9000927734
 20
17.6489282227
 10
349.7035253906
 20
17.8030924988
 10
349.5069580078
 20
18.1114274597
 10
349.5069580078
 20
18.4197592163
 10
349.7035253906
 20
18.7280941772
 10
349.9000927734
 20
18.8822616577
 10
350.0966601562
 20
18.7280941772
 10
350.2932275391
 20
18.4197592163
 10
350.2932275391
 20
18.1114274597
  0
LINE
  5
365
330
226
100
AcDbEntity
  8
0
  6
CONTINUOUS
 62
     2
100
AcDbLine
 10
351.177755127
 20
17.6489282227
 30
0.0
 11
351.177755127
 21
18.8822616577
 31
0.0
  0
LWPOLYLINE
  5
366
330
226
100
AcDbEntity
  8
0
  6
CONTINUOUS
 62
     2
100
AcDbPolyline
 90
        4
 70
     0
 43
0.0
 10
351.177755127
 20
18.5739266968
 10
351.374296875
 20
18.8822616577
 10
351.5708642578
 20
18.8822616577
 10
351.6691479492
 20
18.7280941772
  0
LINE
  5
367
330
226
100
AcDbEntity
  8
0
  6
CONTINUOUS
 62
     2
100
AcDbLine
 10
353.0450939941
 20
19.4989283752
 30
0.0
 11
353.0450939941
 21
19.3447608948
 31
0.0
  0
LINE
  5
368
330
226
100
AcDbEntity
  8
0
  6
CONTINUOUS
 62
     2
100
AcDbLine
 10
353.0450939941
 20
18.8822616577
 30
0.0
 11
353.0450939941
 21
17.6489282227
 31
0.0
  0
LWPOLYLINE
  5
369
330
226
100
AcDbEntity
  8
0
  6
CONTINUOUS
 62
     2
100
AcDbPolyline
 90
       14
 70
     0
 43
0.0
 10
354.8141491699
 20
18.7280941772
 10
354.7158654785
 20
18.8822616577
 10
354.5192980957
 20
18.8822616577
 10
354.4210400391
 20
18.7280941772
 10
354.4210400391
 20
18.5739266968
 10
354.6175817871
 20
18.4197592163
 10
354.8141491699
 20
18.2655949402
 10
354.9124328613
 20
18.1114274597
 10
354.9124328613
 20
17.9572599792
 10
354.8141491699
 20
17.8030924988
 10
354.7158654785
 20
17.6489282227
 10
354.5192980957
 20
17.6489282227
 10
354.4210400391
 20
17.8030924988
 10
354.3227563477
 20
17.9572599792
  0
LWPOLYLINE
  5
36A
330
226
100
AcDbEntity
  8
0
  6
CONTINUOUS
 62
     2
100
AcDbPolyline
 90
       10
 70
     0
 43
0.0
 10
356.5832043457
 20
18.1114274597
 10
356.3866625977
 20
17.8030924988
 10
356.1900952148
 20
17.6489282227
 10
355.993527832
 20
17.8030924988
 10
355.7969604492
 20
18.1114274597
 10
355.7969604492
 20
18.4197592163
 10
355.993527832
 20
18.7280941772
 10
356.1900952148
 20
18.8822616577
 10
356.3866625977
 20
18.7280941772
 10
356.5832043457
 20
18.4197592163
  0
LINE
  5
36B
330
226
100
AcDbEntity
  8
0
  6
CONTINUOUS
 62
     2
100
AcDbLine
 10
356.5832043457
 20
18.8822616577
 30
0.0
 11
356.5832043457
 21
17.6489282227
 31
0.0
  0
LINE
  5
36C
330
226
100
AcDbEntity
  8
0
  6
CONTINUOUS
 62
     2
100
AcDbLine
 10
357.7625830078
 20
17.6489282227
 30
0.0
 11
357.7625830078
 21
19.4989283752
 31
0.0
  0
LINE
  5
36D
330
226
100
AcDbEntity
  8
0
  6
CONTINUOUS
 62
     2
100
AcDbLine
 10
357.4677575684
 20
18.7280941772
 30
0.0
 11
358.057434082
 21
18.7280941772
 31
0.0
  0
LINE
  5
36E
330
226
100
AcDbEntity
  8
0
  6
CONTINUOUS
 62
     2
100
AcDbLine
 10
359.3350964355
 20
19.4989283752
 30
0.0
 11
359.3350964355
 21
19.3447608948
 31
0.0
  0
LINE
  5
36F
330
226
100
AcDbEntity
  8
0
  6
CONTINUOUS
 62
     2
100
AcDbLine
 10
359.3350964355
 20
18.8822616577
 30
0.0
 11
359.3350964355
 21
17.6489282227
 31
0.0
  0
LWPOLYLINE
  5
370
330
226
100
AcDbEntity
  8
0
  6
CONTINUOUS
 62
     2
100
AcDbPolyline
 90
       11
 70
     0
 43
0.0
 10
361.3007189941
 20
18.1114274597
 10
361.1041516113
 20
17.8030924988
 10
360.9075842285
 20
17.6489282227
 10
360.7110168457
 20
17.8030924988
 10
360.5144750977
 20
18.1114274597
 10
360.5144750977
 20
18.4197592163
 10
360.7110168457
 20
18.7280941772
 10
360.9075842285
 20
18.8822616577
 10
361.1041516113
 20
18.7280941772
 10
361.3007189941
 20
18.4197592163
 10
361.3007189941
 20
18.1114274597
  0
LINE
  5
371
330
226
100
AcDbEntity
  8
0
  6
CONTINUOUS
 62
     2
100
AcDbLine
 10
362.185246582
 20
17.6489282227
 30
0.0
 11
362.185246582
 21
18.8822616577
 31
0.0
  0
LWPOLYLINE
  5
372
330
226
100
AcDbEntity
  8
0
  6
CONTINUOUS
 62
     2
100
AcDbPolyline
 90
        5
 70
     0
 43
0.0
 10
362.185246582
 20
18.5739266968
 10
362.3818139648
 20
18.8822616577
 10
362.5783813477
 20
18.8822616577
 10
362.7749230957
 20
18.5739266968
 10
362.7749230957
 20
17.6489282227
  0
LWPOLYLINE
  5
373
330
226
100
AcDbEntity
  8
0
  6
CONTINUOUS
 62
     2
100
AcDbPolyline
 90
       11
 70
     0
 43
0.0
 10
366.0182080078
 20
18.1114274597
 10
365.821640625
 20
17.8030924988
 10
365.625098877
 20
17.6489282227
 10
365.4285314941
 20
17.8030924988
 10
365.2319641113
 20
18.1114274597
 10
365.2319641113
 20
18.4197592163
 10
365.4285314941
 20
18.7280941772
 10
365.625098877
 20
18.8822616577
 10
365.821640625
 20
18.7280941772
 10
366.0182080078
 20
18.4197592163
 10
366.0182080078
 20
18.1114274597
  0
LWPOLYLINE
  5
374
330
226
100
AcDbEntity
  8
0
  6
CONTINUOUS
 62
     2
100
AcDbPolyline
 90
        5
 70
     0
 43
0.0
 10
367.1975866699
 20
17.6489282227
 10
367.1975866699
 20
19.1905934143
 10
367.3941540527
 20
19.4989283752
 10
367.4924377441
 20
19.4989283752
 10
367.5907214355
 20
19.3447608948
  0
LINE
  5
375
330
226
100
AcDbEntity
  8
0
  6
CONTINUOUS
 62
     2
100
AcDbLine
 10
367.0010192871
 20
18.7280941772
 30
0.0
 11
367.3941540527
 21
18.7280941772
 31
0.0
  0
LWPOLYLINE
  5
376
330
226
100
AcDbEntity
  8
0
  6
CONTINUOUS
 62
     2
100
AcDbPolyline
 90
        3
 70
     0
 43
0.0
 10
369.949453125
 20
19.4989283752
 10
369.949453125
 20
17.6489282227
 10
370.7357226563
 20
17.6489282227
  0
LWPOLYLINE
  5
377
330
226
100
AcDbEntity
  8
0
  6
CONTINUOUS
 62
     2
100
AcDbPolyline
 90
        3
 70
     0
 43
0.0
 10
374.6669677734
 20
19.4989283752
 10
374.6669677734
 20
17.6489282227
 10
375.4532116699
 20
17.6489282227
  0
LWPOLYLINE
  5
378
330
226
100
AcDbEntity
  8
0
  6
CONTINUOUS
 62
     2
100
AcDbPolyline
 90
        5
 70
     0
 43
0.0
 10
376.3377392578
 20
18.8822616577
 10
376.3377392578
 20
17.9572599792
 10
376.5343066406
 20
17.6489282227
 10
376.7308740234
 20
17.6489282227
 10
376.9274414063
 20
17.9572599792
  0
LINE
  5
379
330
226
100
AcDbEntity
  8
0
  6
CONTINUOUS
 62
     2
100
AcDbLine
 10
376.9274414063
 20
18.8822616577
 30
0.0
 11
376.9274414063
 21
17.6489282227
 31
0.0
  0
LWPOLYLINE
  5
37A
330
226
100
AcDbEntity
  8
0
  6
CONTINUOUS
 62
     2
100
AcDbPolyline
 90
        8
 70
     0
 43
0.0
 10
378.4016455078
 20
17.8030924988
 10
378.205078125
 20
17.6489282227
 10
378.008536377
 20
17.8030924988
 10
377.8119689941
 20
18.1114274597
 10
377.8119689941
 20
18.4197592163
 10
378.008536377
 20
18.7280941772
 10
378.205078125
 20
18.8822616577
 10
378.4016455078
 20
18.7280941772
  0
LWPOLYLINE
  5
37B
330
226
100
AcDbEntity
  8
0
  6
CONTINUOUS
 62
     2
100
AcDbPolyline
 90
       11
 70
     0
 43
0.0
 10
380.072442627
 20
17.9572599792
 10
379.9741589355
 20
17.8030924988
 10
379.7775915527
 20
17.6489282227
 10
379.5810241699
 20
17.8030924988
 10
379.3844567871
 20
18.1114274597
 10
379.3844567871
 20
18.4197592163
 10
379.5810241699
 20
18.7280941772
 10
379.7775915527
 20
18.8822616577
 10
379.9741589355
 20
18.7280941772
 10
380.072442627
 20
18.4197592163
 10
379.3844567871
 20
18.4197592163
  0
LWPOLYLINE
  5
37C
330
226
100
AcDbEntity
  8
0
  6
CONTINUOUS
 62
     2
100
AcDbPolyline
 90
       14
 70
     0
 43
0.0
 10
384.6916479492
 20
18.7280941772
 10
384.5933642578
 20
18.8822616577
 10
384.396796875
 20
18.8822616577
 10
384.2985388184
 20
18.7280941772
 10
384.2985388184
 20
18.5739266968
 10
384.4950805664
 20
18.4197592163
 10
384.6916479492
 20
18.2655949402
 10
384.7899316406
 20
18.1114274597
 10
384.7899316406
 20
17.9572599792
 10
384.6916479492
 20
17.8030924988
 10
384.5933642578
 20
17.6489282227
 10
384.396796875
 20
17.6489282227
 10
384.2985388184
 20
17.8030924988
 10
384.200255127
 20
17.9572599792
  0
LWPOLYLINE
  5
37D
330
226
100
AcDbEntity
  8
0
  6
CONTINUOUS
 62
     2
100
AcDbPolyline
 90
        4
 70
     0
 43
0.0
 10
386.0675939941
 20
17.6489282227
 10
385.9693103027
 20
17.6489282227
 10
385.9693103027
 20
17.8030924988
 10
386.0675939941
 20
17.6489282227
  0
LINE
  5
37E
330
226
100
AcDbEntity
  8
0
  6
CONTINUOUS
 62
     2
100
AcDbLine
 10
387.3452563477
 20
17.6489282227
 30
0.0
 11
387.3452563477
 21
18.8822616577
 31
0.0
  0
LWPOLYLINE
  5
37F
330
226
100
AcDbEntity
  8
0
  6
CONTINUOUS
 62
     2
100
AcDbPolyline
 90
        4
 70
     0
 43
0.0
 10
387.3452563477
 20
18.5739266968
 10
387.5417980957
 20
18.8822616577
 10
387.7383654785
 20
18.8822616577
 10
387.8366491699
 20
18.7280941772
  0
LWPOLYLINE
  5
380
330
226
100
AcDbEntity
  8
0
  6
CONTINUOUS
 62
     2
100
AcDbPolyline
 90
        4
 70
     0
 43
0.0
 10
389.2125952148
 20
17.6489282227
 10
389.1143115234
 20
17.6489282227
 10
389.1143115234
 20
17.8030924988
 10
389.2125952148
 20
17.6489282227
  0
LINE
  5
381
330
226
100
AcDbEntity
  8
0
  6
CONTINUOUS
 62
     2
100
AcDbLine
 10
390.7850830078
 20
17.6489282227
 30
0.0
 11
390.7850830078
 21
19.4989283752
 31
0.0
  0
LWPOLYLINE
  5
382
330
226
100
AcDbEntity
  8
0
  6
CONTINUOUS
 62
     2
100
AcDbPolyline
 90
        4
 70
     0
 43
0.0
 10
392.3575964355
 20
17.6489282227
 10
392.2593127441
 20
17.6489282227
 10
392.2593127441
 20
17.8030924988
 10
392.3575964355
 20
17.6489282227
  0
LWPOLYLINE
  5
383
330
226
100
AcDbEntity
  8
0
  6
CONTINUOUS
 62
     2
100
AcDbPolyline
 90
        5
 70
     0
 43
0.0
 10
393.9300842285
 20
17.6489282227
 10
393.8318005371
 20
17.8030924988
 10
393.9300842285
 20
17.8030924988
 10
393.9300842285
 20
17.6489282227
 10
393.7335168457
 20
17.3405932617
  0
LINE
  5
384
330
226
100
AcDbEntity
  8
0
  6
CONTINUOUS
 62
     2
100
AcDbLine
 10
321.5950817871
 20
16.7239265442
 30
0.0
 11
321.5950817871
 21
16.5697590637
 31
0.0
  0
LINE
  5
385
330
226
100
AcDbEntity
  8
0
  6
CONTINUOUS
 62
     2
100
AcDbLine
 10
321.5950817871
 20
16.1072598267
 30
0.0
 11
321.5950817871
 21
14.8739263916
 31
0.0
  0
LINE
  5
386
330
226
100
AcDbEntity
  8
0
  6
CONTINUOUS
 62
     2
100
AcDbLine
 10
322.8727441406
 20
14.8739263916
 30
0.0
 11
322.8727441406
 21
16.1072598267
 31
0.0
  0
LWPOLYLINE
  5
387
330
226
100
AcDbEntity
  8
0
  6
CONTINUOUS
 62
     2
100
AcDbPolyline
 90
        5
 70
     0
 43
0.0
 10
322.8727441406
 20
15.7989280701
 10
323.0693115234
 20
16.1072598267
 10
323.2658789063
 20
16.1072598267
 10
323.4624462891
 20
15.7989280701
 10
323.4624462891
 20
14.8739263916
  0
LWPOLYLINE
  5
388
330
226
100
AcDbEntity
  8
0
  6
CONTINUOUS
 62
     2
100
AcDbPolyline
 90
       10
 70
     0
 43
0.0
 10
326.7057055664
 20
15.3364256287
 10
326.5091638184
 20
15.0280938721
 10
326.3125964355
 20
14.8739263916
 10
326.1160290527
 20
15.0280938721
 10
325.9194616699
 20
15.3364256287
 10
325.9194616699
 20
15.6447605896
 10
326.1160290527
 20
15.9530923462
 10
326.3125964355
 20
16.1072598267
 10
326.5091638184
 20
15.9530923462
 10
326.7057055664
 20
15.6447605896
  0
LINE
  5
389
330
226
100
AcDbEntity
  8
0
  6
CONTINUOUS
 62
     2
100
AcDbLine
 10
326.7057055664
 20
16.1072598267
 30
0.0
 11
326.7057055664
 21
14.8739263916
 31
0.0
  0
LWPOLYLINE
  5
38A
330
226
100
AcDbEntity
  8
0
  6
CONTINUOUS
 62
     2
100
AcDbPolyline
 90
        8
 70
     0
 43
0.0
 10
328.0816516113
 20
15.0280938721
 10
327.8850842285
 20
14.8739263916
 10
327.6885168457
 20
15.0280938721
 10
327.4919750977
 20
15.3364256287
 10
327.4919750977
 20
15.6447605896
 10
327.6885168457
 20
15.9530923462
 10
327.8850842285
 20
16.1072598267
 10
328.0816516113
 20
15.9530923462
  0
LWPOLYLINE
  5
38B
330
226
100
AcDbEntity
  8
0
  6
CONTINUOUS
 62
     2
100
AcDbPolyline
 90
        8
 70
     0
 43
0.0
 10
329.6541650391
 20
15.0280938721
 10
329.4575976563
 20
14.8739263916
 10
329.2610302734
 20
15.0280938721
 10
329.0644628906
 20
15.3364256287
 10
329.0644628906
 20
15.6447605896
 10
329.2610302734
 20
15.9530923462
 10
329.4575976563
 20
16.1072598267
 10
329.6541650391
 20
15.9530923462
  0
LWPOLYLINE
  5
38C
330
226
100
AcDbEntity
  8
0
  6
CONTINUOUS
 62
     2
100
AcDbPolyline
 90
       11
 70
     0
 43
0.0
 10
331.4232202148
 20
15.3364256287
 10
331.226652832
 20
15.0280938721
 10
331.0300854492
 20
14.8739263916
 10
330.8335180664
 20
15.0280938721
 10
330.6369763184
 20
15.3364256287
 10
330.6369763184
 20
15.6447605896
 10
330.8335180664
 20
15.9530923462
 10
331.0300854492
 20
16.1072598267
 10
331.226652832
 20
15.9530923462
 10
331.4232202148
 20
15.6447605896
 10
331.4232202148
 20
15.3364256287
  0
LINE
  5
38D
330
226
100
AcDbEntity
  8
0
  6
CONTINUOUS
 62
     2
100
AcDbLine
 10
332.3077478027
 20
14.8739263916
 30
0.0
 11
332.3077478027
 21
16.1072598267
 31
0.0
  0
LWPOLYLINE
  5
38E
330
226
100
AcDbEntity
  8
0
  6
CONTINUOUS
 62
     2
100
AcDbPolyline
 90
        4
 70
     0
 43
0.0
 10
332.3077478027
 20
15.7989280701
 10
332.5043151855
 20
16.1072598267
 10
332.7008825684
 20
16.1072598267
 10
332.799140625
 20
15.9530923462
  0
LWPOLYLINE
  5
38F
330
226
100
AcDbEntity
  8
0
  6
CONTINUOUS
 62
     2
100
AcDbPolyline
 90
       10
 70
     0
 43
0.0
 10
334.5682214355
 20
15.3364256287
 10
334.3716540527
 20
15.0280938721
 10
334.1750866699
 20
14.8739263916
 10
333.9785192871
 20
15.0280938721
 10
333.7819775391
 20
15.3364256287
 10
333.7819775391
 20
15.6447605896
 10
333.9785192871
 20
15.9530923462
 10
334.1750866699
 20
16.1072598267
 10
334.3716540527
 20
15.9530923462
 10
334.5682214355
 20
15.6447605896
  0
LINE
  5
390
330
226
100
AcDbEntity
  8
0
  6
CONTINUOUS
 62
     2
100
AcDbLine
 10
334.5682214355
 20
16.7239265442
 30
0.0
 11
334.5682214355
 21
14.8739263916
 31
0.0
  0
LWPOLYLINE
  5
391
330
226
100
AcDbEntity
  8
0
  6
CONTINUOUS
 62
     2
100
AcDbPolyline
 90
       10
 70
     0
 43
0.0
 10
336.1407092285
 20
15.3364256287
 10
335.9441418457
 20
15.0280938721
 10
335.7476000977
 20
14.8739263916
 10
335.5510327148
 20
15.0280938721
 10
335.354465332
 20
15.3364256287
 10
335.354465332
 20
15.6447605896
 10
335.5510327148
 20
15.9530923462
 10
335.7476000977
 20
16.1072598267
 10
335.9441418457
 20
15.9530923462
 10
336.1407092285
 20
15.6447605896
  0
LINE
  5
392
330
226
100
AcDbEntity
  8
0
  6
CONTINUOUS
 62
     2
100
AcDbLine
 10
336.1407092285
 20
16.1072598267
 30
0.0
 11
336.1407092285
 21
14.8739263916
 31
0.0
  0
LINE
  5
393
330
226
100
AcDbEntity
  8
0
  6
CONTINUOUS
 62
     2
100
AcDbLine
 10
337.0252368164
 20
14.8739263916
 30
0.0
 11
337.0252368164
 21
16.1072598267
 31
0.0
  0
LWPOLYLINE
  5
394
330
226
100
AcDbEntity
  8
0
  6
CONTINUOUS
 62
     2
100
AcDbPolyline
 90
        5
 70
     0
 43
0.0
 10
337.0252368164
 20
15.7989280701
 10
337.2218041992
 20
16.1072598267
 10
337.418371582
 20
16.1072598267
 10
337.6149389648
 20
15.7989280701
 10
337.6149389648
 20
14.8739263916
  0
LWPOLYLINE
  5
395
330
226
100
AcDbEntity
  8
0
  6
CONTINUOUS
 62
     2
100
AcDbPolyline
 90
        8
 70
     0
 43
0.0
 10
339.0891430664
 20
15.0280938721
 10
338.8926013184
 20
14.8739263916
 10
338.6960339355
 20
15.0280938721
 10
338.4994665527
 20
15.3364256287
 10
338.4994665527
 20
15.6447605896
 10
338.6960339355
 20
15.9530923462
 10
338.8926013184
 20
16.1072598267
 10
339.0891430664
 20
15.9530923462
  0
LWPOLYLINE
  5
396
330
226
100
AcDbEntity
  8
0
  6
CONTINUOUS
 62
     2
100
AcDbPolyline
 90
       11
 70
     0
 43
0.0
 10
340.7599401855
 20
15.1822613525
 10
340.6616564941
 20
15.0280938721
 10
340.4650891113
 20
14.8739263916
 10
340.2685217285
 20
15.0280938721
 10
340.0719543457
 20
15.3364256287
 10
340.0719543457
 20
15.6447605896
 10
340.2685217285
 20
15.9530923462
 10
340.4650891113
 20
16.1072598267
 10
340.6616564941
 20
15.9530923462
 10
340.7599401855
 20
15.6447605896
 10
340.0719543457
 20
15.6447605896
  0
LWPOLYLINE
  5
397
330
226
100
AcDbEntity
  8
0
  6
CONTINUOUS
 62
     2
100
AcDbPolyline
 90
        5
 70
     0
 43
0.0
 10
343.118671875
 20
16.1072598267
 10
343.3152392578
 20
14.8739263916
 10
343.610090332
 20
16.1072598267
 10
343.8066577148
 20
14.8739263916
 10
344.1015087891
 20
16.1072598267
  0
LINE
  5
398
330
226
100
AcDbEntity
  8
0
  6
CONTINUOUS
 62
     2
100
AcDbLine
 10
345.182578125
 20
16.7239265442
 30
0.0
 11
345.182578125
 21
16.5697590637
 31
0.0
  0
LINE
  5
399
330
226
100
AcDbEntity
  8
0
  6
CONTINUOUS
 62
     2
100
AcDbLine
 10
345.182578125
 20
16.1072598267
 30
0.0
 11
345.182578125
 21
14.8739263916
 31
0.0
  0
LINE
  5
39A
330
226
100
AcDbEntity
  8
0
  6
CONTINUOUS
 62
     2
100
AcDbLine
 10
346.7550915527
 20
14.8739263916
 30
0.0
 11
346.7550915527
 21
16.7239265442
 31
0.0
  0
LINE
  5
39B
330
226
100
AcDbEntity
  8
0
  6
CONTINUOUS
 62
     2
100
AcDbLine
 10
346.4602404785
 20
15.9530923462
 30
0.0
 11
347.049942627
 21
15.9530923462
 31
0.0
  0
LINE
  5
39C
330
226
100
AcDbEntity
  8
0
  6
CONTINUOUS
 62
     2
100
AcDbLine
 10
348.0327539062
 20
14.8739263916
 30
0.0
 11
348.0327539062
 21
16.7239265442
 31
0.0
  0
LWPOLYLINE
  5
39D
330
226
100
AcDbEntity
  8
0
  6
CONTINUOUS
 62
     2
100
AcDbPolyline
 90
        7
 70
     0
 43
0.0
 10
348.0327539062
 20
15.7989280701
 10
348.0327539062
 20
15.9530923462
 10
348.2293212891
 20
16.1072598267
 10
348.3275793457
 20
16.1072598267
 10
348.4258630371
 20
16.1072598267
 10
348.6224304199
 20
15.7989280701
 10
348.6224304199
 20
14.8739263916
  0
LINE
  5
39E
330
226
100
AcDbEntity
  8
0
  6
CONTINUOUS
 62
     2
100
AcDbLine
 10
351.4725805664
 20
14.8739263916
 30
0.0
 11
351.4725805664
 21
16.7239265442
 31
0.0
  0
LINE
  5
39F
330
226
100
AcDbEntity
  8
0
  6
CONTINUOUS
 62
     2
100
AcDbLine
 10
351.177755127
 20
15.9530923462
 30
0.0
 11
351.7674316406
 21
15.9530923462
 31
0.0
  0
LINE
  5
3A0
330
226
100
AcDbEntity
  8
0
  6
CONTINUOUS
 62
     2
100
AcDbLine
 10
352.7502429199
 20
14.8739263916
 30
0.0
 11
352.7502429199
 21
16.7239265442
 31
0.0
  0
LWPOLYLINE
  5
3A1
330
226
100
AcDbEntity
  8
0
  6
CONTINUOUS
 62
     2
100
AcDbPolyline
 90
        7
 70
     0
 43
0.0
 10
352.7502429199
 20
15.7989280701
 10
352.7502429199
 20
15.9530923462
 10
352.9468103027
 20
16.1072598267
 10
353.0450939941
 20
16.1072598267
 10
353.1433776855
 20
16.1072598267
 10
353.3399450684
 20
15.7989280701
 10
353.3399450684
 20
14.8739263916
  0
LWPOLYLINE
  5
3A2
330
226
100
AcDbEntity
  8
0
  6
CONTINUOUS
 62
     2
100
AcDbPolyline
 90
       11
 70
     0
 43
0.0
 10
354.9124328613
 20
15.1822613525
 10
354.8141491699
 20
15.0280938721
 10
354.6175817871
 20
14.8739263916
 10
354.4210400391
 20
15.0280938721
 10
354.2244726562
 20
15.3364256287
 10
354.2244726562
 20
15.6447605896
 10
354.4210400391
 20
15.9530923462
 10
354.6175817871
 20
16.1072598267
 10
354.8141491699
 20
15.9530923462
 10
354.9124328613
 20
15.6447605896
 10
354.2244726562
 20
15.6447605896
  0
LINE
  5
3A3
330
226
100
AcDbEntity
  8
0
  6
CONTINUOUS
 62
     2
100
AcDbLine
 10
357.7625830078
 20
14.8739263916
 30
0.0
 11
357.7625830078
 21
16.7239265442
 31
0.0
  0
LWPOLYLINE
  5
3A4
330
226
100
AcDbEntity
  8
0
  6
CONTINUOUS
 62
     2
100
AcDbPolyline
 90
       10
 70
     0
 43
0.0
 10
359.7282055664
 20
15.3364256287
 10
359.5316638184
 20
15.0280938721
 10
359.3350964355
 20
14.8739263916
 10
359.1385290527
 20
15.0280938721
 10
358.9419616699
 20
15.3364256287
 10
358.9419616699
 20
15.6447605896
 10
359.1385290527
 20
15.9530923462
 10
359.3350964355
 20
16.1072598267
 10
359.5316638184
 20
15.9530923462
 10
359.7282055664
 20
15.6447605896
  0
LINE
  5
3A5
330
226
100
AcDbEntity
  8
0
  6
CONTINUOUS
 62
     2
100
AcDbLine
 10
359.7282055664
 20
16.1072598267
 30
0.0
 11
359.7282055664
 21
14.8739263916
 31
0.0
  0
LWPOLYLINE
  5
3A6
330
226
100
AcDbEntity
  8
0
  6
CONTINUOUS
 62
     2
100
AcDbPolyline
 90
        5
 70
     0
 43
0.0
 10
360.4161914062
 20
16.1072598267
 10
360.6127587891
 20
14.8739263916
 10
360.9075842285
 20
16.1072598267
 10
361.1041516113
 20
14.8739263916
 10
361.3990026855
 20
16.1072598267
  0
LINE
  5
3A7
330
226
100
AcDbEntity
  8
0
  6
CONTINUOUS
 62
     2
100
AcDbLine
 10
364.0525854492
 20
16.7239265442
 30
0.0
 11
364.0525854492
 21
16.5697590637
 31
0.0
  0
LINE
  5
3A8
330
226
100
AcDbEntity
  8
0
  6
CONTINUOUS
 62
     2
100
AcDbLine
 10
364.0525854492
 20
16.1072598267
 30
0.0
 11
364.0525854492
 21
14.8739263916
 31
0.0
  0
LINE
  5
3A9
330
226
100
AcDbEntity
  8
0
  6
CONTINUOUS
 62
     2
100
AcDbLine
 10
365.3302478027
 20
14.8739263916
 30
0.0
 11
365.3302478027
 21
16.1072598267
 31
0.0
  0
LWPOLYLINE
  5
3AA
330
226
100
AcDbEntity
  8
0
  6
CONTINUOUS
 62
     2
100
AcDbPolyline
 90
        5
 70
     0
 43
0.0
 10
365.3302478027
 20
15.7989280701
 10
365.5268151855
 20
16.1072598267
 10
365.7233825684
 20
16.1072598267
 10
365.9199243164
 20
15.7989280701
 10
365.9199243164
 20
14.8739263916
  0
LWPOLYLINE
  5
3AB
330
226
100
AcDbEntity
  8
0
  6
CONTINUOUS
 62
     2
100
AcDbPolyline
 90
        5
 70
     0
 43
0.0
 10
368.7701000977
 20
14.8739263916
 10
368.7701000977
 20
16.4155947876
 10
368.9666418457
 20
16.7239265442
 10
369.0649255371
 20
16.7239265442
 10
369.1632092285
 20
16.5697590637
  0
LINE
  5
3AC
330
226
100
AcDbEntity
  8
0
  6
CONTINUOUS
 62
     2
100
AcDbLine
 10
368.5735327148
 20
15.9530923462
 30
0.0
 11
368.9666418457
 21
15.9530923462
 31
0.0
  0
LWPOLYLINE
  5
3AD
330
226
100
AcDbEntity
  8
0
  6
CONTINUOUS
 62
     2
100
AcDbPolyline
 90
       11
 70
     0
 43
0.0
 10
370.7357226563
 20
15.3364256287
 10
370.5391552734
 20
15.0280938721
 10
370.3425878906
 20
14.8739263916
 10
370.1460205078
 20
15.0280938721
 10
369.949453125
 20
15.3364256287
 10
369.949453125
 20
15.6447605896
 10
370.1460205078
 20
15.9530923462
 10
370.3425878906
 20
16.1072598267
 10
370.5391552734
 20
15.9530923462
 10
370.7357226563
 20
15.6447605896
 10
370.7357226563
 20
15.3364256287
  0
LINE
  5
3AE
330
226
100
AcDbEntity
  8
0
  6
CONTINUOUS
 62
     2
100
AcDbLine
 10
371.6202502441
 20
14.8739263916
 30
0.0
 11
371.6202502441
 21
16.1072598267
 31
0.0
  0
LWPOLYLINE
  5
3AF
330
226
100
AcDbEntity
  8
0
  6
CONTINUOUS
 62
     2
100
AcDbPolyline
 90
        4
 70
     0
 43
0.0
 10
371.6202502441
 20
15.7989280701
 10
371.816817627
 20
16.1072598267
 10
372.013359375
 20
16.1072598267
 10
372.1116430664
 20
15.9530923462
  0
LWPOLYLINE
  5
3B0
330
226
100
AcDbEntity
  8
0
  6
CONTINUOUS
 62
     2
100
AcDbPolyline
 90
        8
 70
     0
 43
0.0
 10
373.6841564941
 20
15.0280938721
 10
373.4875891113
 20
14.8739263916
 10
373.2910217285
 20
15.0280938721
 10
373.0944543457
 20
15.3364256287
 10
373.0944543457
 20
15.6447605896
 10
373.2910217285
 20
15.9530923462
 10
373.4875891113
 20
16.1072598267
 10
373.6841564941
 20
15.9530923462
  0
LWPOLYLINE
  5
3B1
330
226
100
AcDbEntity
  8
0
  6
CONTINUOUS
 62
     2
100
AcDbPolyline
 90
       11
 70
     0
 43
0.0
 10
375.3549279785
 20
15.1822613525
 10
375.2566442871
 20
15.0280938721
 10
375.0601025391
 20
14.8739263916
 10
374.8635351563
 20
15.0280938721
 10
374.6669677734
 20
15.3364256287
 10
374.6669677734
 20
15.6447605896
 10
374.8635351563
 20
15.9530923462
 10
375.0601025391
 20
16.1072598267
 10
375.2566442871
 20
15.9530923462
 10
375.3549279785
 20
15.6447605896
 10
374.6669677734
 20
15.6447605896
  0
LWPOLYLINE
  5
3B2
330
226
100
AcDbEntity
  8
0
  6
CONTINUOUS
 62
     2
100
AcDbPolyline
 90
        4
 70
     0
 43
0.0
 10
376.632590332
 20
14.8739263916
 10
376.5343066406
 20
14.8739263916
 10
376.5343066406
 20
15.0280938721
 10
376.632590332
 20
14.8739263916
  0
LWPOLYLINE
  5
3B3
330
226
100
AcDbEntity
  8
0
  6
CONTINUOUS
 62
     2
100
AcDbPolyline
 90
        3
 70
     0
 43
0.0
 10
321.1036889648
 20
12.0989277649
 10
321.5950817871
 20
13.9489279175
 10
322.0865002441
 20
12.0989277649
  0
LINE
  5
3B4
330
226
100
AcDbEntity
  8
0
  6
CONTINUOUS
 62
     2
100
AcDbLine
 10
321.3002563477
 20
12.7155944824
 30
0.0
 11
321.8899328613
 21
12.7155944824
 31
0.0
  0
LINE
  5
3B5
330
226
100
AcDbEntity
  8
0
  6
CONTINUOUS
 62
     2
100
AcDbLine
 10
323.1675952148
 20
12.0989277649
 30
0.0
 11
323.1675952148
 21
13.9489279175
 31
0.0
  0
LINE
  5
3B6
330
226
100
AcDbEntity
  8
0
  6
CONTINUOUS
 62
     2
100
AcDbLine
 10
324.7400830078
 20
12.0989277649
 30
0.0
 11
324.7400830078
 21
13.9489279175
 31
0.0
  0
LINE
  5
3B7
330
226
100
AcDbEntity
  8
0
  6
CONTINUOUS
 62
     2
100
AcDbLine
 10
327.5902587891
 20
12.0989277649
 30
0.0
 11
327.5902587891
 21
13.3322612
 31
0.0
  0
LWPOLYLINE
  5
3B8
330
226
100
AcDbEntity
  8
0
  6
CONTINUOUS
 62
     2
100
AcDbPolyline
 90
        4
 70
     0
 43
0.0
 10
327.5902587891
 20
13.023926239
 10
327.7868005371
 20
13.3322612
 10
327.9833679199
 20
13.3322612
 10
328.0816516113
 20
13.1780937195
  0
LINE
  5
3B9
330
226
100
AcDbEntity
  8
0
  6
CONTINUOUS
 62
     2
100
AcDbLine
 10
329.4575976563
 20
13.9489279175
 30
0.0
 11
329.4575976563
 21
13.794760437
 31
0.0
  0
LINE
  5
3BA
330
226
100
AcDbEntity
  8
0
  6
CONTINUOUS
 62
     2
100
AcDbLine
 10
329.4575976563
 20
13.3322612
 30
0.0
 11
329.4575976563
 21
12.0989277649
 31
0.0
  0
LWPOLYLINE
  5
3BB
330
226
100
AcDbEntity
  8
0
  6
CONTINUOUS
 62
     2
100
AcDbPolyline
 90
       10
 70
     0
 43
0.0
 10
331.4232202148
 20
12.561427002
 10
331.226652832
 20
12.2530952454
 10
331.0300854492
 20
12.0989277649
 10
330.8335180664
 20
12.2530952454
 10
330.6369763184
 20
12.561427002
 10
330.6369763184
 20
12.8697619629
 10
330.8335180664
 20
13.1780937195
 10
331.0300854492
 20
13.3322612
 10
331.226652832
 20
13.1780937195
 10
331.4232202148
 20
12.8697619629
  0
LWPOLYLINE
  5
3BC
330
226
100
AcDbEntity
  8
0
  6
CONTINUOUS
 62
     2
100
AcDbPolyline
 90
        6
 70
     0
 43
0.0
 10
331.4232202148
 20
13.3322612
 10
331.4232202148
 20
11.9447602844
 10
331.3249365234
 20
11.6364285278
 10
331.226652832
 20
11.4822610474
 10
330.8335180664
 20
11.4822610474
 10
330.735234375
 20
11.6364285278
  0
LINE
  5
3BD
330
226
100
AcDbEntity
  8
0
  6
CONTINUOUS
 62
     2
100
AcDbLine
 10
332.3077478027
 20
12.0989277649
 30
0.0
 11
332.3077478027
 21
13.9489279175
 31
0.0
  0
LWPOLYLINE
  5
3BE
330
226
100
AcDbEntity
  8
0
  6
CONTINUOUS
 62
     2
100
AcDbPolyline
 90
        7
 70
     0
 43
0.0
 10
332.3077478027
 20
13.023926239
 10
332.3077478027
 20
13.1780937195
 10
332.5043151855
 20
13.3322612
 10
332.602598877
 20
13.3322612
 10
332.7008825684
 20
13.3322612
 10
332.8974243164
 20
13.023926239
 10
332.8974243164
 20
12.0989277649
  0
LINE
  5
3BF
330
226
100
AcDbEntity
  8
0
  6
CONTINUOUS
 62
     2
100
AcDbLine
 10
334.1750866699
 20
12.0989277649
 30
0.0
 11
334.1750866699
 21
13.9489279175
 31
0.0
  0
LINE
  5
3C0
330
226
100
AcDbEntity
  8
0
  6
CONTINUOUS
 62
     2
100
AcDbLine
 10
333.8802355957
 20
13.1780937195
 30
0.0
 11
334.4699377441
 21
13.1780937195
 31
0.0
  0
LWPOLYLINE
  5
3C1
330
226
100
AcDbEntity
  8
0
  6
CONTINUOUS
 62
     2
100
AcDbPolyline
 90
       14
 70
     0
 43
0.0
 10
335.9441418457
 20
13.1780937195
 10
335.8458837891
 20
13.3322612
 10
335.6493164062
 20
13.3322612
 10
335.5510327148
 20
13.1780937195
 10
335.5510327148
 20
13.023926239
 10
335.7476000977
 20
12.8697619629
 10
335.9441418457
 20
12.7155944824
 10
336.0424255371
 20
12.561427002
 10
336.0424255371
 20
12.4072595215
 10
335.9441418457
 20
12.2530952454
 10
335.8458837891
 20
12.0989277649
 10
335.6493164062
 20
12.0989277649
 10
335.5510327148
 20
12.2530952454
 10
335.4527490234
 20
12.4072595215
  0
LINE
  5
3C2
330
226
100
AcDbEntity
  8
0
  6
CONTINUOUS
 62
     2
100
AcDbLine
 10
338.5977502441
 20
12.0989277649
 30
0.0
 11
338.5977502441
 21
13.3322612
 31
0.0
  0
LWPOLYLINE
  5
3C3
330
226
100
AcDbEntity
  8
0
  6
CONTINUOUS
 62
     2
100
AcDbPolyline
 90
        4
 70
     0
 43
0.0
 10
338.5977502441
 20
13.023926239
 10
338.794317627
 20
13.3322612
 10
338.990859375
 20
13.3322612
 10
339.0891430664
 20
13.1780937195
  0
LWPOLYLINE
  5
3C4
330
226
100
AcDbEntity
  8
0
  6
CONTINUOUS
 62
     2
100
AcDbPolyline
 90
       11
 70
     0
 43
0.0
 10
340.7599401855
 20
12.4072595215
 10
340.6616564941
 20
12.2530952454
 10
340.4650891113
 20
12.0989277649
 10
340.2685217285
 20
12.2530952454
 10
340.0719543457
 20
12.561427002
 10
340.0719543457
 20
12.8697619629
 10
340.2685217285
 20
13.1780937195
 10
340.4650891113
 20
13.3322612
 10
340.6616564941
 20
13.1780937195
 10
340.7599401855
 20
12.8697619629
 10
340.0719543457
 20
12.8697619629
  0
LWPOLYLINE
  5
3C5
330
226
100
AcDbEntity
  8
0
  6
CONTINUOUS
 62
     2
100
AcDbPolyline
 90
       14
 70
     0
 43
0.0
 10
342.2341442871
 20
13.1780937195
 10
342.1358605957
 20
13.3322612
 10
341.9393188477
 20
13.3322612
 10
341.8410351562
 20
13.1780937195
 10
341.8410351562
 20
13.023926239
 10
342.0376025391
 20
12.8697619629
 10
342.2341442871
 20
12.7155944824
 10
342.3324279785
 20
12.561427002
 10
342.3324279785
 20
12.4072595215
 10
342.2341442871
 20
12.2530952454
 10
342.1358605957
 20
12.0989277649
 10
341.9393188477
 20
12.0989277649
 10
341.8410351562
 20
12.2530952454
 10
341.7427514648
 20
12.4072595215
  0
LWPOLYLINE
  5
3C6
330
226
100
AcDbEntity
  8
0
  6
CONTINUOUS
 62
     2
100
AcDbPolyline
 90
       11
 70
     0
 43
0.0
 10
343.9049414062
 20
12.4072595215
 10
343.8066577148
 20
12.2530952454
 10
343.610090332
 20
12.0989277649
 10
343.4135229492
 20
12.2530952454
 10
343.2169555664
 20
12.561427002
 10
343.2169555664
 20
12.8697619629
 10
343.4135229492
 20
13.1780937195
 10
343.610090332
 20
13.3322612
 10
343.8066577148
 20
13.1780937195
 10
343.9049414062
 20
12.8697619629
 10
343.2169555664
 20
12.8697619629
  0
LINE
  5
3C7
330
226
100
AcDbEntity
  8
0
  6
CONTINUOUS
 62
     2
100
AcDbLine
 10
344.8877526855
 20
12.0989277649
 30
0.0
 11
344.8877526855
 21
13.3322612
 31
0.0
  0
LWPOLYLINE
  5
3C8
330
226
100
AcDbEntity
  8
0
  6
CONTINUOUS
 62
     2
100
AcDbPolyline
 90
        4
 70
     0
 43
0.0
 10
344.8877526855
 20
13.023926239
 10
345.0843200684
 20
13.3322612
 10
345.2808618164
 20
13.3322612
 10
345.3791455078
 20
13.1780937195
  0
LWPOLYLINE
  5
3C9
330
226
100
AcDbEntity
  8
0
  6
CONTINUOUS
 62
     2
100
AcDbPolyline
 90
        3
 70
     0
 43
0.0
 10
346.4602404785
 20
13.3322612
 10
346.7550915527
 20
12.0989277649
 10
347.049942627
 20
13.3322612
  0
LWPOLYLINE
  5
3CA
330
226
100
AcDbEntity
  8
0
  6
CONTINUOUS
 62
     2
100
AcDbPolyline
 90
       11
 70
     0
 43
0.0
 10
348.6224304199
 20
12.4072595215
 10
348.5241467285
 20
12.2530952454
 10
348.3275793457
 20
12.0989277649
 10
348.1310375977
 20
12.2530952454
 10
347.9344702148
 20
12.561427002
 10
347.9344702148
 20
12.8697619629
 10
348.1310375977
 20
13.1780937195
 10
348.3275793457
 20
13.3322612
 10
348.5241467285
 20
13.1780937195
 10
348.6224304199
 20
12.8697619629
 10
347.9344702148
 20
12.8697619629
  0
LWPOLYLINE
  5
3CB
330
226
100
AcDbEntity
  8
0
  6
CONTINUOUS
 62
     2
100
AcDbPolyline
 90
       10
 70
     0
 43
0.0
 10
350.2932275391
 20
12.561427002
 10
350.0966601562
 20
12.2530952454
 10
349.9000927734
 20
12.0989277649
 10
349.7035253906
 20
12.2530952454
 10
349.5069580078
 20
12.561427002
 10
349.5069580078
 20
12.8697619629
 10
349.7035253906
 20
13.1780937195
 10
349.9000927734
 20
13.3322612
 10
350.0966601562
 20
13.1780937195
 10
350.2932275391
 20
12.8697619629
  0
LINE
  5
3CC
330
226
100
AcDbEntity
  8
0
  6
CONTINUOUS
 62
     2
100
AcDbLine
 10
350.2932275391
 20
13.9489279175
 30
0.0
 11
350.2932275391
 21
12.0989277649
 31
0.0
  0
LWPOLYLINE
  5
3CD
330
226
100
AcDbEntity
  8
0
  6
CONTINUOUS
 62
     2
100
AcDbPolyline
 90
        4
 70
     0
 43
0.0
 10
351.4725805664
 20
12.0989277649
 10
351.374296875
 20
12.0989277649
 10
351.374296875
 20
12.2530952454
 10
351.4725805664
 20
12.0989277649
  0
INSERT
  5
3CE
330
226
100
AcDbEntity
  8
0
  6
CONTINUOUS
 62
     2
100
AcDbBlockReference
  2
*T7
 10
319.3213399098
 20
51.0239270671
 30
0.0
  0
LINE
  5
3CF
102
{ACAD_REACTORS
102
}
330
226
100
AcDbEntity
  8
0
  6
CONTINUOUS
 62
     7
100
AcDbLine
 10
0.0
 20
0.0
 30
0.0
 11
0.0
 21
597.0
 31
0.0
  0
LWPOLYLINE
  5
3D0
330
226
100
AcDbEntity
  8
0
  6
CONTINUOUS
 62
     7
100
AcDbPolyline
 90
        2
 70
     0
 43
0.1000000003
 10
7.0536312849
 20
0.0
 10
7.0536312849
 20
590.0
  0
LWPOLYLINE
  5
3D1
330
226
100
AcDbEntity
  8
0
  6
CONTINUOUS
 62
     7
100
AcDbPolyline
 90
        2
 70
     0
 43
0.4999999952
 10
10.0536312849
 20
10.0318435754
 10
10.0536312849
 20
587.0
  0
LWPOLYLINE
  5
3D2
330
226
100
AcDbEntity
  8
0
  6
CONTINUOUS
 62
     2
100
AcDbPolyline
 90
        5
 70
     0
 43
0.0
 10
2.7895792007
 20
251.8807543945
 10
3.2657698059
 20
252.1664538574
 10
3.2657698059
 20
253.0236035156
 10
2.7895792007
 20
253.5950280762
 10
1.6467220688
 20
253.5950280762
  0
LINE
  5
3D3
102
{ACAD_REACTORS
102
}
330
226
100
AcDbEntity
  8
0
  6
CONTINUOUS
 62
     7
100
AcDbLine
 10
0.0
 20
0.0
 30
0.0
 11
420.0
 21
0.0
 31
0.0
  0
LINE
  5
3D4
330
226
100
AcDbEntity
  8
0
  6
CONTINUOUS
 62
     2
100
AcDbLine
 10
363.2799023437
 20
2.6920935059
 30
0.0
 11
364.6298803711
 21
2.6920935059
 31
0.0
  0
LINE
  5
3D5
330
226
100
AcDbEntity
  8
0
  6
CONTINUOUS
 62
     2
100
AcDbLine
 10
262.8298937988
 20
3.6920928955
 30
0.0
 11
264.4048937988
 21
3.6920928955
 31
0.0
  0
LWPOLYLINE
  5
3D6
330
226
100
AcDbEntity
  8
0
  6
CONTINUOUS
 62
     2
100
AcDbPolyline
 90
       12
 70
     0
 43
0.0
 10
56.6978659058
 20
5.535344696
 10
57.5978704834
 20
5.535344696
 10
58.0478695679
 20
5.2020094299
 10
58.2728659058
 20
4.8686773682
 10
58.4978686523
 20
4.5353453064
 10
58.7228713989
 20
3.5353427124
 10
58.4978686523
 20
2.5353433228
 10
58.2728659058
 20
2.202011261
 10
58.0478695679
 20
1.8686759949
 10
57.5978704834
 20
1.5353439331
 10
56.6978659058
 20
1.5353439331
 10
56.6978659058
 20
5.535344696
  0
LWPOLYLINE
  5
3D7
330
226
100
AcDbEntity
  8
0
  6
CONTINUOUS
 62
     7
100
AcDbPolyline
 90
        2
 70
     0
 43
0.1000000003
 10
0.0
 20
7.0318435754
 10
420.0
 20
7.0318435754
  0
LWPOLYLINE
  5
3D8
330
226
100
AcDbEntity
  8
0
  6
CONTINUOUS
 62
     7
100
AcDbPolyline
 90
        2
 70
     0
 43
0.4999999952
 10
10.0536312849
 20
10.0318435754
 10
410.0
 20
10.0318435754
  0
LWPOLYLINE
  5
3D9
330
226
100
AcDbEntity
  8
0
  6
CONTINUOUS
 62
     2
100
AcDbPolyline
 90
       15
 70
     0
 43
0.0
 10
164.8548962402
 20
592.0254382324
 10
164.629887085
 20
591.6920837402
 10
164.1798944092
 20
591.3587548828
 10
163.729888916
 20
591.3587548828
 10
163.2798962402
 20
591.6920837402
 10
163.054887085
 20
592.0254382324
 10
162.8298907471
 20
592.3587670898
 10
162.6048944092
 20
593.3587536621001
 10
162.8298907471
 20
594.3587658691
 10
163.054887085
 20
594.6920947266
 10
163.2798962402
 20
595.025423584
 10
163.729888916
 20
595.3587524413999
 10
164.1798944092
 20
595.3587524413999
 10
164.629887085
 20
595.025423584
 10
164.8548962402
 20
594.6920947266
  0
LINE
  5
3DA
330
226
100
AcDbEntity
  8
0
  6
CONTINUOUS
 62
     7
100
AcDbLine
 10
113.0
 20
597.0
 30
0.0
 11
113.0
 21
590.0
 31
0.0
  0
LINE
  5
3DB
330
226
100
AcDbEntity
  8
0
  6
CONTINUOUS
 62
     7
100
AcDbLine
 10
113.0
 20
7.0
 30
0.0
 11
113.0
 21
0.0
 31
0.0
  0
LWPOLYLINE
  5
3DC
330
226
100
AcDbEntity
  8
0
  6
CONTINUOUS
 62
     7
100
AcDbPolyline
 90
        2
 70
     0
 43
0.1000000003
 10
123.0
 20
10.0
 10
123.0
 20
0.0
  0
LWPOLYLINE
  5
3DD
330
226
100
AcDbEntity
  8
0
  6
CONTINUOUS
 62
     7
100
AcDbPolyline
 90
        2
 70
     0
 43
0.1000000003
 10
123.0
 20
587.0
 10
123.0
 20
597.0
  0
LWPOLYLINE
  5
3DE
330
226
100
AcDbEntity
  8
0
  6
CONTINUOUS
 62
     2
100
AcDbPolyline
 90
        3
 70
     0
 43
0.0
 10
1.6467220688
 20
52.4521728516
 10
2.7895792007
 20
53.5950283813
 10
2.7895792007
 20
49.5950244141
  0
LINE
  5
3DF
330
226
100
AcDbEntity
  8
0
  6
CONTINUOUS
 62
     7
100
AcDbLine
 10
0.0
 20
99.9681564246
 30
0.0
 11
7.0
 21
99.9681564246
 31
0.0
  0
LWPOLYLINE
  5
3E0
330
226
100
AcDbEntity
  8
0
  6
CONTINUOUS
 62
     2
100
AcDbPolyline
 90
        9
 70
     0
 43
0.0
 10
56.2378820801
 20
595.2461645508
 10
56.6878811646
 20
594.5794812012
 10
56.9128839111
 20
593.5794946289
 10
56.6878811646
 20
592.5794824219
 10
56.4628848267
 20
592.2461535645
 10
56.2378820801
 20
591.912824707
 10
55.7878829956
 20
591.5794958496
 10
54.8878848267
 20
591.5794958496
 10
54.8878848267
 20
595.5794934082
  0
LINE
  5
3E1
330
226
100
AcDbEntity
  8
0
  6
CONTINUOUS
 62
     7
100
AcDbLine
 10
413.0
 20
107.0
 30
0.0
 11
420.0
 21
107.0
 31
0.0
  0
LWPOLYLINE
  5
3E2
330
226
100
AcDbEntity
  8
0
  6
CONTINUOUS
 62
     7
100
AcDbPolyline
 90
        2
 70
     0
 43
0.1000000003
 10
210.0
 20
10.0
 10
210.0
 20
0.0
  0
LWPOLYLINE
  5
3E3
330
226
100
AcDbEntity
  8
0
  6
CONTINUOUS
 62
     7
100
AcDbPolyline
 90
        2
 70
     0
 43
0.1000000003
 10
210.0
 20
587.0
 10
210.0
 20
597.0
  0
LWPOLYLINE
  5
3E4
330
226
100
AcDbEntity
  8
0
  6
CONTINUOUS
 62
     7
100
AcDbPolyline
 90
        2
 70
     0
 43
0.1000000003
 10
10.0
 20
148.5
 10
0.0
 20
148.5
  0
LWPOLYLINE
  5
3E5
330
226
100
AcDbEntity
  8
0
  6
CONTINUOUS
 62
     7
100
AcDbPolyline
 90
        2
 70
     0
 43
0.1000000003
 10
410.0
 20
148.5
 10
420.0
 20
148.5
  0
LWPOLYLINE
  5
3E6
330
226
100
AcDbEntity
  8
0
  6
CONTINUOUS
 62
     2
100
AcDbPolyline
 90
        7
 70
     0
 43
0.0
 10
3.6467220497
 20
149.5950274658
 10
1.6467220688
 20
149.5950274658
 10
3.6467220497
 20
152.4521759033
 10
3.6467220497
 20
153.0236004639
 10
3.0752934837
 20
153.5950250244
 10
2.2181506348
 20
153.5950250244
 10
1.6467220688
 20
152.7378881836
  0
LWPOLYLINE
  5
3E7
330
226
100
AcDbEntity
  8
0
  6
CONTINUOUS
 62
     2
100
AcDbPolyline
 90
        5
 70
     0
 43
0.0
 10
415.7895666504
 20
258.9125756836
 10
416.2657580566
 20
259.1983007812
 10
416.2657580566
 20
260.0554504395
 10
415.7895666504
 20
260.626875
 10
414.6467175293
 20
260.626875
  0
LWPOLYLINE
  5
3E8
330
226
100
AcDbEntity
  8
0
  6
CONTINUOUS
 62
     2
100
AcDbPolyline
 90
        7
 70
     0
 43
0.0
 10
416.6467163086
 20
156.6268743896
 10
414.6467175293
 20
156.6268743896
 10
416.6467163086
 20
159.4840100098
 10
416.6467163086
 20
160.0554473877
 10
416.075291748
 20
160.6268719482
 10
415.2181420898
 20
160.6268719482
 10
414.6467175293
 20
159.76972229
  0
LWPOLYLINE
  5
3E9
330
226
100
AcDbEntity
  8
0
  6
CONTINUOUS
 62
     2
100
AcDbPolyline
 90
       15
 70
     0
 43
0.0
 10
164.8548962402
 20
2.025426178
 10
164.629887085
 20
1.6920941162
 10
164.1798944092
 20
1.3587588501
 10
163.729888916
 20
1.3587588501
 10
163.2798962402
 20
1.6920941162
 10
163.054887085
 20
2.025426178
 10
162.8298907471
 20
2.3587614441
 10
162.6048944092
 20
3.3587608337
 10
162.8298907471
 20
4.3587602234
 10
163.054887085
 20
4.6920922852
 10
163.2798962402
 20
5.0254275513
 10
163.729888916
 20
5.358759613
 10
164.1798944092
 20
5.358759613
 10
164.629887085
 20
5.0254275513
 10
164.8548962402
 20
4.6920922852
  0
LWPOLYLINE
  5
3EA
330
226
100
AcDbEntity
  8
0
  6
CONTINUOUS
 62
     2
100
AcDbPolyline
 90
        6
 70
     0
 43
0.0
 10
262.8298937988
 20
595.3587524413999
 10
262.8298937988
 20
591.3587548828
 10
264.4048937988
 20
591.3587548828
 10
264.6298901367
 20
591.6920837402
 10
264.8548864746
 20
592.0254382324
 10
264.8548864746
 20
593.0254248046999
  0
LWPOLYLINE
  5
3EB
330
226
100
AcDbEntity
  8
0
  6
CONTINUOUS
 62
     2
100
AcDbPolyline
 90
       12
 70
     0
 43
0.0
 10
262.8298937988
 20
5.358759613
 10
262.8298937988
 20
1.3587588501
 10
264.4048937988
 20
1.3587588501
 10
264.6298901367
 20
1.6920941162
 10
264.8548864746
 20
2.025426178
 10
264.8548864746
 20
3.0254255676
 10
264.6298901367
 20
3.3587608337
 10
264.4048937988
 20
3.6920928955
 10
264.6298901367
 20
4.0254281616
 10
264.6298901367
 20
5.0254275513
 10
264.4048937988
 20
5.358759613
 10
262.8298937988
 20
5.358759613
  0
LINE
  5
3EC
330
226
100
AcDbEntity
  8
0
  6
CONTINUOUS
 62
     7
100
AcDbLine
 10
0.0
 20
199.9681564246
 30
0.0
 11
7.0
 21
199.9681564246
 31
0.0
  0
LWPOLYLINE
  5
3ED
330
226
100
AcDbEntity
  8
0
  6
CONTINUOUS
 62
     7
100
AcDbPolyline
 90
        2
 70
     0
 43
0.1000000003
 10
10.0
 20
202.9681564246
 10
0.0
 20
202.9681564246
  0
LWPOLYLINE
  5
3EE
330
226
100
AcDbEntity
  8
0
  6
CONTINUOUS
 62
     7
100
AcDbPolyline
 90
        2
 70
     0
 43
0.1000000003
 10
410.0
 20
210.0
 10
420.0
 20
210.0
  0
LINE
  5
3EF
330
226
100
AcDbEntity
  8
0
  6
CONTINUOUS
 62
     7
100
AcDbLine
 10
313.0
 20
597.0
 30
0.0
 11
313.0
 21
590.0
 31
0.0
  0
LINE
  5
3F0
330
226
100
AcDbEntity
  8
0
  6
CONTINUOUS
 62
     7
100
AcDbLine
 10
313.0
 20
7.0
 30
0.0
 11
313.0
 21
0.0
 31
0.0
  0
LWPOLYLINE
  5
3F1
330
226
100
AcDbEntity
  8
0
  6
CONTINUOUS
 62
     2
100
AcDbPolyline
 90
        6
 70
     0
 43
0.0
 10
1.6467220688
 20
249.5950305176
 10
3.0752934837
 20
249.5950305176
 10
3.3610077667
 20
249.8807299805
 10
3.3610077667
 20
251.3093041992
 10
2.7895792007
 20
251.8807543945
 10
2.2181506348
 20
251.8807543945
  0
LWPOLYLINE
  5
3F2
330
226
100
AcDbEntity
  8
0
  6
CONTINUOUS
 62
     2
100
AcDbPolyline
 90
        3
 70
     0
 43
0.0
 10
362.8298840332
 20
591.3587548828
 10
363.9548913574
 20
595.3587524413999
 10
365.0798986816
 20
591.3587548828
  0
LWPOLYLINE
  5
3F3
330
226
100
AcDbEntity
  8
0
  6
CONTINUOUS
 62
     2
100
AcDbPolyline
 90
        6
 70
     0
 43
0.0
 10
414.6467175293
 20
256.6268774414
 10
416.075291748
 20
256.6268774414
 10
416.3610168457
 20
256.9125769043
 10
416.3610168457
 20
258.341151123
 10
415.7895666504
 20
258.9125756836
 10
415.2181420898
 20
258.9125756836
  0
LWPOLYLINE
  5
3F4
330
226
100
AcDbEntity
  8
0
  6
CONTINUOUS
 62
     2
100
AcDbPolyline
 90
        6
 70
     0
 43
0.0
 10
264.8548864746
 20
593.0254248046999
 10
264.4048937988
 20
593.6920825195
 10
264.6298901367
 20
594.0254370117
 10
264.6298901367
 20
595.025423584
 10
264.4048937988
 20
595.3587524413999
 10
262.8298937988
 20
595.3587524413999
  0
LWPOLYLINE
  5
3F5
330
226
100
AcDbEntity
  8
0
  6
CONTINUOUS
 62
     7
100
AcDbPolyline
 90
        2
 70
     0
 43
0.4999999952
 10
10.0536312849
 20
587.0
 10
410.0
 20
587.0
  0
LWPOLYLINE
  5
3F6
330
226
100
AcDbEntity
  8
0
  6
CONTINUOUS
 62
     7
100
AcDbPolyline
 90
        2
 70
     0
 43
0.1000000003
 10
0.0
 20
590.0
 10
420.0
 20
590.0
  0
LINE
  5
3F7
330
226
100
AcDbEntity
  8
0
  6
CONTINUOUS
 62
     2
100
AcDbLine
 10
363.2799023437
 20
592.6920959473
 30
0.0
 11
364.6298803711
 21
592.6920959473
 31
0.0
  0
LINE
  5
3F8
330
226
100
AcDbEntity
  8
0
  6
CONTINUOUS
 62
     2
100
AcDbLine
 10
262.8298937988
 20
593.6920825195
 30
0.0
 11
264.4048937988
 21
593.6920825195
 31
0.0
  0
LWPOLYLINE
  5
3F9
330
226
100
AcDbEntity
  8
0
  6
CONTINUOUS
 62
     2
100
AcDbPolyline
 90
        3
 70
     0
 43
0.0
 10
54.8878848267
 20
595.5794934082
 10
55.7878829956
 20
595.5794934082
 10
56.2378820801
 20
595.2461645508
  0
LINE
  5
3FA
102
{ACAD_REACTORS
102
}
330
226
100
AcDbEntity
  8
0
  6
CONTINUOUS
 62
     7
100
AcDbLine
 10
0.0
 20
597.0
 30
0.0
 11
420.0
 21
597.0
 31
0.0
  0
LWPOLYLINE
  5
3FB
330
226
100
AcDbEntity
  8
0
  6
CONTINUOUS
 62
     2
100
AcDbPolyline
 90
        3
 70
     0
 43
0.0
 10
362.8298840332
 20
1.3587588501
 10
363.9548913574
 20
5.358759613
 10
365.0798986816
 20
1.3587588501
  0
LWPOLYLINE
  5
3FC
330
226
100
AcDbEntity
  8
0
  6
CONTINUOUS
 62
     7
100
AcDbPolyline
 90
        2
 70
     0
 43
0.4999999952
 10
410.0
 20
10.0318435754
 10
410.0
 20
587.0
  0
LWPOLYLINE
  5
3FD
330
226
100
AcDbEntity
  8
0
  6
CONTINUOUS
 62
     7
100
AcDbPolyline
 90
        2
 70
     0
 43
0.1000000003
 10
413.0
 20
0.0
 10
413.0
 20
590.0
  0
LINE
  5
3FE
330
226
100
AcDbEntity
  8
0
  6
CONTINUOUS
 62
     7
100
AcDbLine
 10
420.0
 20
0.0
 30
0.0
 11
420.0
 21
597.0
 31
0.0
  0
LWPOLYLINE
  5
3FF
330
226
100
AcDbEntity
  8
0
  6
CONTINUOUS
 62
     2
100
AcDbPolyline
 90
        3
 70
     0
 43
0.0
 10
414.6467175293
 20
59.4840133667
 10
415.7895666504
 20
60.6268688965
 10
415.7895666504
 20
56.6268713379
  0
LINE
  5
400
330
226
100
AcDbEntity
  8
7_ALL_FEATURES
  6
CONTINUOUS
 62
     7
100
AcDbLine
 10
33.1821145587
 20
166.56492741495
 30
0.0
 11
31.1821145587
 21
164.56492741495
 31
0.0
  0
LINE
  5
401
330
226
100
AcDbEntity
  8
7_ALL_FEATURES
  6
CONTINUOUS
 62
     7
100
AcDbLine
 10
31.1821145587
 20
63.56492741495001
 30
0.0
 11
33.1821145587
 21
61.56492741495001
 31
0.0
  0
LWPOLYLINE
  5
402
330
226
100
AcDbEntity
  8
0
  6
CONTINUOUS
 62
     2
100
AcDbPolyline
 90
        8
 70
     0
 43
0.3000000072
 10
120.6106893963
 20
23.06492800575001
 10
122.3249758955
 20
23.06492800575001
 10
123.1821127363
 20
23.92206484655
 10
123.1821127363
 20
25.63635134555
 10
122.3249758955
 20
26.49350100375
 10
120.6106893963
 20
26.49350100375
 10
120.6106893963
 20
29.06492434355
 10
123.1821127363
 20
29.06492434355
  0
LINE
  5
403
330
226
100
AcDbEntity
  8
7_ALL_FEATURES
  6
CONTINUOUS
 62
     7
100
AcDbLine
 10
31.1821145587
 20
164.56492741495
 30
0.0
 11
31.1821145587
 21
63.56492741495001
 31
0.0
  0
LINE
  5
404
330
226
100
AcDbEntity
  8
06___PRT_ALL_SURFS
  6
CONTINUOUS
 62
     7
100
AcDbLine
 10
33.6821145587
 20
163.06492741495
 30
0.0
 11
33.6821145587
 21
65.06492741495
 31
0.0
  0
LINE
  5
405
330
226
100
AcDbEntity
  8
7_ALL_FEATURES
  6
CONTINUOUS
 62
     3
100
AcDbLine
 10
33.6821145587
 20
67.06492741495
 30
0.0
 11
33.6821145587
 21
113.06492741495
 31
0.0
  0
LINE
  5
406
330
226
100
AcDbEntity
  8
7_ALL_FEATURES
  6
CONTINUOUS
 62
     3
100
AcDbLine
 10
33.6821145587
 20
115.06492741495
 30
0.0
 11
33.6821145587
 21
161.06492741495
 31
0.0
  0
LINE
  5
407
330
226
100
AcDbEntity
  8
06___PRT_ALL_SURFS
  6
CONTINUOUS
 62
     9
100
AcDbLine
 10
34.9782669023
 20
163.06492741495
 30
0.0
 11
34.9782669023
 21
65.06492741495
 31
0.0
  0
LINE
  5
408
330
226
100
AcDbEntity
  8
06___PRT_ALL_SURFS
  6
CONTINUOUS
 62
     9
100
AcDbLine
 10
35.9781812299
 20
64.06492741495
 30
0.0
 11
35.9781812299
 21
164.06492741495
 31
0.0
  0
LINE
  5
40A
102
{ACAD_REACTORS
330
69D
102
}
330
226
100
AcDbEntity
  8
7_ALL_FEATURES
  6
CONTINUOUS
 62
     7
100
AcDbLine
 10
33.1821145587
 20
61.56492741495001
 30
0.0
 11
204.1821145587
 21
61.56492741495001
 31
0.0
  0
LINE
  5
40B
330
226
100
AcDbEntity
  8
06___PRT_ALL_SURFS
  6
CONTINUOUS
 62
     7
100
AcDbLine
 10
202.6820288789
 20
64.06492741495
 30
0.0
 11
34.68220023849999
 21
64.06492741495
 31
0.0
  0
LINE
  5
40C
330
226
100
AcDbEntity
  8
06___PRT_ALL_SURFS
  6
CONTINUOUS
 62
     9
100
AcDbLine
 10
203.6821145587
 20
65.06492741495
 30
0.0
 11
33.6821145587
 21
65.06492741495
 31
0.0
  0
LWPOLYLINE
  5
40F
330
226
100
AcDbEntity
  8
0
  6
CONTINUOUS
 62
     2
100
AcDbPolyline
 90
        4
 70
     0
 43
0.3000000072
 10
115.8964047285
 20
27.77921267375001
 10
115.8964047285
 20
29.06492434355
 10
118.8964028973
 20
29.06492434355
 10
117.1821163983
 20
23.06492800575001
  0
LWPOLYLINE
  5
411
330
226
100
AcDbEntity
  8
0
  6
CONTINUOUS
 62
     2
100
AcDbPolyline
 90
       13
 70
     0
 43
0.3000000072
 10
242.9678353925
 20
111.27921938755
 10
240.3964120527
 20
111.27921938755
 10
239.5392623945
 20
111.70778139935
 10
238.6821127363
 20
112.56493105755
 10
238.6821127363
 20
112.99349306915
 10
239.5392623945
 20
113.85064272735
 10
240.3964120527
 20
114.27921755655
 10
242.9678353925
 20
114.27921755655
 10
243.8249594159
 20
113.85064272735
 10
244.6821090741
 20
112.99349306915
 10
244.6821090741
 20
112.56493105755
 10
243.8249594159
 20
111.70778139935
 10
242.9678353925
 20
111.27921938755
  0
LINE
  5
414
330
226
100
AcDbEntity
  8
06___PRT_ALL_SURFS
  6
CONTINUOUS
 62
     9
100
AcDbLine
 10
33.6821145587
 20
163.06492741495
 30
0.0
 11
203.6821145587
 21
163.06492741495
 31
0.0
  0
LINE
  5
415
330
226
100
AcDbEntity
  8
06___PRT_ALL_SURFS
  6
CONTINUOUS
 62
     7
100
AcDbLine
 10
34.68220023849999
 20
164.06492741495
 30
0.0
 11
202.6820288789
 21
164.06492741495
 31
0.0
  0
LINE
  5
416
102
{ACAD_REACTORS
330
69D
102
}
330
226
100
AcDbEntity
  8
7_ALL_FEATURES
  6
CONTINUOUS
 62
     7
100
AcDbLine
 10
204.1821145587
 20
166.56492741495
 30
0.0
 11
33.1821145587
 21
166.56492741495
 31
0.0
  0
LWPOLYLINE
  5
417
330
226
100
AcDbEntity
  8
0
  6
CONTINUOUS
 62
     2
100
AcDbPolyline
 90
        3
 70
     0
 43
0.3000000072
 10
112.4678317303
 20
27.35063784455001
 10
114.1821182293
 20
29.06492434355
 10
114.1821182293
 20
23.06492800575001
  0
LWPOLYLINE
  5
419
330
226
100
AcDbEntity
  8
0
  6
CONTINUOUS
 62
     2
100
AcDbPolyline
 90
        3
 70
     0
 43
0.3000000072
 10
240.3964120527
 20
107.85064638955
 10
238.6821127363
 20
109.56493288855
 10
244.6821090741
 20
109.56493288855
  0
LINE
  5
41A
330
226
100
AcDbEntity
  8
06___PRT_ALL_SURFS
  6
CONTINUOUS
 62
     9
100
AcDbLine
 10
201.3860478875
 20
64.06492741495
 30
0.0
 11
201.3860478875
 21
164.06492741495
 31
0.0
  0
LINE
  5
41B
330
226
100
AcDbEntity
  8
06___PRT_ALL_SURFS
  6
CONTINUOUS
 62
     9
100
AcDbLine
 10
202.3859622151
 20
65.06492741495
 30
0.0
 11
202.3859622151
 21
163.06492741495
 31
0.0
  0
LINE
  5
41C
330
226
100
AcDbEntity
  8
7_ALL_FEATURES
  6
CONTINUOUS
 62
     3
100
AcDbLine
 10
203.6821145587
 20
161.06492741495
 30
0.0
 11
203.6821145587
 21
115.06492741495
 31
0.0
  0
LINE
  5
41D
330
226
100
AcDbEntity
  8
7_ALL_FEATURES
  6
CONTINUOUS
 62
     3
100
AcDbLine
 10
203.6821145587
 20
113.06492741495
 30
0.0
 11
203.6821145587
 21
67.06492741495
 31
0.0
  0
LINE
  5
41E
330
226
100
AcDbEntity
  8
06___PRT_ALL_SURFS
  6
CONTINUOUS
 62
     7
100
AcDbLine
 10
203.6821145587
 20
163.06492741495
 30
0.0
 11
203.6821145587
 21
65.06492741495
 31
0.0
  0
LINE
  5
41F
330
226
100
AcDbEntity
  8
7_ALL_FEATURES
  6
CONTINUOUS
 62
     7
100
AcDbLine
 10
206.1821145587
 20
63.56492741495001
 30
0.0
 11
206.1821145587
 21
164.56492741495
 31
0.0
  0
LWPOLYLINE
  5
420
330
226
100
AcDbEntity
  8
0
  6
CONTINUOUS
 62
     2
100
AcDbPolyline
 90
        8
 70
     0
 43
0.3000000072
 10
244.6821090741
 20
115.99350405555
 10
244.6821090741
 20
117.70779055455
 10
243.8249594159
 20
118.56492739535
 10
242.1106857343
 20
118.56492739535
 10
241.2535360761
 20
117.70779055455
 10
241.2535360761
 20
115.99350405555
 10
238.6821127363
 20
115.99350405555
 10
238.6821127363
 20
118.56492739535
  0
LINE
  5
421
330
226
100
AcDbEntity
  8
7_ALL_FEATURES
  6
CONTINUOUS
 62
     7
100
AcDbLine
 10
204.1821145587
 20
61.56492741495001
 30
0.0
 11
206.1821145587
 21
63.56492741495001
 31
0.0
  0
LINE
  5
426
330
226
100
AcDbEntity
  8
7_ALL_FEATURES
  6
CONTINUOUS
 62
     7
100
AcDbLine
 10
206.1821145587
 20
164.56492741495
 30
0.0
 11
204.1821145587
 21
166.56492741495
 31
0.0
  0
LINE
  5
427
330
226
100
AcDbEntity
  8
7_ALL_FEATURES
  6
CONTINUOUS
 62
     7
100
AcDbLine
 10
38.6821145587
 20
472.51153353995
 30
0.0
 11
39.1821145587
 21
473.01153353995
 31
0.0
  0
LINE
  5
428
330
226
100
AcDbEntity
  8
7_ALL_FEATURES
  6
CONTINUOUS
 62
     3
100
AcDbLine
 10
33.6821145587
 20
365.37603705595
 30
0.0
 11
33.6821145587
 21
376.51153353995
 31
0.0
  0
LINE
  5
429
330
226
100
AcDbEntity
  8
06___PRT_ALL_SURFS
  6
CONTINUOUS
 62
     9
100
AcDbLine
 10
35.9781812299
 20
475.51153353995
 30
0.0
 11
35.97818122970001
 21
476.51153353995
 31
0.0
  0
LINE
  5
42A
330
226
100
AcDbEntity
  8
7_ALL_FEATURES
  6
CONTINUOUS
 62
     9
100
AcDbLine
 10
36.6821145587
 20
367.13091705655
 30
0.0
 11
36.6821145587
 21
376.51153353995
 31
0.0
  0
LINE
  5
42B
330
226
100
AcDbEntity
  8
06___PRT_ALL_SURFS
  6
CONTINUOUS
 62
     9
100
AcDbLine
 10
37.6950361231
 20
392.51153353995
 30
0.0
 11
37.6950361231
 21
472.51153353995
 31
0.0
  0
LINE
  5
42C
330
226
100
AcDbEntity
  8
06___PRT_ALL_SURFS
  6
CONTINUOUS
 62
     9
100
AcDbLine
 10
38.1948647857
 20
392.51153353995
 30
0.0
 11
38.1948647857
 21
472.51153353995
 31
0.0
  0
LINE
  5
42D
330
226
100
AcDbEntity
  8
06___PRT_ALL_SURFS
  6
CONTINUOUS
 62
     9
100
AcDbLine
 10
38.3029125317
 20
392.51153353995
 30
0.0
 11
38.3029125317
 21
472.51153353995
 31
0.0
  0
LINE
  5
42E
330
226
100
AcDbEntity
  8
7_ALL_FEATURES
  6
CONTINUOUS
 62
     7
100
AcDbLine
 10
38.6821145587
 20
472.51153353995
 30
0.0
 11
38.6821145587
 21
392.51153353995
 31
0.0
  0
LINE
  5
42F
330
226
100
AcDbEntity
  8
7_ALL_FEATURES
  6
CONTINUOUS
 62
     7
100
AcDbLine
 10
39.1821145587
 20
472.51153353995
 30
0.0
 11
39.1821145587
 21
392.51153353995
 31
0.0
  0
LINE
  5
430
330
226
100
AcDbEntity
  8
06___PRT_ALL_SURFS
  6
CONTINUOUS
 62
     9
100
AcDbLine
 10
39.1821145587
 20
391.02445510435
 30
0.0
 11
39.1821145587
 21
392.01153353995
 31
0.0
  0
LINE
  5
431
330
226
100
AcDbEntity
  8
06___PRT_ALL_SURFS
  6
CONTINUOUS
 62
     9
100
AcDbLine
 10
39.1821145587
 20
473.01153353995
 30
0.0
 11
39.1821145587
 21
473.99861197535
 31
0.0
  0
LINE
  5
432
330
226
100
AcDbEntity
  8
06___PRT_ALL_SURFS
  6
CONTINUOUS
 62
     7
100
AcDbLine
 10
34.9782669023
 20
475.52462313555
 30
0.0
 11
33.6821145587
 21
376.51153353995
 31
0.0
  0
LINE
  5
433
330
226
100
AcDbEntity
  8
06___PRT_ALL_SURFS
  6
CONTINUOUS
 62
     9
100
AcDbLine
 10
35.9781812299
 20
475.51153353995
 30
0.0
 11
34.68220023849999
 21
376.51153353995
 31
0.0
  0
LWPOLYLINE
  5
434
330
226
100
AcDbEntity
  8
0
  6
CONTINUOUS
 62
     2
100
AcDbPolyline
 90
        3
 70
     0
 43
0.3000000072
 10
112.2535379071
 20
514.1033880887501
 10
113.9678244061
 20
515.8176874051501
 10
113.9678244061
 20
509.81771670195
  0
LINE
  5
435
330
226
100
AcDbEntity
  8
7_ALL_FEATURES
  6
CONTINUOUS
 62
     7
100
AcDbLine
 10
39.1821145587
 20
392.01153353995
 30
0.0
 11
38.6821145587
 21
392.51153353995
 31
0.0
  0
LINE
  5
436
330
226
100
AcDbEntity
  8
0
  6
CONTINUOUS
 62
     7
100
AcDbLine
 10
75.34251195249999
 20
362.52670350255
 30
0.0
 11
88.8168810475
 21
359.02176789075
 31
0.0
  0
LINE
  5
437
330
226
100
AcDbEntity
  8
0
  6
CONTINUOUS
 62
     7
100
AcDbLine
 10
61.8832807689
 20
367.60580263575
 30
0.0
 11
75.34251195249999
 21
362.52670350255
 31
0.0
  0
LINE
  5
438
330
226
100
AcDbEntity
  8
0
  6
CONTINUOUS
 62
     7
100
AcDbLine
 10
48.4955084517
 20
370.24850300575
 30
0.0
 11
61.8832807689
 21
367.60580263575
 31
0.0
  0
LINE
  5
439
330
226
100
AcDbEntity
  8
0
  6
CONTINUOUS
 62
     7
100
AcDbLine
 10
88.8168810475
 20
359.02176789075
 30
0.0
 11
106.3285196545
 21
361.07642697375
 31
0.0
  0
LINE
  5
43A
330
226
100
AcDbEntity
  8
0
  6
CONTINUOUS
 62
     7
100
AcDbLine
 10
141.6207079751
 20
372.46346075895
 30
0.0
 11
154.5518981565
 21
373.00823926275
 31
0.0
  0
LINE
  5
43B
330
226
100
AcDbEntity
  8
7_ALL_FEATURES
  6
CONTINUOUS
 62
     7
100
AcDbLine
 10
38.9321145587
 20
392.26153353995
 30
0.0
 11
39.1821145587
 21
392.51153353995
 31
0.0
  0
LINE
  5
43C
330
226
100
AcDbEntity
  8
0
  6
CONTINUOUS
 62
     7
100
AcDbLine
 10
43.51919366329999
 20
369.79560401395
 30
0.0
 11
48.4955084517
 21
370.24850300575
 31
0.0
  0
LINE
  5
43D
330
226
100
AcDbEntity
  8
7_ALL_FEATURES
  6
CONTINUOUS
 62
     3
100
AcDbLine
 10
35.5340642615
 20
376.51153353995
 30
0.0
 11
201.8301648557
 21
376.51153353995
 31
0.0
  0
LINE
  5
43E
330
226
100
AcDbEntity
  8
06___PRT_ALL_SURFS
  6
CONTINUOUS
 62
     7
100
AcDbLine
 10
33.6821145587
 20
376.51153353995
 30
0.0
 11
203.6821145587
 21
376.51153353995
 31
0.0
  0
LINE
  5
43F
330
226
100
AcDbEntity
  8
0
  6
CONTINUOUS
 62
     7
100
AcDbLine
 10
154.5518981565
 20
373.00823926275
 30
0.0
 11
167.5697785913
 21
371.15902902515
 31
0.0
  0
LWPOLYLINE
  5
440
330
226
100
AcDbEntity
  8
0
  6
CONTINUOUS
 62
     2
100
AcDbPolyline
 90
       13
 70
     0
 43
0.3000000072
 10
242.9678353925
 20
383.01181094035
 10
240.3964120527
 20
383.01181094035
 10
239.5392623945
 20
383.44037295195
 10
238.6821127363
 20
384.29749697555
 10
238.6821127363
 20
384.72605898715
 10
239.5392623945
 20
385.58323428015
 10
240.3964120527
 20
386.01179629195
 10
242.9678353925
 20
386.01179629195
 10
243.8249594159
 20
385.58323428015
 10
244.6821090741
 20
384.72605898715
 10
244.6821090741
 20
384.29749697555
 10
243.8249594159
 20
383.44037295195
 10
242.9678353925
 20
383.01181094035
  0
LINE
  5
441
330
226
100
AcDbEntity
  8
7_ALL_FEATURES
  6
CONTINUOUS
 62
     7
100
AcDbLine
 10
117.9604267221
 20
383.26153353995
 30
0.0
 11
119.4038023951
 21
383.26153353995
 31
0.0
  0
LINE
  5
442
330
226
100
AcDbEntity
  8
7_ALL_FEATURES
  6
CONTINUOUS
 62
     7
100
AcDbLine
 10
119.4038023951
 20
385.76153353995
 30
0.0
 11
117.9604267221
 21
385.76153353995
 31
0.0
  0
LWPOLYLINE
  5
443
330
226
100
AcDbEntity
  8
0
  6
CONTINUOUS
 62
     2
100
AcDbPolyline
 90
       13
 70
     0
 43
0.3000000072
 10
242.9678353925
 20
387.72609560835
 10
240.3964120527
 20
387.72609560835
 10
239.5392623945
 20
388.15465761995
 10
238.6821127363
 20
389.01178164335
 10
238.6821127363
 20
389.44039492475
 10
239.5392623945
 20
390.29751894815
 10
240.3964120527
 20
390.72608095975
 10
242.9678353925
 20
390.72608095975
 10
243.8249594159
 20
390.29751894815
 10
244.6821090741
 20
389.44039492475
 10
244.6821090741
 20
389.01178164335
 10
243.8249594159
 20
388.15465761995
 10
242.9678353925
 20
387.72609560835
  0
LINE
  5
444
330
226
100
AcDbEntity
  8
0
  6
CONTINUOUS
 62
     7
100
AcDbLine
 10
196.7927372287
 20
363.00161281115
 30
0.0
 11
203.6821145587
 21
361.30683533335
 31
0.0
  0
LINE
  5
445
330
226
100
AcDbEntity
  8
0
  6
CONTINUOUS
 62
     7
100
AcDbLine
 10
167.5697785913
 20
371.15902902515
 30
0.0
 11
180.6110058475
 21
367.83095012055
 31
0.0
  0
LINE
  5
446
330
226
100
AcDbEntity
  8
0
  6
CONTINUOUS
 62
     7
100
AcDbLine
 10
180.6110058475
 20
367.83095012055
 30
0.0
 11
196.7927372287
 21
363.00161281115
 31
0.0
  0
LINE
  5
447
330
226
100
AcDbEntity
  8
06___PRT_ALL_SURFS
  6
CONTINUOUS
 62
     9
100
AcDbLine
 10
198.1821145587
 20
391.02445510435
 30
0.0
 11
39.1821145587
 21
391.02445510435
 31
0.0
  0
LINE
  5
448
330
226
100
AcDbEntity
  8
06___PRT_ALL_SURFS
  6
CONTINUOUS
 62
     9
100
AcDbLine
 10
198.1821145587
 20
391.52428376695
 30
0.0
 11
39.1821145587
 21
391.52428376695
 31
0.0
  0
LINE
  5
449
330
226
100
AcDbEntity
  8
06___PRT_ALL_SURFS
  6
CONTINUOUS
 62
     9
100
AcDbLine
 10
198.1821145587
 20
391.63233151295
 30
0.0
 11
39.1821145587
 21
391.63233151295
 31
0.0
  0
LINE
  5
44A
330
226
100
AcDbEntity
  8
7_ALL_FEATURES
  6
CONTINUOUS
 62
     7
100
AcDbLine
 10
39.1821145587
 20
392.01153353995
 30
0.0
 11
198.1821145587
 21
392.01153353995
 31
0.0
  0
LINE
  5
44B
330
226
100
AcDbEntity
  8
06___PRT_ALL_SURFS
  6
CONTINUOUS
 62
     9
100
AcDbLine
 10
37.6950361231
 20
392.51153353995
 30
0.0
 11
38.6821145587
 21
392.51153353995
 31
0.0
  0
LINE
  5
44C
330
226
100
AcDbEntity
  8
7_ALL_FEATURES
  6
CONTINUOUS
 62
     7
100
AcDbLine
 10
39.1821145587
 20
392.51153353995
 30
0.0
 11
198.1821145587
 21
392.51153353995
 31
0.0
  0
LINE
  5
44D
330
226
100
AcDbEntity
  8
06___PRT_ALL_SURFS
  6
CONTINUOUS
 62
     9
100
AcDbLine
 10
198.6821145587
 20
392.51153353995
 30
0.0
 11
199.6691929941
 21
392.51153353995
 31
0.0
  0
LINE
  5
44E
330
226
100
AcDbEntity
  8
7_ALL_FEATURES
  6
CONTINUOUS
 62
     7
100
AcDbLine
 10
38.9321145587
 20
472.76153353995
 30
0.0
 11
39.1821145587
 21
472.51153353995
 31
0.0
  0
LINE
  5
44F
330
226
100
AcDbEntity
  8
7_ALL_FEATURES
  6
CONTINUOUS
 62
     7
100
AcDbLine
 10
117.9604267221
 20
383.26153353995
 30
0.0
 11
117.2387388857
 21
384.51153353995
 31
0.0
  0
LINE
  5
450
330
226
100
AcDbEntity
  8
7_ALL_FEATURES
  6
CONTINUOUS
 62
     7
100
AcDbLine
 10
119.4038023951
 20
385.76153353995
 30
0.0
 11
120.1254902317
 21
384.51153353995
 31
0.0
  0
LWPOLYLINE
  5
451
330
226
100
AcDbEntity
  8
0
  6
CONTINUOUS
 62
     2
100
AcDbPolyline
 90
        4
 70
     0
 43
0.3000000072
 10
243.8249594159
 20
406.15467226835
 10
242.1106857343
 20
406.15467226835
 10
241.2535360761
 20
407.01179629195
 10
241.2535360761
 20
408.29753359655
  0
LWPOLYLINE
  5
452
330
226
100
AcDbEntity
  8
0
  6
CONTINUOUS
 62
     2
100
AcDbPolyline
 90
       13
 70
     0
 43
0.3000000072
 10
242.9678353925
 20
410.86895693635
 10
240.3964120527
 20
410.86895693635
 10
239.5392623945
 20
411.29751894815
 10
238.6821127363
 20
412.15464297155
 10
238.6821127363
 20
412.58320498335
 10
239.5392623945
 20
413.44038027635
 10
240.3964120527
 20
413.86894228795
 10
242.9678353925
 20
413.86894228795
 10
243.8249594159
 20
413.44038027635
 10
244.6821090741
 20
412.58320498335
 10
244.6821090741
 20
412.15464297155
 10
243.8249594159
 20
411.29751894815
 10
242.9678353925
 20
410.86895693635
  0
LWPOLYLINE
  5
453
330
226
100
AcDbEntity
  8
0
  6
CONTINUOUS
 62
     2
100
AcDbPolyline
 90
        4
 70
     0
 43
0.3000000072
 10
115.6821109051
 20
514.5320013699501
 10
115.6821109051
 20
515.8176874051501
 10
118.6821090741
 20
515.8176874051501
 10
116.9678225751
 20
509.81771670195
  0
LWPOLYLINE
  5
454
330
226
100
AcDbEntity
  8
0
  6
CONTINUOUS
 62
     2
100
AcDbPolyline
 90
       13
 70
     0
 43
0.3000000072
 10
242.9678353925
 20
415.58324160435
 10
240.3964120527
 20
415.58324160435
 10
239.5392623945
 20
416.01180361615
 10
238.6821127363
 20
416.86892763955
 10
238.6821127363
 20
417.29748965135
 10
239.5392623945
 20
418.15466494415
 10
240.3964120527
 20
418.58322695595
 10
242.9678353925
 20
418.58322695595
 10
243.8249594159
 20
418.15466494415
 10
244.6821090741
 20
417.29748965135
 10
244.6821090741
 20
416.86892763955
 10
243.8249594159
 20
416.01180361615
 10
242.9678353925
 20
415.58324160435
  0
LWPOLYLINE
  5
455
330
226
100
AcDbEntity
  8
0
  6
CONTINUOUS
 62
     2
100
AcDbPolyline
 90
       13
 70
     0
 43
0.3000000072
 10
120.3963955731
 20
511.53196474895
 10
120.3963955731
 20
514.1033880887501
 10
120.8249704023
 20
514.96056338175
 10
121.6821200605
 20
515.8176874051501
 10
122.1106820721
 20
515.8176874051501
 10
122.9678317303
 20
514.96056338175
 10
123.3964065595
 20
514.1033880887501
 10
123.3964065595
 20
511.53196474895
 10
122.9678317303
 20
510.67484072555
 10
122.1106820721
 20
509.81771670195
 10
121.6821200605
 20
509.81771670195
 10
120.8249704023
 20
510.67484072555
 10
120.3963955731
 20
511.53196474895
  0
LINE
  5
456
330
226
100
AcDbEntity
  8
0
  6
CONTINUOUS
 62
     7
100
AcDbLine
 10
33.6821145587
 20
365.37603705595
 30
0.0
 11
38.5636904793
 21
368.23156370735
 31
0.0
  0
LINE
  5
457
330
226
100
AcDbEntity
  8
7_ALL_FEATURES
  6
CONTINUOUS
 62
     7
100
AcDbLine
 10
117.2387388857
 20
384.51153353995
 30
0.0
 11
117.9604267221
 21
385.76153353995
 31
0.0
  0
LINE
  5
458
330
226
100
AcDbEntity
  8
7_ALL_FEATURES
  6
CONTINUOUS
 62
     7
100
AcDbLine
 10
120.1254902317
 20
384.51153353995
 30
0.0
 11
119.4038023951
 21
383.26153353995
 31
0.0
  0
LINE
  5
459
330
226
100
AcDbEntity
  8
7_ALL_FEATURES
  6
CONTINUOUS
 62
     7
100
AcDbLine
 10
198.4321145587
 20
472.76153353995
 30
0.0
 11
198.1821145587
 21
472.51153353995
 31
0.0
  0
LINE
  5
45A
330
226
100
AcDbEntity
  8
0
  6
CONTINUOUS
 62
     7
100
AcDbLine
 10
38.5636904793
 20
368.23156370735
 30
0.0
 11
43.51919366329999
 21
369.79560401395
 31
0.0
  0
LINE
  5
45B
330
226
100
AcDbEntity
  8
7_ALL_FEATURES
  6
CONTINUOUS
 62
     7
100
AcDbLine
 10
198.1821145587
 20
392.51153353995
 30
0.0
 11
198.4321145587
 21
392.26153353995
 31
0.0
  0
LINE
  5
45C
330
226
100
AcDbEntity
  8
0
  6
CONTINUOUS
 62
     7
100
AcDbLine
 10
106.3285196545
 20
361.07642697375
 30
0.0
 11
123.8899374681
 21
367.31667031135
 31
0.0
  0
LINE
  5
45D
330
226
100
AcDbEntity
  8
0
  6
CONTINUOUS
 62
     7
100
AcDbLine
 10
123.8899374681
 20
367.31667031135
 30
0.0
 11
141.6207079751
 21
372.46346075895
 31
0.0
  0
LINE
  5
45E
330
226
100
AcDbEntity
  8
06___PRT_ALL_SURFS
  6
CONTINUOUS
 62
     9
100
AcDbLine
 10
201.3860478875
 20
475.51153353995
 30
0.0
 11
202.3859622151
 21
475.52462313555
 31
0.0
  0
LINE
  5
45F
330
226
100
AcDbEntity
  8
7_ALL_FEATURES
  6
CONTINUOUS
 62
     7
100
AcDbLine
 10
198.1821145587
 20
472.51153353995
 30
0.0
 11
39.1821145587
 21
472.51153353995
 31
0.0
  0
LINE
  5
460
330
226
100
AcDbEntity
  8
06___PRT_ALL_SURFS
  6
CONTINUOUS
 62
     9
100
AcDbLine
 10
37.6950361231
 20
472.51153353995
 30
0.0
 11
38.6821145587
 21
472.51153353995
 31
0.0
  0
LINE
  5
461
330
226
100
AcDbEntity
  8
06___PRT_ALL_SURFS
  6
CONTINUOUS
 62
     9
100
AcDbLine
 10
198.6821145587
 20
472.51153353995
 30
0.0
 11
199.6691929941
 21
472.51153353995
 31
0.0
  0
LINE
  5
462
330
226
100
AcDbEntity
  8
7_ALL_FEATURES
  6
CONTINUOUS
 62
     7
100
AcDbLine
 10
198.1821145587
 20
473.01153353995
 30
0.0
 11
39.1821145587
 21
473.01153353995
 31
0.0
  0
LINE
  5
463
330
226
100
AcDbEntity
  8
06___PRT_ALL_SURFS
  6
CONTINUOUS
 62
     9
100
AcDbLine
 10
39.1821145587
 20
473.39073556695
 30
0.0
 11
198.1821145587
 21
473.39073556695
 31
0.0
  0
LINE
  5
464
330
226
100
AcDbEntity
  8
06___PRT_ALL_SURFS
  6
CONTINUOUS
 62
     9
100
AcDbLine
 10
39.1821145587
 20
473.49878331295
 30
0.0
 11
198.1821145587
 21
473.49878331295
 31
0.0
  0
LINE
  5
465
330
226
100
AcDbEntity
  8
06___PRT_ALL_SURFS
  6
CONTINUOUS
 62
     9
100
AcDbLine
 10
39.1821145587
 20
473.99861197535
 30
0.0
 11
198.1821145587
 21
473.99861197535
 31
0.0
  0
LINE
  5
466
330
226
100
AcDbEntity
  8
06___PRT_ALL_SURFS
  6
CONTINUOUS
 62
     9
100
AcDbLine
 10
35.9781812299
 20
475.51153353995
 30
0.0
 11
34.9782669023
 21
475.52462313555
 31
0.0
  0
LINE
  5
467
330
226
100
AcDbEntity
  8
06___PRT_ALL_SURFS
  6
CONTINUOUS
 62
     9
100
AcDbLine
 10
201.3860478875
 20
475.51153353995
 30
0.0
 11
35.9781812299
 21
475.51153353995
 31
0.0
  0
LINE
  5
468
330
226
100
AcDbEntity
  8
06___PRT_ALL_SURFS
  6
CONTINUOUS
 62
     7
100
AcDbLine
 10
201.3860478875
 20
476.51153353995
 30
0.0
 11
35.9781812299
 21
476.51153353995
 31
0.0
  0
LWPOLYLINE
  5
469
330
226
100
AcDbEntity
  8
0
  6
CONTINUOUS
 62
     2
100
AcDbPolyline
 90
       10
 70
     0
 43
0.3000000072
 10
238.6821127363
 20
380.44038760055
 10
239.9678244061
 20
379.15465029575
 10
241.6821237225
 20
378.29752627235
 10
243.8249594159
 20
378.29752627235
 10
244.6821090741
 20
379.15465029575
 10
244.6821090741
 20
380.44038760055
 10
243.8249594159
 20
381.29751162395
 10
242.1106857343
 20
381.29751162395
 10
241.2535360761
 20
380.44038760055
 10
241.2535360761
 20
378.58325136995
  0
LINE
  5
46A
330
226
100
AcDbEntity
  8
7_ALL_FEATURES
  6
CONTINUOUS
 62
     7
100
AcDbLine
 10
198.6821145587
 20
392.51153353995
 30
0.0
 11
198.1821145587
 21
392.01153353995
 31
0.0
  0
LINE
  5
46B
330
226
100
AcDbEntity
  8
06___PRT_ALL_SURFS
  6
CONTINUOUS
 62
     9
100
AcDbLine
 10
202.6820288789
 20
376.51153353995
 30
0.0
 11
201.3860478875
 21
475.51153353995
 31
0.0
  0
LINE
  5
46C
330
226
100
AcDbEntity
  8
06___PRT_ALL_SURFS
  6
CONTINUOUS
 62
     7
100
AcDbLine
 10
203.6821145587
 20
376.51153353995
 30
0.0
 11
202.3859622151
 21
475.52462313555
 31
0.0
  0
LINE
  5
46D
330
226
100
AcDbEntity
  8
06___PRT_ALL_SURFS
  6
CONTINUOUS
 62
     9
100
AcDbLine
 10
198.1821145587
 20
391.02445510435
 30
0.0
 11
198.1821145587
 21
392.01153353995
 31
0.0
  0
LINE
  5
46E
330
226
100
AcDbEntity
  8
7_ALL_FEATURES
  6
CONTINUOUS
 62
     7
100
AcDbLine
 10
198.1821145587
 20
392.51153353995
 30
0.0
 11
198.1821145587
 21
472.51153353995
 31
0.0
  0
LINE
  5
46F
330
226
100
AcDbEntity
  8
06___PRT_ALL_SURFS
  6
CONTINUOUS
 62
     9
100
AcDbLine
 10
198.1821145587
 20
473.01153353995
 30
0.0
 11
198.1821145587
 21
473.99861197535
 31
0.0
  0
LINE
  5
470
330
226
100
AcDbEntity
  8
7_ALL_FEATURES
  6
CONTINUOUS
 62
     7
100
AcDbLine
 10
198.6821145587
 20
392.51153353995
 30
0.0
 11
198.6821145587
 21
472.51153353995
 31
0.0
  0
LINE
  5
471
330
226
100
AcDbEntity
  8
06___PRT_ALL_SURFS
  6
CONTINUOUS
 62
     9
100
AcDbLine
 10
199.0613165857
 20
472.51153353995
 30
0.0
 11
199.0613165857
 21
392.51153353995
 31
0.0
  0
LINE
  5
472
330
226
100
AcDbEntity
  8
06___PRT_ALL_SURFS
  6
CONTINUOUS
 62
     9
100
AcDbLine
 10
199.1693643317
 20
472.51153353995
 30
0.0
 11
199.1693643317
 21
392.51153353995
 31
0.0
  0
LINE
  5
473
330
226
100
AcDbEntity
  8
06___PRT_ALL_SURFS
  6
CONTINUOUS
 62
     9
100
AcDbLine
 10
199.6691929941
 20
472.51153353995
 30
0.0
 11
199.6691929941
 21
392.51153353995
 31
0.0
  0
LINE
  5
474
330
226
100
AcDbEntity
  8
7_ALL_FEATURES
  6
CONTINUOUS
 62
     9
100
AcDbLine
 10
200.6821145587
 20
376.51153353995
 30
0.0
 11
200.6821145587
 21
362.04483126395
 31
0.0
  0
LINE
  5
475
330
226
100
AcDbEntity
  8
06___PRT_ALL_SURFS
  6
CONTINUOUS
 62
     9
100
AcDbLine
 10
201.3860478875
 20
475.51153353995
 30
0.0
 11
201.3860478875
 21
476.51153353995
 31
0.0
  0
LINE
  5
476
330
226
100
AcDbEntity
  8
7_ALL_FEATURES
  6
CONTINUOUS
 62
     3
100
AcDbLine
 10
203.6821145587
 20
376.51153353995
 30
0.0
 11
203.6821145587
 21
361.30683533335
 31
0.0
  0
LWPOLYLINE
  5
477
330
226
100
AcDbEntity
  8
0
  6
CONTINUOUS
 62
     2
100
AcDbPolyline
 90
        2
 70
     0
 43
0.3000000072
 10
242.5392477459
 20
397.15466494415
 10
242.5392477459
 20
399.72608828415
  0
LWPOLYLINE
  5
478
330
226
100
AcDbEntity
  8
0
  6
CONTINUOUS
 62
     2
100
AcDbPolyline
 90
       13
 70
     0
 43
0.3000000072
 10
241.2535360761
 20
407.01179629195
 10
240.8249740643
 20
406.44034609655
 10
239.5392623945
 20
406.44034609655
 10
238.6821127363
 20
407.01179629195
 10
238.6821127363
 20
408.29753359655
 10
239.5392623945
 20
408.86893252235
 10
240.8249740643
 20
408.86893252235
 10
241.2535360761
 20
408.29753359655
 10
242.1106857343
 20
409.15465761995
 10
243.8249594159
 20
409.15465761995
 10
244.6821090741
 20
408.29753359655
 10
244.6821090741
 20
407.01179629195
 10
243.8249594159
 20
406.15467226835
  0
LINE
  5
479
330
226
100
AcDbEntity
  8
7_ALL_FEATURES
  6
CONTINUOUS
 62
     7
100
AcDbLine
 10
198.6821145587
 20
472.51153353995
 30
0.0
 11
198.1821145587
 21
473.01153353995
 31
0.0
  0
LINE
  5
47A
330
226
100
AcDbEntity
  8
7_ALL_FEATURES
  6
CONTINUOUS
 62
     7
100
AcDbLine
 10
31.1821145587
 20
326.08349264415
 30
0.0
 11
31.1821145587
 21
322.08349264415
 31
0.0
  0
LINE
  5
47B
330
226
100
AcDbEntity
  8
7_ALL_FEATURES
  6
CONTINUOUS
 62
     7
100
AcDbLine
 10
33.1821145587
 20
326.08349264415
 30
0.0
 11
33.1821145587
 21
322.08349264415
 31
0.0
  0
LINE
  5
47C
330
226
100
AcDbEntity
  8
7_ALL_FEATURES
  6
CONTINUOUS
 62
     3
100
AcDbLine
 10
33.6821145587
 20
326.08349264415
 30
0.0
 11
33.6821145587
 21
355.37583505595
 31
0.0
  0
LINE
  5
47D
330
226
100
AcDbEntity
  8
7_ALL_FEATURES
  6
CONTINUOUS
 62
     9
100
AcDbLine
 10
36.6821145587
 20
326.08349264415
 30
0.0
 11
36.6821145587
 21
357.13071505655
 31
0.0
  0
LWPOLYLINE
  5
47E
330
226
100
AcDbEntity
  8
0
  6
CONTINUOUS
 62
     7
100
AcDbPolyline
 90
       11
 70
     0
 43
0.0
 10
66.6821145587
 20
336.14912210435
 10
66.7800015261
 20
336.76628119815
 10
67.0640805699
 20
337.32302845975
 10
67.5065440541
 20
337.76486558815
 10
68.0640805699
 20
338.04854248695
 10
68.6821145587
 20
338.14629088455
 10
69.30014854730001
 20
338.04854248695
 10
69.85768506330001
 20
337.76486558815
 10
70.30014854730001
 20
337.32302845975
 10
70.58422759129999
 20
336.76628119815
 10
70.6821145587
 20
336.14912210435
  0
LWPOLYLINE
  5
47F
330
226
100
AcDbEntity
  8
0
  6
CONTINUOUS
 62
     7
100
AcDbPolyline
 90
       11
 70
     0
 43
0.0
 10
66.6944587241
 20
336.14716420895
 10
66.7800015261
 20
336.68649563955
 10
67.0640805699
 20
337.24324290135
 10
67.5065440541
 20
337.68508002975
 10
68.0640805699
 20
337.96875692855
 10
68.6821145587
 20
338.06650532615
 10
69.30014854730001
 20
337.96875692855
 10
69.85768506330001
 20
337.68508002975
 10
70.30014854730001
 20
337.24324290135
 10
70.58422759129999
 20
336.68649563955
 10
70.66977039330001
 20
336.14716420895
  0
LINE
  5
480
330
226
100
AcDbEntity
  8
0
  6
CONTINUOUS
 62
     7
100
AcDbLine
 10
38.5636904793
 20
358.23136170735
 30
0.0
 11
33.6821145587
 21
355.37583505595
 31
0.0
  0
LINE
  5
481
330
226
100
AcDbEntity
  8
0
  6
CONTINUOUS
 62
     7
100
AcDbLine
 10
66.7800015261
 20
335.53196301055
 30
0.0
 11
66.6821145587
 21
336.14912210435
 31
0.0
  0
LWPOLYLINE
  5
482
330
226
100
AcDbEntity
  8
0
  6
CONTINUOUS
 62
     7
100
AcDbPolyline
 90
       10
 70
     0
 43
0.0
 10
70.6821145587
 20
336.14912210435
 10
70.58422759129999
 20
335.53196301055
 10
70.30014854730001
 20
334.97521574895
 10
69.85768506330001
 20
334.53337862035
 10
69.30014854730001
 20
334.24970172155
 10
68.6821145587
 20
334.15195332395
 10
68.0640805699
 20
334.24970172155
 10
67.5065440541
 20
334.53337862035
 10
67.0640805699
 20
334.97521574895
 10
66.7800015261
 20
335.53196301055
  0
LINE
  5
483
330
226
100
AcDbEntity
  8
0
  6
CONTINUOUS
 62
     7
100
AcDbLine
 10
43.51919366329999
 20
359.79540201395
 30
0.0
 11
38.5636904793
 21
358.23136170735
 31
0.0
  0
LINE
  5
484
330
226
100
AcDbEntity
  8
7_ALL_FEATURES
  6
CONTINUOUS
 62
     7
100
AcDbLine
 10
31.1821145587
 20
322.08349264415
 30
0.0
 11
206.1821145587
 21
322.08349264415
 31
0.0
  0
LINE
  5
485
330
226
100
AcDbEntity
  8
0
  6
CONTINUOUS
 62
     7
100
AcDbLine
 10
123.8899374681
 20
357.31646831135
 30
0.0
 11
106.3285196545
 21
351.07622497375
 31
0.0
  0
LINE
  5
486
330
226
100
AcDbEntity
  8
0
  6
CONTINUOUS
 62
     7
100
AcDbLine
 10
141.6207079751
 20
362.46325875895
 30
0.0
 11
123.8899374681
 21
357.31646831135
 31
0.0
  0
LINE
  5
487
330
226
100
AcDbEntity
  8
7_ALL_FEATURES
  6
CONTINUOUS
 62
     7
100
AcDbLine
 10
31.1821145587
 20
326.08349264415
 30
0.0
 11
206.1821145587
 21
326.08349264415
 31
0.0
  0
LINE
  5
488
330
226
100
AcDbEntity
  8
0
  6
CONTINUOUS
 62
     7
100
AcDbLine
 10
75.34251195249999
 20
352.52650150255
 30
0.0
 11
61.8832807689
 21
357.60560063575
 31
0.0
  0
LINE
  5
489
330
226
100
AcDbEntity
  8
0
  6
CONTINUOUS
 62
     7
100
AcDbLine
 10
88.8168810475
 20
349.02156589075
 30
0.0
 11
75.34251195249999
 21
352.52650150255
 31
0.0
  0
LINE
  5
48A
330
226
100
AcDbEntity
  8
0
  6
CONTINUOUS
 62
     7
100
AcDbLine
 10
61.8832807689
 20
357.60560063575
 30
0.0
 11
48.4955084517
 21
360.24830100575
 31
0.0
  0
LINE
  5
48B
330
226
100
AcDbEntity
  8
0
  6
CONTINUOUS
 62
     7
100
AcDbLine
 10
106.3285196545
 20
351.07622497375
 30
0.0
 11
88.8168810475
 21
349.02156589075
 31
0.0
  0
LINE
  5
48C
330
226
100
AcDbEntity
  8
0
  6
CONTINUOUS
 62
     7
100
AcDbLine
 10
154.5518981565
 20
363.00803726275
 30
0.0
 11
141.6207079751
 21
362.46325875895
 31
0.0
  0
LINE
  5
48D
330
226
100
AcDbEntity
  8
0
  6
CONTINUOUS
 62
     7
100
AcDbLine
 10
48.4955084517
 20
360.24830100575
 30
0.0
 11
43.51919366329999
 21
359.79540201395
 31
0.0
  0
LINE
  5
48E
330
226
100
AcDbEntity
  8
0
  6
CONTINUOUS
 62
     7
100
AcDbLine
 10
167.5697785913
 20
361.15882702515
 30
0.0
 11
154.5518981565
 21
363.00803726275
 31
0.0
  0
LINE
  5
48F
330
226
100
AcDbEntity
  8
0
  6
CONTINUOUS
 62
     7
100
AcDbLine
 10
203.6821145587
 20
351.30663333335
 30
0.0
 11
196.7927372287
 21
353.00141081115
 31
0.0
  0
LINE
  5
490
330
226
100
AcDbEntity
  8
0
  6
CONTINUOUS
 62
     7
100
AcDbLine
 10
180.6110058475
 20
357.83074812055
 30
0.0
 11
167.5697785913
 21
361.15882702515
 31
0.0
  0
LINE
  5
491
330
226
100
AcDbEntity
  8
0
  6
CONTINUOUS
 62
     7
100
AcDbLine
 10
196.7927372287
 20
353.00141081115
 30
0.0
 11
180.6110058475
 21
357.83074812055
 31
0.0
  0
LINE
  5
492
330
226
100
AcDbEntity
  8
0
  6
CONTINUOUS
 62
     7
100
AcDbLine
 10
166.7800015261
 20
335.53196301055
 30
0.0
 11
166.6821145587
 21
336.14912210435
 31
0.0
  0
LWPOLYLINE
  5
493
330
226
100
AcDbEntity
  8
0
  6
CONTINUOUS
 62
     7
100
AcDbPolyline
 90
       11
 70
     0
 43
0.0
 10
166.6821145587
 20
336.14912210435
 10
166.7800015261
 20
336.76628119815
 10
167.0640805699
 20
337.32302845975
 10
167.5065440541
 20
337.76486558815
 10
168.0640805699
 20
338.04854248695
 10
168.6821145587
 20
338.14629088455
 10
169.3001485473
 20
338.04854248695
 10
169.8576850633
 20
337.76486558815
 10
170.3001485473
 20
337.32302845975
 10
170.5842275913
 20
336.76628119815
 10
170.6821145587
 20
336.14912210435
  0
LWPOLYLINE
  5
494
330
226
100
AcDbEntity
  8
0
  6
CONTINUOUS
 62
     7
100
AcDbPolyline
 90
       11
 70
     0
 43
0.0
 10
166.6944587241
 20
336.14716420895
 10
166.7800015261
 20
336.68649563955
 10
167.0640805699
 20
337.24324290135
 10
167.5065440541
 20
337.68508002975
 10
168.0640805699
 20
337.96875692855
 10
168.6821145587
 20
338.06650532615
 10
169.3001485473
 20
337.96875692855
 10
169.8576850633
 20
337.68508002975
 10
170.3001485473
 20
337.24324290135
 10
170.5842275913
 20
336.68649563955
 10
170.6697703933
 20
336.14716420895
  0
LWPOLYLINE
  5
495
330
226
100
AcDbEntity
  8
0
  6
CONTINUOUS
 62
     7
100
AcDbPolyline
 90
       10
 70
     0
 43
0.0
 10
170.6821145587
 20
336.14912210435
 10
170.5842275913
 20
335.53196301055
 10
170.3001485473
 20
334.97521574895
 10
169.8576850633
 20
334.53337862035
 10
169.3001485473
 20
334.24970172155
 10
168.6821145587
 20
334.15195332395
 10
168.0640805699
 20
334.24970172155
 10
167.5065440541
 20
334.53337862035
 10
167.0640805699
 20
334.97521574895
 10
166.7800015261
 20
335.53196301055
  0
LINE
  5
496
330
226
100
AcDbEntity
  8
7_ALL_FEATURES
  6
CONTINUOUS
 62
     9
100
AcDbLine
 10
200.6821145587
 20
352.04462926395
 30
0.0
 11
200.6821145587
 21
326.08349264415
 31
0.0
  0
LINE
  5
497
330
226
100
AcDbEntity
  8
7_ALL_FEATURES
  6
CONTINUOUS
 62
     3
100
AcDbLine
 10
203.6821145587
 20
351.30663333335
 30
0.0
 11
203.6821145587
 21
326.08349264415
 31
0.0
  0
LINE
  5
498
330
226
100
AcDbEntity
  8
7_ALL_FEATURES
  6
CONTINUOUS
 62
     7
100
AcDbLine
 10
204.1821145587
 20
326.08349264415
 30
0.0
 11
204.1821145587
 21
322.08349264415
 31
0.0
  0
LINE
  5
499
330
226
100
AcDbEntity
  8
7_ALL_FEATURES
  6
CONTINUOUS
 62
     7
100
AcDbLine
 10
206.1821145587
 20
326.08349264415
 30
0.0
 11
206.1821145587
 21
322.08349264415
 31
0.0
  0
LWPOLYLINE
  5
49A
330
226
100
AcDbEntity
  8
0
  6
CONTINUOUS
 62
     2
100
AcDbPolyline
 90
        3
 70
     0
 43
0.3000000072
 10
316.6691648462761
 20
514.1033880887501
 10
318.3834385280762
 20
515.8176874051501
 10
318.3834385280762
 20
509.81771670195
  0
LINE
  5
49B
330
226
100
AcDbEntity
  8
0
  6
CONTINUOUS
 62
     7
100
AcDbLine
 10
273.0977355698762
 20
365.1009532427499
 30
0.0
 11
373.0977355698762
 21
365.1009532427499
 31
0.0
  0
LINE
  5
49C
330
226
100
AcDbEntity
  8
7_ALL_FEATURES
  6
CONTINUOUS
 62
     3
100
AcDbLine
 10
273.0977355698762
 20
376.5115335399499
 30
0.0
 11
273.0977355698762
 21
365.1009532427499
 31
0.0
  0
LINE
  5
49D
330
226
100
AcDbEntity
  8
06___PRT_ALL_SURFS
  6
CONTINUOUS
 62
     7
100
AcDbLine
 10
273.0977355698762
 20
376.5115335399499
 30
0.0
 11
273.0977355698762
 21
475.5115335399499
 31
0.0
  0
LINE
  5
49E
330
226
100
AcDbEntity
  8
06___PRT_ALL_SURFS
  6
CONTINUOUS
 62
     9
100
AcDbLine
 10
274.0977355698762
 20
376.5115335399499
 30
0.0
 11
274.0977355698762
 21
476.5115335399499
 31
0.0
  0
LINE
  5
49F
330
226
100
AcDbEntity
  8
7_ALL_FEATURES
  6
CONTINUOUS
 62
     9
100
AcDbLine
 10
276.0977355698762
 20
376.5115335399499
 30
0.0
 11
276.0977355698762
 21
365.1009532427499
 31
0.0
  0
LINE
  5
4A0
330
226
100
AcDbEntity
  8
7_ALL_FEATURES
  6
CONTINUOUS
 62
     3
100
AcDbLine
 10
322.0977355698762
 20
376.5115335399499
 30
0.0
 11
274.9496852726762
 21
376.5115335399499
 31
0.0
  0
LINE
  5
4A1
330
226
100
AcDbEntity
  8
06___PRT_ALL_SURFS
  6
CONTINUOUS
 62
     7
100
AcDbLine
 10
273.0977355698762
 20
376.5115335399499
 30
0.0
 11
373.0977355698762
 21
376.5115335399499
 31
0.0
  0
LINE
  5
4A2
330
226
100
AcDbEntity
  8
7_ALL_FEATURES
  6
CONTINUOUS
 62
     3
100
AcDbLine
 10
324.0977355698762
 20
376.5115335399499
 30
0.0
 11
371.2457858668762
 21
376.5115335399499
 31
0.0
  0
LWPOLYLINE
  5
4A3
330
226
100
AcDbEntity
  8
0
  6
CONTINUOUS
 62
     2
100
AcDbPolyline
 90
       13
 70
     0
 43
0.3000000072
 10
320.0977378444762
 20
511.5319647489499
 10
320.0977378444762
 20
514.1033880887501
 10
320.5262998560762
 20
514.96056338175
 10
321.3834495142762
 20
515.8176874051501
 10
321.8120115260762
 20
515.8176874051501
 10
322.6691611842762
 20
514.96056338175
 10
323.0977231958762
 20
514.1033880887501
 10
323.0977231958762
 20
511.5319647489499
 10
322.6691611842762
 20
510.67484072555
 10
321.8120115260762
 20
509.81771670195
 10
321.3834495142762
 20
509.81771670195
 10
320.5262998560762
 20
510.67484072555
 10
320.0977378444762
 20
511.5319647489499
  0
LINE
  5
4A4
330
226
100
AcDbEntity
  8
7_ALL_FEATURES
  6
CONTINUOUS
 62
     3
100
AcDbLine
 10
322.0977355698762
 20
365.1009532427499
 30
0.0
 11
322.0977355698762
 21
376.5115335399499
 31
0.0
  0
LINE
  5
4A5
330
226
100
AcDbEntity
  8
7_ALL_FEATURES
  6
CONTINUOUS
 62
     3
100
AcDbLine
 10
324.0977355698762
 20
376.5115335399499
 30
0.0
 11
324.0977355698762
 21
365.1009532427499
 31
0.0
  0
LWPOLYLINE
  5
4A6
330
226
100
AcDbEntity
  8
0
  6
CONTINUOUS
 62
     2
100
AcDbPolyline
 90
       13
 70
     0
 43
0.3000000072
 10
324.8120225122761
 20
511.5319647489499
 10
324.8120225122761
 20
514.1033880887501
 10
325.2405845240762
 20
514.96056338175
 10
326.0977341822762
 20
515.8176874051501
 10
326.5262961940762
 20
515.8176874051501
 10
327.3834458522762
 20
514.96056338175
 10
327.8120334986762
 20
514.1033880887501
 10
327.8120334986762
 20
511.5319647489499
 10
327.3834458522762
 20
510.67484072555
 10
326.5262961940762
 20
509.81771670195
 10
326.0977341822762
 20
509.81771670195
 10
325.2405845240762
 20
510.67484072555
 10
324.8120225122761
 20
511.5319647489499
  0
LINE
  5
4A7
330
226
100
AcDbEntity
  8
7_ALL_FEATURES
  6
CONTINUOUS
 62
     9
100
AcDbLine
 10
370.0977355698762
 20
365.1009532427499
 30
0.0
 11
370.0977355698762
 21
376.5115335399499
 31
0.0
  0
LINE
  5
4A8
330
226
100
AcDbEntity
  8
06___PRT_ALL_SURFS
  6
CONTINUOUS
 62
     9
100
AcDbLine
 10
372.0977355698762
 20
476.5115335399499
 30
0.0
 11
372.0977355698762
 21
376.5115335399499
 31
0.0
  0
LINE
  5
4A9
330
226
100
AcDbEntity
  8
06___PRT_ALL_SURFS
  6
CONTINUOUS
 62
     7
100
AcDbLine
 10
373.0977355698762
 20
475.5115335399499
 30
0.0
 11
373.0977355698762
 21
376.5115335399499
 31
0.0
  0
LINE
  5
4AA
330
226
100
AcDbEntity
  8
7_ALL_FEATURES
  6
CONTINUOUS
 62
     3
100
AcDbLine
 10
373.0977355698762
 20
365.1009532427499
 30
0.0
 11
373.0977355698762
 21
376.5115335399499
 31
0.0
  0
LINE
  5
4AB
330
226
100
AcDbEntity
  8
06___PRT_ALL_SURFS
  6
CONTINUOUS
 62
     9
100
AcDbLine
 10
274.0977355698762
 20
475.52462313555
 30
0.0
 11
372.0977355698762
 21
475.52462313555
 31
0.0
  0
LINE
  5
4AC
330
226
100
AcDbEntity
  8
06___PRT_ALL_SURFS
  6
CONTINUOUS
 62
     7
100
AcDbLine
 10
274.0977355698762
 20
476.5115335399499
 30
0.0
 11
372.0977355698762
 21
476.5115335399499
 31
0.0
  0
LWPOLYLINE
  5
4AD
330
226
100
AcDbEntity
  8
06___PRT_ALL_SURFS
  6
CONTINUOUS
 62
     9
100
AcDbPolyline
 90
        5
 70
     0
 43
0.0
 10
273.0977355698762
 20
475.5115335399499
 10
273.1745475094762
 20
475.51656450695
 10
273.3934517442761
 20
475.5208260861499
 10
273.7206539102762
 20
475.5236568617499
 10
274.0977355698762
 20
475.52462313555
  0
LWPOLYLINE
  5
4AE
330
226
100
AcDbEntity
  8
06___PRT_ALL_SURFS
  6
CONTINUOUS
 62
     9
100
AcDbPolyline
 90
        5
 70
     0
 43
0.0
 10
373.0977355698762
 20
475.5115335399499
 10
373.0209236334762
 20
475.5165645067499
 10
372.8020194116762
 20
475.5208260859499
 10
372.4748172482762
 20
475.52365686155
 10
372.0977355698762
 20
475.52462313555
  0
LINE
  5
4AF
330
226
100
AcDbEntity
  8
7_ALL_FEATURES
  6
CONTINUOUS
 62
     7
100
AcDbLine
 10
270.5977355698762
 20
326.0834926441499
 30
0.0
 11
270.5977355698762
 21
322.0834926441499
 31
0.0
  0
LINE
  5
4B0
330
226
100
AcDbEntity
  8
7_ALL_FEATURES
  6
CONTINUOUS
 62
     7
100
AcDbLine
 10
272.5977355698762
 20
326.0834926441499
 30
0.0
 11
272.5977355698762
 21
322.0834926441499
 31
0.0
  0
LINE
  5
4B1
330
226
100
AcDbEntity
  8
7_ALL_FEATURES
  6
CONTINUOUS
 62
     3
100
AcDbLine
 10
273.0977355698762
 20
355.1007512427499
 30
0.0
 11
273.0977355698762
 21
326.0834926441499
 31
0.0
  0
LINE
  5
4B2
330
226
100
AcDbEntity
  8
7_ALL_FEATURES
  6
CONTINUOUS
 62
     9
100
AcDbLine
 10
276.0977355698762
 20
355.1007512427499
 30
0.0
 11
276.0977355698762
 21
326.0834926441499
 31
0.0
  0
LINE
  5
4B3
330
226
100
AcDbEntity
  8
7_ALL_FEATURES
  6
CONTINUOUS
 62
     7
100
AcDbLine
 10
270.5977355698762
 20
322.0834926441499
 30
0.0
 11
375.5977355698762
 21
322.0834926441499
 31
0.0
  0
LINE
  5
4B4
330
226
100
AcDbEntity
  8
7_ALL_FEATURES
  6
CONTINUOUS
 62
     7
100
AcDbLine
 10
270.5977355698762
 20
326.0834926441499
 30
0.0
 11
375.5977355698762
 21
326.0834926441499
 31
0.0
  0
LINE
  5
4B5
330
226
100
AcDbEntity
  8
7_ALL_FEATURES
  6
CONTINUOUS
 62
     3
100
AcDbLine
 10
322.0977355698762
 20
326.0834926441499
 30
0.0
 11
322.0977355698762
 21
355.1007512427499
 31
0.0
  0
LINE
  5
4B6
330
226
100
AcDbEntity
  8
7_ALL_FEATURES
  6
CONTINUOUS
 62
     3
100
AcDbLine
 10
324.0977355698762
 20
355.1007512427499
 30
0.0
 11
324.0977355698762
 21
326.0834926441499
 31
0.0
  0
LINE
  5
4B7
330
226
100
AcDbEntity
  8
0
  6
CONTINUOUS
 62
     7
100
AcDbLine
 10
373.0977355698762
 20
355.1007512427499
 30
0.0
 11
273.0977355698762
 21
355.1007512427499
 31
0.0
  0
LINE
  5
4B8
330
226
100
AcDbEntity
  8
7_ALL_FEATURES
  6
CONTINUOUS
 62
     9
100
AcDbLine
 10
370.0977355698762
 20
326.0834926441499
 30
0.0
 11
370.0977355698762
 21
355.1007512427499
 31
0.0
  0
LINE
  5
4B9
330
226
100
AcDbEntity
  8
7_ALL_FEATURES
  6
CONTINUOUS
 62
     3
100
AcDbLine
 10
373.0977355698762
 20
326.0834926441499
 30
0.0
 11
373.0977355698762
 21
355.1007512427499
 31
0.0
  0
LINE
  5
4BA
330
226
100
AcDbEntity
  8
7_ALL_FEATURES
  6
CONTINUOUS
 62
     7
100
AcDbLine
 10
373.5977355698762
 20
326.0834926441499
 30
0.0
 11
373.5977355698762
 21
322.0834926441499
 31
0.0
  0
LINE
  5
4BB
330
226
100
AcDbEntity
  8
7_ALL_FEATURES
  6
CONTINUOUS
 62
     7
100
AcDbLine
 10
375.5977355698762
 20
326.0834926441499
 30
0.0
 11
375.5977355698762
 21
322.0834926441499
 31
0.0
  0
LINE
  5
4BD
330
226
100
AcDbEntity
  8
7_ALL_FEATURES
  6
CONTINUOUS
 62
     7
100
AcDbLine
 10
344.2216667755
 20
68.9316634348
 30
0.0
 11
368.3410533395
 21
73.941268398
 31
0.0
  0
LINE
  5
4BE
330
226
100
AcDbEntity
  8
7_ALL_FEATURES
  6
CONTINUOUS
 62
     7
100
AcDbLine
 10
344.2306092272
 20
69.7124667456
 30
0.0
 11
368.3499957913
 21
74.7220717088
 31
0.0
  0
LINE
  5
4BF
330
226
100
AcDbEntity
  8
7_ALL_FEATURES
  6
CONTINUOUS
 62
     3
100
AcDbLine
 10
344.3698432186
 20
69.8955624754
 30
0.0
 11
367.5018864731
 21
74.7000958903
 31
0.0
  0
LINE
  5
4C0
330
226
100
AcDbEntity
  8
7_ALL_FEATURES
  6
CONTINUOUS
 62
     7
100
AcDbLine
 10
344.2216667755
 20
68.9316634348
 30
0.0
 11
343.6560185563
 21
68.9375195284
 31
0.0
  0
LINE
  5
4C1
330
226
100
AcDbEntity
  8
7_ALL_FEATURES
  6
CONTINUOUS
 62
     7
100
AcDbLine
 10
343.664961008
 20
69.7183228392
 30
0.0
 11
344.2306092272
 21
69.7124667456
 31
0.0
  0
LINE
  5
4C2
330
226
100
AcDbEntity
  8
7_ALL_FEATURES
  6
CONTINUOUS
 62
     7
100
AcDbLine
 10
329.3367369558
 20
72.1921417361
 30
0.0
 11
343.6560185563
 21
68.9375195284
 31
0.0
  0
LINE
  5
4C3
330
226
100
AcDbEntity
  8
7_ALL_FEATURES
  6
CONTINUOUS
 62
     7
100
AcDbLine
 10
329.3456794075
 20
72.9729450469
 30
0.0
 11
343.664961008
 21
69.7183228392
 31
0.0
  0
LINE
  5
4C4
330
226
100
AcDbEntity
  8
7_ALL_FEATURES
  6
CONTINUOUS
 62
     3
100
AcDbLine
 10
330.1945147468
 20
72.9334009476
 30
0.0
 11
336.716167753
 21
71.4510977639
 31
0.0
  0
LINE
  5
4C5
330
226
100
AcDbEntity
  8
7_ALL_FEATURES
  6
CONTINUOUS
 62
     3
100
AcDbLine
 10
336.9997178837
 20
71.3866497994
 30
0.0
 11
343.5213708899
 21
69.9043466158
 31
0.0
  0
LINE
  5
4C6
330
226
100
AcDbEntity
  8
7_ALL_FEATURES
  6
CONTINUOUS
 62
     7
100
AcDbLine
 10
337.00041875
 20
71.4478454006
 30
0.0
 11
336.8572167972
 21
71.4803936994
 31
0.0
  0
LINE
  5
4C7
330
226
100
AcDbEntity
  8
7_ALL_FEATURES
  6
CONTINUOUS
 62
     7
100
AcDbLine
 10
336.716167753
 20
71.4510977639
 30
0.0
 11
336.8572167972
 21
71.4803936994
 31
0.0
  0
LINE
  5
4CC
330
226
100
AcDbEntity
  8
02___PRT_ALL_AXES
  6
CONTINUOUS
 62
     9
100
AcDbLine
 10
348.8934728923
 20
71.7114361346
 30
0.0
 11
348.7516978269
 21
71.7436601169
 31
0.0
  0
LINE
  5
4CD
330
226
100
AcDbEntity
  8
7_ALL_FEATURES
  6
CONTINUOUS
 62
     7
100
AcDbLine
 10
330.0200857271
 20
73.2363608987
 30
0.0
 11
329.3442273653
 21
73.0959848823
 31
0.0
  0
LINE
  5
4CE
330
226
100
AcDbEntity
  8
02___PRT_ALL_AXES
  6
CONTINUOUS
 62
     9
100
AcDbLine
 10
362.9983773157
 20
74.6410296803
 30
0.0
 11
362.8566022504
 21
74.6732536626
 31
0.0
  0
LINE
  5
4CF
330
226
100
AcDbEntity
  8
7_ALL_FEATURES
  6
CONTINUOUS
 62
     7
100
AcDbLine
 10
362.3011671532
 20
75.9435196313
 30
0.0
 11
362.3127139462
 21
75.9408951666
 31
0.0
  0
LINE
  5
4D0
330
226
100
AcDbEntity
  8
7_ALL_FEATURES
  6
CONTINUOUS
 62
     7
100
AcDbLine
 10
368.348543749
 20
74.8451115442
 30
0.0
 11
367.6788974714
 21
74.9973151049
 31
0.0
  0
LINE
  5
4D1
330
226
100
AcDbEntity
  8
7_ALL_FEATURES
  6
CONTINUOUS
 62
     7
100
AcDbLine
 10
346.3516592126
 20
224.569321873
 30
0.0
 11
346.4229241432
 21
224.6173900683
 31
0.0
  0
LINE
  5
4D3
330
226
100
AcDbEntity
  8
7_ALL_FEATURES
  6
CONTINUOUS
 62
     7
100
AcDbLine
 10
346.2429573026
 20
208.9037234387
 30
0.0
 11
346.3142222332
 21
208.9517916339
 31
0.0
  0
LINE
  5
4D4
330
226
100
AcDbEntity
  8
7_ALL_FEATURES
  6
CONTINUOUS
 62
     7
100
AcDbLine
 10
368.740279858
 20
213.5764251441
 30
0.0
 11
368.6690149273
 21
213.5283569489
 31
0.0
  0
LINE
  5
4D9
330
226
100
AcDbEntity
  8
7_ALL_FEATURES
  6
CONTINUOUS
 62
     7
100
AcDbLine
 10
329.3442273653
 20
73.0959848823
 30
0.0
 11
329.3456794075
 21
72.9729450469
 31
0.0
  0
LINE
  5
4DA
330
226
100
AcDbEntity
  8
7_ALL_FEATURES
  6
CONTINUOUS
 62
     7
100
AcDbLine
 10
329.3442273653
 20
73.0959848823
 30
0.0
 11
329.3352849136
 21
72.3151815715
 31
0.0
  0
LINE
  5
4DB
330
226
100
AcDbEntity
  8
7_ALL_FEATURES
  6
CONTINUOUS
 62
     7
100
AcDbLine
 10
329.3456794075
 20
72.9729450469
 30
0.0
 11
329.3367369558
 21
72.1921417361
 31
0.0
  0
LINE
  5
4DC
330
226
100
AcDbEntity
  8
7_ALL_FEATURES
  6
CONTINUOUS
 62
     3
100
AcDbLine
 10
331.573064448
 20
208.8335065659
 30
0.0
 11
330.0177012262
 21
73.0281600353
 31
0.0
  0
LINE
  5
4DD
330
226
100
AcDbEntity
  8
7_ALL_FEATURES
  6
CONTINUOUS
 62
     9
100
AcDbLine
 10
331.750501344
 20
208.7931770244
 30
0.0
 11
330.1945147468
 21
72.9334009476
 31
0.0
  0
LINE
  5
4DE
330
226
100
AcDbEntity
  8
06___PRT_ALL_SURFS
  6
CONTINUOUS
 62
     7
100
AcDbLine
 10
331.4080184179
 20
208.8893013973
 30
0.0
 11
331.8121784483
 21
228.2539456486
 31
0.0
  0
LINE
  5
4DF
330
226
100
AcDbEntity
  8
06___PRT_ALL_SURFS
  6
CONTINUOUS
 62
     9
100
AcDbLine
 10
331.4669512133
 20
208.8576249889
 30
0.0
 11
331.8711272056
 21
228.2230340261
 31
0.0
  0
LINE
  5
4E0
330
226
100
AcDbEntity
  8
7_ALL_FEATURES
  6
CONTINUOUS
 62
     3
100
AcDbLine
 10
336.716167753
 20
71.4510977639
 30
0.0
 11
338.2721543502
 21
207.3108738407
 31
0.0
  0
LINE
  5
4E1
330
226
100
AcDbEntity
  8
7_ALL_FEATURES
  6
CONTINUOUS
 62
     7
100
AcDbLine
 10
336.8572167972
 20
71.4803936994
 30
0.0
 11
338.4125025281
 21
207.278974175
 31
0.0
  0
LINE
  5
4E2
330
226
100
AcDbEntity
  8
7_ALL_FEATURES
  6
CONTINUOUS
 62
     3
100
AcDbLine
 10
338.5557044809
 20
207.2464258762
 30
0.0
 11
336.9997178837
 21
71.3866497994
 31
0.0
  0
LINE
  5
4E3
330
226
100
AcDbEntity
  8
7_ALL_FEATURES
  6
CONTINUOUS
 62
     9
100
AcDbLine
 10
343.5213708899
 20
69.9043466158
 30
0.0
 11
345.077357487
 21
205.7641226925
 31
0.0
  0
LINE
  5
4E4
330
226
100
AcDbEntity
  8
06___PRT_ALL_SURFS
  6
CONTINUOUS
 62
     9
100
AcDbLine
 10
345.76508361
 20
225.0650837653
 30
0.0
 11
345.3609076177
 21
205.699674728
 31
0.0
  0
LINE
  5
4E5
330
226
100
AcDbEntity
  8
7_ALL_FEATURES
  6
CONTINUOUS
 62
     7
100
AcDbLine
 10
346.4233015411
 20
224.6815702546
 30
0.0
 11
346.4229241432
 21
224.6173900683
 31
0.0
  0
LINE
  5
4E6
330
226
100
AcDbEntity
  8
7_ALL_FEATURES
  6
CONTINUOUS
 62
     7
100
AcDbLine
 10
343.664961008
 20
69.7183228392
 30
0.0
 11
343.6560185563
 21
68.9375195284
 31
0.0
  0
LINE
  5
4E7
330
226
100
AcDbEntity
  8
7_ALL_FEATURES
  6
CONTINUOUS
 62
     7
100
AcDbLine
 10
344.2306092272
 20
69.7124667456
 30
0.0
 11
344.2216667755
 21
68.9316634348
 31
0.0
  0
LINE
  5
4E8
330
226
100
AcDbEntity
  8
7_ALL_FEATURES
  6
CONTINUOUS
 62
     9
100
AcDbLine
 10
344.3698432186
 20
69.8955624754
 30
0.0
 11
345.9258298158
 21
205.7553385521
 31
0.0
  0
LINE
  5
4E9
330
226
100
AcDbEntity
  8
06___PRT_ALL_SURFS
  6
CONTINUOUS
 62
     9
100
AcDbLine
 10
346.1044712412
 20
208.9082262801
 30
0.0
 11
346.2833202753
 21
224.5242924958
 31
0.0
  0
LINE
  5
4EA
330
226
100
AcDbEntity
  8
06___PRT_ALL_SURFS
  6
CONTINUOUS
 62
     7
100
AcDbLine
 10
346.1335771507
 20
208.9231930576
 30
0.0
 11
346.3124261849
 21
224.5392592734
 31
0.0
  0
LINE
  5
4EB
330
226
100
AcDbEntity
  8
7_ALL_FEATURES
  6
CONTINUOUS
 62
     7
100
AcDbLine
 10
346.3516592126
 20
224.569321873
 30
0.0
 11
346.1728101784
 21
208.9532556573
 31
0.0
  0
LINE
  5
4EC
330
226
100
AcDbEntity
  8
7_ALL_FEATURES
  6
CONTINUOUS
 62
     7
100
AcDbLine
 10
346.4930712674
 20
224.5678578496
 30
0.0
 11
346.3142222332
 21
208.9517916339
 31
0.0
  0
LINE
  5
4ED
330
226
100
AcDbEntity
  8
06___PRT_ALL_SURFS
  6
CONTINUOUS
 62
     9
100
AcDbLine
 10
346.0478663723
 20
225.0595981087
 30
0.0
 11
345.6437438124
 21
205.6967491913
 31
0.0
  0
LINE
  5
4EE
330
226
100
AcDbEntity
  8
7_ALL_FEATURES
  6
CONTINUOUS
 62
     7
100
AcDbLine
 10
346.2422168941
 20
208.8703032112
 30
0.0
 11
346.2429573026
 21
208.9037234387
 31
0.0
  0
LINE
  5
4EF
330
226
100
AcDbEntity
  8
06___PRT_ALL_SURFS
  6
CONTINUOUS
 62
     7
100
AcDbLine
 10
357.0513835021
 20
209.6042111134
 30
0.0
 11
357.0513269527
 21
209.624000091
 31
0.0
  0
LINE
  5
4F0
330
226
100
AcDbEntity
  8
7_ALL_FEATURES
  6
CONTINUOUS
 62
     7
100
AcDbLine
 10
368.3499957913
 20
74.7220717088
 30
0.0
 11
368.348543749
 21
74.8451115442
 31
0.0
  0
LINE
  5
4F1
330
226
100
AcDbEntity
  8
06___PRT_ALL_SURFS
  6
CONTINUOUS
 62
     9
100
AcDbLine
 10
369.3399590736
 20
210.6184613279
 30
0.0
 11
369.3784878732
 21
229.9053762944
 31
0.0
  0
LINE
  5
4F2
330
226
100
AcDbEntity
  8
06___PRT_ALL_SURFS
  6
CONTINUOUS
 62
     7
100
AcDbLine
 10
369.3981800196
 20
210.6484888394
 30
0.0
 11
369.4367124088
 21
229.9372007444
 31
0.0
  0
LINE
  5
4F3
330
226
100
AcDbEntity
  8
7_ALL_FEATURES
  6
CONTINUOUS
 62
     7
100
AcDbLine
 10
368.9202466986
 20
229.2900917737
 30
0.0
 11
368.9198693006
 21
229.2259115873
 31
0.0
  0
LINE
  5
4F4
330
226
100
AcDbEntity
  8
7_ALL_FEATURES
  6
CONTINUOUS
 62
     7
100
AcDbLine
 10
368.7410202665
 20
213.6098453716
 30
0.0
 11
368.9198693006
 21
229.2259115873
 31
0.0
  0
LINE
  5
4F5
330
226
100
AcDbEntity
  8
06___PRT_ALL_SURFS
  6
CONTINUOUS
 62
     9
100
AcDbLine
 10
368.9900880241
 20
229.2705242213
 30
0.0
 11
368.81123899
 21
213.6544580056
 31
0.0
  0
LINE
  5
4F6
330
226
100
AcDbEntity
  8
06___PRT_ALL_SURFS
  6
CONTINUOUS
 62
     9
100
AcDbLine
 10
369.1296202927
 20
229.2694769412
 30
0.0
 11
368.9507712585
 21
213.6534107255
 31
0.0
  0
LINE
  5
4F7
330
226
100
AcDbEntity
  8
7_ALL_FEATURES
  6
CONTINUOUS
 62
     9
100
AcDbLine
 10
369.0578730702
 20
210.5598719671
 30
0.0
 11
367.5018864731
 21
74.7000958903
 31
0.0
  0
LINE
  5
4F8
330
226
100
AcDbEntity
  8
7_ALL_FEATURES
  6
CONTINUOUS
 62
     3
100
AcDbLine
 10
369.2318940062
 20
210.5960161759
 30
0.0
 11
367.6765219303
 21
74.7898965558
 31
0.0
  0
LINE
  5
4F9
330
226
100
AcDbEntity
  8
7_ALL_FEATURES
  6
CONTINUOUS
 62
     7
100
AcDbLine
 10
368.3499957913
 20
74.7220717088
 30
0.0
 11
368.3410533395
 21
73.941268398
 31
0.0
  0
LINE
  5
4FA
330
226
100
AcDbEntity
  8
7_ALL_FEATURES
  6
CONTINUOUS
 62
     7
100
AcDbLine
 10
368.7410202665
 20
213.6098453716
 30
0.0
 11
368.740279858
 21
213.5764251441
 31
0.0
  0
LINE
  5
4FC
330
226
100
AcDbEntity
  8
7_ALL_FEATURES
  6
CONTINUOUS
 62
     7
100
AcDbLine
 10
346.1728101784
 20
208.9532556573
 30
0.0
 11
346.2429573026
 21
208.9037234387
 31
0.0
  0
LINE
  5
4FD
330
226
100
AcDbEntity
  8
7_ALL_FEATURES
  6
CONTINUOUS
 62
     3
100
AcDbLine
 10
369.0578730702
 20
210.5598719671
 30
0.0
 11
345.9258298158
 21
205.7553385521
 31
0.0
  0
LINE
  5
4FE
330
226
100
AcDbEntity
  8
06___PRT_ALL_SURFS
  6
CONTINUOUS
 62
     7
100
AcDbLine
 10
345.6437438124
 20
205.6967491913
 30
0.0
 11
369.3399590736
 21
210.6184613279
 31
0.0
  0
LINE
  5
4FF
330
226
100
AcDbEntity
  8
06___PRT_ALL_SURFS
  6
CONTINUOUS
 62
     9
100
AcDbLine
 10
368.7376957347
 20
213.3195664301
 30
0.0
 11
346.3108977014
 21
208.6615126925
 31
0.0
  0
LINE
  5
500
330
226
100
AcDbEntity
  8
06___PRT_ALL_SURFS
  6
CONTINUOUS
 62
     9
100
AcDbLine
 10
368.6697812447
 20
213.4328236271
 30
0.0
 11
346.2429832114
 21
208.7747698895
 31
0.0
  0
LINE
  5
501
330
226
100
AcDbEntity
  8
7_ALL_FEATURES
  6
CONTINUOUS
 62
     3
100
AcDbLine
 10
345.077357487
 20
205.7641226925
 30
0.0
 11
338.5557044809
 21
207.2464258762
 31
0.0
  0
LINE
  5
502
330
226
100
AcDbEntity
  8
7_ALL_FEATURES
  6
CONTINUOUS
 62
     3
100
AcDbLine
 10
338.2721543502
 20
207.3108738407
 30
0.0
 11
331.750501344
 21
208.7931770244
 31
0.0
  0
LINE
  5
503
330
226
100
AcDbEntity
  8
06___PRT_ALL_SURFS
  6
CONTINUOUS
 62
     7
100
AcDbLine
 10
331.4669512133
 20
208.8576249889
 30
0.0
 11
345.3609076177
 21
205.699674728
 31
0.0
  0
LINE
  5
504
330
226
100
AcDbEntity
  8
7_ALL_FEATURES
  6
CONTINUOUS
 62
     7
100
AcDbLine
 10
346.1363374934
 20
208.8943684861
 30
0.0
 11
346.2422168941
 21
208.8703032112
 31
0.0
  0
LINE
  5
505
330
226
100
AcDbEntity
  8
7_ALL_FEATURES
  6
CONTINUOUS
 62
     7
100
AcDbLine
 10
346.1340224235
 20
208.9620717064
 30
0.0
 11
346.1728101784
 21
208.9532556573
 31
0.0
  0
LINE
  5
506
330
226
100
AcDbEntity
  8
06___PRT_ALL_SURFS
  6
CONTINUOUS
 62
     9
100
AcDbLine
 10
346.1732398247
 20
208.7931439213
 30
0.0
 11
346.2429832114
 21
208.7747698895
 31
0.0
  0
LINE
  5
507
330
226
100
AcDbEntity
  8
7_ALL_FEATURES
  6
CONTINUOUS
 62
     7
100
AcDbLine
 10
346.2422168941
 20
208.8703032112
 30
0.0
 11
368.6690149273
 21
213.5283569489
 31
0.0
  0
LINE
  5
508
330
226
100
AcDbEntity
  8
7_ALL_FEATURES
  6
CONTINUOUS
 62
     7
100
AcDbLine
 10
346.3142222332
 20
208.9517916339
 30
0.0
 11
368.7410202665
 21
213.6098453716
 31
0.0
  0
LINE
  5
509
330
226
100
AcDbEntity
  8
06___PRT_ALL_SURFS
  6
CONTINUOUS
 62
     9
100
AcDbLine
 10
346.2429832114
 20
208.7747698895
 30
0.0
 11
346.1981712192
 21
208.7757448467
 31
0.0
  0
LINE
  5
50A
330
226
100
AcDbEntity
  8
7_ALL_FEATURES
  6
CONTINUOUS
 62
     7
100
AcDbLine
 10
357.2391808755
 20
209.5803491829
 30
0.0
 11
357.0554514903
 21
209.6221089411
 31
0.0
  0
LINE
  5
50B
330
226
100
AcDbEntity
  8
7_ALL_FEATURES
  6
CONTINUOUS
 62
     7
100
AcDbLine
 10
357.3437687713
 20
209.8454927378
 30
0.0
 11
357.1019384693
 21
209.9004582237
 31
0.0
  0
LINE
  5
50C
330
226
100
AcDbEntity
  8
7_ALL_FEATURES
  6
CONTINUOUS
 62
     7
100
AcDbLine
 10
346.4229241432
 20
224.6173900683
 30
0.0
 11
346.4930712674
 21
224.5678578496
 31
0.0
  0
LINE
  5
50D
330
226
100
AcDbEntity
  8
06___PRT_ALL_SURFS
  6
CONTINUOUS
 62
     9
100
AcDbLine
 10
368.7417034237
 20
213.66949472
 30
0.0
 11
368.81123899
 21
213.6544580056
 31
0.0
  0
LINE
  5
50E
330
226
100
AcDbEntity
  8
06___PRT_ALL_SURFS
  6
CONTINUOUS
 62
     9
100
AcDbLine
 10
368.4666781614
 20
213.4863315323
 30
0.0
 11
368.6697812447
 21
213.4328236271
 31
0.0
  0
LINE
  5
50F
330
226
100
AcDbEntity
  8
7_ALL_FEATURES
  6
CONTINUOUS
 62
     7
100
AcDbLine
 10
368.9198693006
 20
229.2259115873
 30
0.0
 11
346.4930712674
 21
224.5678578496
 31
0.0
  0
LINE
  5
510
330
226
100
AcDbEntity
  8
7_ALL_FEATURES
  6
CONTINUOUS
 62
     7
100
AcDbLine
 10
368.8500995744
 20
229.3396239923
 30
0.0
 11
346.4233015411
 21
224.6815702546
 31
0.0
  0
LINE
  5
511
330
226
100
AcDbEntity
  8
06___PRT_ALL_SURFS
  6
CONTINUOUS
 62
     7
100
AcDbLine
 10
346.4458442902
 20
224.7763383837
 30
0.0
 11
368.8726423235
 21
229.4343921214
 31
0.0
  0
LINE
  5
512
330
226
100
AcDbEntity
  8
06___PRT_ALL_SURFS
  6
CONTINUOUS
 62
     9
100
AcDbLine
 10
346.4963957991
 20
224.8581367911
 30
0.0
 11
368.9231938324
 21
229.5161905288
 31
0.0
  0
LINE
  5
513
330
226
100
AcDbEntity
  8
06___PRT_ALL_SURFS
  6
CONTINUOUS
 62
     9
100
AcDbLine
 10
369.3784878732
 20
229.9053762944
 30
0.0
 11
346.0478663723
 21
225.0595981087
 31
0.0
  0
LINE
  5
514
330
226
100
AcDbEntity
  8
06___PRT_ALL_SURFS
  6
CONTINUOUS
 62
     9
100
AcDbLine
 10
369.2389484208
 20
230.1328011044
 30
0.0
 11
345.9083269199
 21
225.2870229187
 31
0.0
  0
LINE
  5
515
330
226
100
AcDbEntity
  8
7_ALL_FEATURES
  6
CONTINUOUS
 62
     7
100
AcDbLine
 10
346.3170641124
 20
224.5771849757
 30
0.0
 11
346.3516592126
 21
224.569321873
 31
0.0
  0
LINE
  5
516
330
226
100
AcDbEntity
  8
7_ALL_FEATURES
  6
CONTINUOUS
 62
     7
100
AcDbLine
 10
346.3575915846
 20
224.6965054371
 30
0.0
 11
346.4233015411
 21
224.6815702546
 31
0.0
  0
LINE
  5
517
330
226
100
AcDbEntity
  8
06___PRT_ALL_SURFS
  6
CONTINUOUS
 62
     9
100
AcDbLine
 10
331.8711272056
 20
228.2230340261
 30
0.0
 11
345.76508361
 21
225.0650837653
 31
0.0
  0
LINE
  5
518
330
226
100
AcDbEntity
  8
06___PRT_ALL_SURFS
  6
CONTINUOUS
 62
     9
100
AcDbLine
 10
332.0143705155
 20
228.4449731796
 30
0.0
 11
345.9083269199
 21
225.2870229187
 31
0.0
  0
LINE
  5
519
330
226
100
AcDbEntity
  8
06___PRT_ALL_SURFS
  6
CONTINUOUS
 62
     9
100
AcDbLine
 10
332.0143705155
 20
228.4449731796
 30
0.0
 11
355.3449920164
 21
233.2907513652
 31
0.0
  0
LINE
  5
51A
330
226
100
AcDbEntity
  8
06___PRT_ALL_SURFS
  6
CONTINUOUS
 62
     7
100
AcDbLine
 10
331.971462855
 20
228.4455931489
 30
0.0
 11
355.3021748995
 21
233.2913900951
 31
0.0
  0
LINE
  5
51B
330
226
100
AcDbEntity
  8
06___PRT_ALL_SURFS
  6
CONTINUOUS
 62
     9
100
AcDbLine
 10
369.2810401371
 20
230.1326261413
 30
0.0
 11
369.2389484208
 21
230.1328011044
 31
0.0
  0
LINE
  5
51C
330
226
100
AcDbEntity
  8
06___PRT_ALL_SURFS
  6
CONTINUOUS
 62
     9
100
AcDbLine
 10
355.3449920164
 20
233.2907513652
 30
0.0
 11
355.3870837299
 21
233.2905764028
 31
0.0
  0
LINE
  5
51D
330
226
100
AcDbEntity
  8
06___PRT_ALL_SURFS
  6
CONTINUOUS
 62
     9
100
AcDbLine
 10
355.3021748995
 20
233.2913900951
 30
0.0
 11
355.3449920164
 21
233.2907513652
 31
0.0
  0
LINE
  5
51E
330
226
100
AcDbEntity
  8
06___PRT_ALL_SURFS
  6
CONTINUOUS
 62
     9
100
AcDbLine
 10
331.9717893569
 20
228.4456603738
 30
0.0
 11
332.0143705155
 21
228.4449731796
 31
0.0
  0
LINE
  5
51F
330
226
100
AcDbEntity
  8
06___PRT_ALL_SURFS
  6
CONTINUOUS
 62
     9
100
AcDbLine
 10
368.9193243561
 20
229.2858265065
 30
0.0
 11
368.9900880241
 21
229.2705242213
 31
0.0
  0
LINE
  5
520
330
226
100
AcDbEntity
  8
7_ALL_FEATURES
  6
CONTINUOUS
 62
     7
100
AcDbLine
 10
368.6430005007
 20
229.3866954351
 30
0.0
 11
368.8500995744
 21
229.3396239923
 31
0.0
  0
LINE
  5
521
330
226
100
AcDbEntity
  8
06___PRT_ALL_SURFS
  6
CONTINUOUS
 62
     9
100
AcDbLine
 10
369.2389484208
 20
230.1328011044
 30
0.0
 11
355.3449920164
 21
233.2907513652
 31
0.0
  0
LINE
  5
522
330
226
100
AcDbEntity
  8
06___PRT_ALL_SURFS
  6
CONTINUOUS
 62
     7
100
AcDbLine
 10
369.2810401371
 20
230.1326261413
 30
0.0
 11
355.3870837327
 21
233.2905764022
 31
0.0
  0
LINE
  5
523
330
226
100
AcDbEntity
  8
7_ALL_FEATURES
  6
CONTINUOUS
 62
     7
100
AcDbLine
 10
368.8500995744
 20
229.3396239923
 30
0.0
 11
368.9202466986
 21
229.2900917737
 31
0.0
  0
ARC
  5
524
330
226
100
AcDbEntity
  8
06___PRT_ALL_SURFS
  6
CONTINUOUS
 62
     7
100
AcDbCircle
 10
35.97822388229999
 20
163.06497043495
 30
0.0
 40
0.999956981
100
AcDbArc
 50
90.00244391409987
 51
180.0024649645982
  0
ARC
  5
525
330
226
100
AcDbEntity
  8
06___PRT_ALL_SURFS
  6
CONTINUOUS
 62
     7
100
AcDbCircle
 10
201.3860052349
 20
163.06497043495
 30
0.0
 40
0.999956981
100
AcDbArc
 50
359.9975350354018
 51
89.99755608590014
  0
ARC
  5
526
330
226
100
AcDbEntity
  8
06___PRT_ALL_SURFS
  6
CONTINUOUS
 62
     7
100
AcDbCircle
 10
201.3860052349
 20
65.06488439515
 30
0.0
 40
0.999956981
100
AcDbArc
 50
270.0024439140999
 51
0.0024649645998734
  0
ARC
  5
527
330
226
100
AcDbEntity
  8
06___PRT_ALL_SURFS
  6
CONTINUOUS
 62
     7
100
AcDbCircle
 10
35.97822388229999
 20
65.06488439515
 30
0.0
 40
0.999956981
100
AcDbArc
 50
179.9975350354001
 51
269.9975560859001
  0
ARC
  5
528
330
226
100
AcDbEntity
  8
06___PRT_ALL_SURFS
  6
CONTINUOUS
 62
     9
100
AcDbCircle
 10
39.1821145587
 20
392.51153353995
 30
0.0
 40
1.4870784354
100
AcDbArc
 50
180.0
 51
270.0
  0
ARC
  5
529
330
226
100
AcDbEntity
  8
06___PRT_ALL_SURFS
  6
CONTINUOUS
 62
     9
100
AcDbCircle
 10
39.1821145587
 20
392.51153353995
 30
0.0
 40
0.987249773
100
AcDbArc
 50
180.0
 51
270.0
  0
ARC
  5
52A
330
226
100
AcDbEntity
  8
06___PRT_ALL_SURFS
  6
CONTINUOUS
 62
     9
100
AcDbCircle
 10
39.1821145587
 20
392.51153353995
 30
0.0
 40
0.879202027
100
AcDbArc
 50
180.0
 51
270.0
  0
ARC
  5
52B
330
226
100
AcDbEntity
  8
06___PRT_ALL_SURFS
  6
CONTINUOUS
 62
     9
100
AcDbCircle
 10
39.1821145587
 20
392.51153353995
 30
0.0
 40
0.3793733646
100
AcDbArc
 50
202.4153245244966
 51
247.4725836383006
  0
ARC
  5
52C
330
226
100
AcDbEntity
  8
06___PRT_ALL_SURFS
  6
CONTINUOUS
 62
     9
100
AcDbCircle
 10
39.1821145587
 20
472.51153353995
 30
0.0
 40
1.4870784354
100
AcDbArc
 50
90.0
 51
180.0
  0
ARC
  5
52D
330
226
100
AcDbEntity
  8
06___PRT_ALL_SURFS
  6
CONTINUOUS
 62
     7
100
AcDbCircle
 10
35.9781812299
 20
475.51153353995
 30
0.0
 40
1.0
100
AcDbArc
 50
90.0
 51
179.2499999999976
  0
ARC
  5
52E
330
226
100
AcDbEntity
  8
06___PRT_ALL_SURFS
  6
CONTINUOUS
 62
     9
100
AcDbCircle
 10
39.1821145587
 20
472.51153353995
 30
0.0
 40
0.987249773
100
AcDbArc
 50
90.0
 51
180.0
  0
ARC
  5
52F
330
226
100
AcDbEntity
  8
06___PRT_ALL_SURFS
  6
CONTINUOUS
 62
     9
100
AcDbCircle
 10
39.1821145587
 20
472.51153353995
 30
0.0
 40
0.879202027
100
AcDbArc
 50
90.0
 51
180.0
  0
ARC
  5
530
330
226
100
AcDbEntity
  8
06___PRT_ALL_SURFS
  6
CONTINUOUS
 62
     9
100
AcDbCircle
 10
39.1821145587
 20
472.51153353995
 30
0.0
 40
0.3793733646
100
AcDbArc
 50
112.4153245245014
 51
157.4725836383009
  0
CIRCLE
  5
531
330
226
100
AcDbEntity
  8
06___PRT_ALL_SURFS
  6
CONTINUOUS
 62
     7
100
AcDbCircle
 10
118.6821145587
 20
384.51153353995
 30
0.0
 40
3.25
  0
CIRCLE
  5
532
330
226
100
AcDbEntity
  8
06___PRT_ALL_SURFS
  6
CONTINUOUS
 62
     7
100
AcDbCircle
 10
118.6821145587
 20
384.51153353995
 30
0.0
 40
2.75
  0
CIRCLE
  5
533
330
226
100
AcDbEntity
  8
06___PRT_ALL_SURFS
  6
CONTINUOUS
 62
     7
100
AcDbCircle
 10
118.6821145587
 20
384.51153353995
 30
0.0
 40
2.0
  0
CIRCLE
  5
534
330
226
100
AcDbEntity
  8
7_ALL_FEATURES
  6
CONTINUOUS
 62
     7
100
AcDbCircle
 10
118.6821145587
 20
384.51153353995
 30
0.0
 40
1.55
  0
ARC
  5
535
330
226
100
AcDbEntity
  8
06___PRT_ALL_SURFS
  6
CONTINUOUS
 62
     9
100
AcDbCircle
 10
198.1821145587
 20
392.51153353995
 30
0.0
 40
1.4870784354
100
AcDbArc
 50
270.0
 51
0.0
  0
ARC
  5
536
330
226
100
AcDbEntity
  8
06___PRT_ALL_SURFS
  6
CONTINUOUS
 62
     9
100
AcDbCircle
 10
198.1821145587
 20
392.51153353995
 30
0.0
 40
0.987249773
100
AcDbArc
 50
270.0
 51
0.0
  0
ARC
  5
537
330
226
100
AcDbEntity
  8
06___PRT_ALL_SURFS
  6
CONTINUOUS
 62
     9
100
AcDbCircle
 10
198.1821145587
 20
392.51153353995
 30
0.0
 40
0.879202027
100
AcDbArc
 50
270.0
 51
0.0
  0
ARC
  5
538
330
226
100
AcDbEntity
  8
06___PRT_ALL_SURFS
  6
CONTINUOUS
 62
     9
100
AcDbCircle
 10
198.1821145587
 20
392.51153353995
 30
0.0
 40
0.3793733646
100
AcDbArc
 50
292.4153245245978
 51
337.472583638301
  0
ARC
  5
539
330
226
100
AcDbEntity
  8
06___PRT_ALL_SURFS
  6
CONTINUOUS
 62
     9
100
AcDbCircle
 10
198.1821145587
 20
472.51153353995
 30
0.0
 40
1.4870784354
100
AcDbArc
 50
0.0
 51
90.0
  0
ARC
  5
53A
330
226
100
AcDbEntity
  8
06___PRT_ALL_SURFS
  6
CONTINUOUS
 62
     7
100
AcDbCircle
 10
201.3860478875
 20
475.51153353995
 30
0.0
 40
1.0
100
AcDbArc
 50
0.7500000018003747
 51
89.99999999779997
  0
ARC
  5
53B
330
226
100
AcDbEntity
  8
06___PRT_ALL_SURFS
  6
CONTINUOUS
 62
     9
100
AcDbCircle
 10
198.1821145587
 20
472.51153353995
 30
0.0
 40
0.987249773
100
AcDbArc
 50
0.0
 51
90.0
  0
ARC
  5
53C
330
226
100
AcDbEntity
  8
06___PRT_ALL_SURFS
  6
CONTINUOUS
 62
     9
100
AcDbCircle
 10
198.1821145587
 20
472.51153353995
 30
0.0
 40
0.879202027
100
AcDbArc
 50
0.0
 51
90.0
  0
ARC
  5
53D
330
226
100
AcDbEntity
  8
06___PRT_ALL_SURFS
  6
CONTINUOUS
 62
     9
100
AcDbCircle
 10
198.1821145587
 20
472.51153353995
 30
0.0
 40
0.3793733646
100
AcDbArc
 50
22.4153245244958
 51
67.4725836383026
  0
CIRCLE
  5
53E
330
226
100
AcDbEntity
  8
02___PRT_ALL_AXES
  6
CONTINUOUS
 62
     3
100
AcDbCircle
 10
68.6821145587
 20
336.08349264415
 30
0.0
 40
5.5
  0
CIRCLE
  5
53F
330
226
100
AcDbEntity
  8
02___PRT_ALL_AXES
  6
CONTINUOUS
 62
     3
100
AcDbCircle
 10
168.6821145587
 20
336.08349264415
 30
0.0
 40
5.5
  0
CIRCLE
  5
540
330
226
100
AcDbEntity
  8
02___PRT_ALL_AXES
  6
CONTINUOUS
 62
     3
100
AcDbCircle
 10
68.6821145587
 20
336.08349264415
 30
0.0
 40
5.25
  0
CIRCLE
  5
541
330
226
100
AcDbEntity
  8
02___PRT_ALL_AXES
  6
CONTINUOUS
 62
     3
100
AcDbCircle
 10
168.6821145587
 20
336.08349264415
 30
0.0
 40
5.25
  0
CIRCLE
  5
542
330
226
100
AcDbEntity
  8
02___PRT_ALL_AXES
  6
CONTINUOUS
 62
     7
100
AcDbCircle
 10
168.6821145587
 20
336.08349264415
 30
0.0
 40
3.75
  0
CIRCLE
  5
543
330
226
100
AcDbEntity
  8
02___PRT_ALL_AXES
  6
CONTINUOUS
 62
     7
100
AcDbCircle
 10
68.6821145587
 20
336.08349264415
 30
0.0
 40
3.75
  0
ARC
  5
544
330
226
100
AcDbEntity
  8
06___PRT_ALL_SURFS
  6
CONTINUOUS
 62
     7
100
AcDbCircle
 10
372.0977355698762
 20
475.5115335399499
 30
0.0
 40
1.0
100
AcDbArc
 50
0.0
 51
90.0
  0
ARC
  5
545
330
226
100
AcDbEntity
  8
06___PRT_ALL_SURFS
  6
CONTINUOUS
 62
     7
100
AcDbCircle
 10
274.0977355698762
 20
475.5115335399499
 30
0.0
 40
1.0
100
AcDbArc
 50
90.0
 51
180.0
  0
ARC
  5
546
330
226
100
AcDbEntity
  8
02___PRT_ALL_AXES
  6
CONTINUOUS
 62
     3
100
AcDbCircle
 10
349.7193635684
 20
72.6001356764
 30
0.0
 40
1.5897159251
100
AcDbArc
 50
158.5180574083
 51
175.2618004572
  0
ARC
  5
547
330
226
100
AcDbEntity
  8
02___PRT_ALL_AXES
  6
CONTINUOUS
 62
     3
100
AcDbCircle
 10
349.0689416628
 20
72.4819652556
 30
0.0
 40
0.9202575428
100
AcDbArc
 50
203.9294822741
 51
208.3319590847
  0
ARC
  5
548
330
226
100
AcDbEntity
  8
02___PRT_ALL_AXES
  6
CONTINUOUS
 62
     7
100
AcDbCircle
 10
348.6355351047
 20
72.3010001236
 30
0.0
 40
0.5693168372
100
AcDbArc
 50
272.4961240682
 51
281.7732368934
  0
ARC
  5
549
330
226
100
AcDbEntity
  8
02___PRT_ALL_AXES
  6
CONTINUOUS
 62
     3
100
AcDbCircle
 10
349.0342273567
 20
73.3013052326
 30
0.0
 40
0.5693168372
100
AcDbArc
 50
92.49612406830002
 51
101.7732368934
  0
ARC
  5
54A
330
226
100
AcDbEntity
  8
02___PRT_ALL_AXES
  6
CONTINUOUS
 62
     3
100
AcDbCircle
 10
349.0326875199
 20
73.329115214
 30
0.0
 40
0.541466279
100
AcDbArc
 50
84.7992437945
 51
92.4615009871
  0
ARC
  5
54B
330
226
100
AcDbEntity
  8
0
  6
CONTINUOUS
 62
     7
100
AcDbCircle
 10
347.676127523
 20
73.0481624771
 30
0.0
 40
0.5362205813
100
AcDbArc
 50
1.5462319802
 51
2.4184884372
  0
ARC
  5
54C
330
226
100
AcDbEntity
  8
02___PRT_ALL_AXES
  6
CONTINUOUS
 62
     3
100
AcDbCircle
 10
348.7778643464
 20
72.2264242043
 30
0.0
 40
0.5268964525
100
AcDbArc
 50
257.2204067023
 51
266.9508340494
  0
ARC
  5
54D
330
226
100
AcDbEntity
  8
02___PRT_ALL_AXES
  6
CONTINUOUS
 62
     3
100
AcDbCircle
 10
349.0340837283
 20
73.346174248
 30
0.0
 40
0.5243509364
100
AcDbArc
 50
77.2033165822
 51
84.7822121081
  0
ARC
  5
54E
330
226
100
AcDbEntity
  8
02___PRT_ALL_AXES
  6
CONTINUOUS
 62
     3
100
AcDbCircle
 10
348.7769277169
 20
72.2192059527
 30
0.0
 40
0.519665675
100
AcDbArc
 50
248.5600824618
 51
253.4483456313
  0
ARC
  5
54F
330
226
100
AcDbEntity
  8
02___PRT_ALL_AXES
  6
CONTINUOUS
 62
     3
100
AcDbCircle
 10
348.7757449733
 20
72.2156323842
 30
0.0
 40
0.5159032568
100
AcDbArc
 50
253.4611949228
 51
257.184835474
  0
ARC
  5
550
330
226
100
AcDbEntity
  8
02___PRT_ALL_AXES
  6
CONTINUOUS
 62
     3
100
AcDbCircle
 10
349.0357925535
 20
73.3544489898
 30
0.0
 40
0.5159032568
100
AcDbArc
 50
73.46119492269999
 51
77.1848354741
  0
ARC
  5
551
330
226
100
AcDbEntity
  8
06___PRT_ALL_SURFS
  6
CONTINUOUS
 62
     9
100
AcDbCircle
 10
346.7121128743
 20
224.5180214082
 30
0.0
 40
0.4288706362
100
AcDbArc
 50
166.9028845368
 51
176.7494157389
  0
ARC
  5
552
330
226
100
AcDbEntity
  8
06___PRT_ALL_SURFS
  6
CONTINUOUS
 62
     9
100
AcDbCircle
 10
346.6884086895
 20
224.5195899643
 30
0.0
 40
0.4051157083
100
AcDbArc
 50
176.7808041237
 51
179.3349029634
  0
ARC
  5
553
330
226
100
AcDbEntity
  8
06___PRT_ALL_SURFS
  6
CONTINUOUS
 62
     9
100
AcDbCircle
 10
346.4998389029
 20
208.9036950466
 30
0.0
 40
0.3953936267
100
AcDbArc
 50
179.3433727303
 51
180.350473817
  0
ARC
  5
554
330
226
100
AcDbEntity
  8
06___PRT_ALL_SURFS
  6
CONTINUOUS
 62
     9
100
AcDbCircle
 10
332.1624915085
 20
228.2157130433
 30
0.0
 40
0.2914939031
100
AcDbArc
 50
163.3394039503
 51
174.4368173672
  0
ARC
  5
555
330
226
100
AcDbEntity
  8
06___PRT_ALL_SURFS
  6
CONTINUOUS
 62
     7
100
AcDbCircle
 10
346.4213427527
 20
208.9197130828
 30
0.0
 40
0.2877866431
100
AcDbArc
 50
179.3071508465
 51
185.2799840282
  0
ARC
  5
556
330
226
100
AcDbEntity
  8
06___PRT_ALL_SURFS
  6
CONTINUOUS
 62
     9
100
AcDbCircle
 10
332.1471165016
 20
228.2171500698
 30
0.0
 40
0.2760520105
100
AcDbArc
 50
174.4243128708
 51
178.7786671208
  0
ARC
  5
557
330
226
100
AcDbEntity
  8
06___PRT_ALL_SURFS
  6
CONTINUOUS
 62
     7
100
AcDbCircle
 10
332.0127037348
 20
228.2481290208
 30
0.0
 40
0.2017208545
100
AcDbArc
 50
101.7021887468
 51
117.3407392184
  0
ARC
  5
558
330
226
100
AcDbEntity
  8
06___PRT_ALL_SURFS
  6
CONTINUOUS
 62
     7
100
AcDbCircle
 10
332.0122249497
 20
228.2497125351
 30
0.0
 40
0.2000945639
100
AcDbArc
 50
117.4272086976
 51
175.3820347958
  0
ARC
  5
559
330
226
100
AcDbEntity
  8
06___PRT_ALL_SURFS
  6
CONTINUOUS
 62
     7
100
AcDbCircle
 10
332.0112044731
 20
228.2499876475
 30
0.0
 40
0.1990553431
100
AcDbArc
 50
175.4373168394
 51
178.8433674881
  0
ARC
  5
55A
330
226
100
AcDbEntity
  8
02___PRT_ALL_AXES
  6
CONTINUOUS
 62
     3
100
AcDbCircle
 10
363.8242679918
 20
75.5297292221
 30
0.0
 40
1.5897159251
100
AcDbArc
 50
158.5180574083
 51
175.2618004572
  0
ARC
  5
55B
330
226
100
AcDbEntity
  8
02___PRT_ALL_AXES
  6
CONTINUOUS
 62
     3
100
AcDbCircle
 10
363.1738460862
 20
75.4115588013
 30
0.0
 40
0.9202575428
100
AcDbArc
 50
203.9294822742
 51
208.3319590847
  0
ARC
  5
55C
330
226
100
AcDbEntity
  8
02___PRT_ALL_AXES
  6
CONTINUOUS
 62
     7
100
AcDbCircle
 10
362.7404395282
 20
75.2305936693
 30
0.0
 40
0.5693168372
100
AcDbArc
 50
272.4961240682
 51
281.7732368934
  0
ARC
  5
55D
330
226
100
AcDbEntity
  8
02___PRT_ALL_AXES
  6
CONTINUOUS
 62
     3
100
AcDbCircle
 10
363.1391317801
 20
76.2308987783
 30
0.0
 40
0.5693168372
100
AcDbArc
 50
92.49612406830002
 51
101.7732368934
  0
ARC
  5
55E
330
226
100
AcDbEntity
  8
02___PRT_ALL_AXES
  6
CONTINUOUS
 62
     3
100
AcDbCircle
 10
363.1375919433
 20
76.2587087597
 30
0.0
 40
0.541466279
100
AcDbArc
 50
84.7992437945
 51
92.4615009871
  0
ARC
  5
55F
330
226
100
AcDbEntity
  8
0
  6
CONTINUOUS
 62
     7
100
AcDbCircle
 10
361.7810319472
 20
75.9777560229
 30
0.0
 40
0.5362205805
100
AcDbArc
 50
1.5462319791
 51
2.4184884375
  0
ARC
  5
560
330
226
100
AcDbEntity
  8
0
  6
CONTINUOUS
 62
     7
100
AcDbCircle
 10
361.9945187768
 20
75.9450957871
 30
0.0
 40
0.5352731229
100
AcDbArc
 50
1.545424607
 51
3.324874506900001
  0
ARC
  5
561
330
226
100
AcDbEntity
  8
02___PRT_ALL_AXES
  6
CONTINUOUS
 62
     3
100
AcDbCircle
 10
362.8827687698
 20
75.15601775
 30
0.0
 40
0.5268964525
100
AcDbArc
 50
257.2204067023
 51
266.9508340495
  0
ARC
  5
562
330
226
100
AcDbEntity
  8
02___PRT_ALL_AXES
  6
CONTINUOUS
 62
     3
100
AcDbCircle
 10
363.1389881517
 20
76.2757677937
 30
0.0
 40
0.5243509364
100
AcDbArc
 50
77.2033165822
 51
84.7822121081
  0
ARC
  5
563
330
226
100
AcDbEntity
  8
02___PRT_ALL_AXES
  6
CONTINUOUS
 62
     3
100
AcDbCircle
 10
362.8818321404
 20
75.1487994984
 30
0.0
 40
0.5196656751
100
AcDbArc
 50
248.560082462
 51
253.4483456312
  0
ARC
  5
564
330
226
100
AcDbEntity
  8
02___PRT_ALL_AXES
  6
CONTINUOUS
 62
     3
100
AcDbCircle
 10
362.8806493967
 20
75.1452259298
 30
0.0
 40
0.5159032568
100
AcDbArc
 50
253.4611949227
 51
257.1848354741
  0
ARC
  5
565
330
226
100
AcDbEntity
  8
02___PRT_ALL_AXES
  6
CONTINUOUS
 62
     3
100
AcDbCircle
 10
363.1406969769
 20
76.2840425355
 30
0.0
 40
0.5159032568
100
AcDbArc
 50
73.46119492290002
 51
77.18483547400001
  0
ARC
  5
566
330
226
100
AcDbEntity
  8
06___PRT_ALL_SURFS
  6
CONTINUOUS
 62
     7
100
AcDbCircle
 10
357.9317998493
 20
209.6334232449
 30
0.0
 40
0.8761412661
100
AcDbArc
 50
153.7833248238
 51
155.5809072831
  0
ARC
  5
567
330
226
100
AcDbEntity
  8
06___PRT_ALL_SURFS
  6
CONTINUOUS
 62
     7
100
AcDbCircle
 10
357.9224652404
 20
209.6140199059
 30
0.0
 40
0.8711954548
100
AcDbArc
 50
178.9745856993
 51
179.3436203222
  0
ARC
  5
568
330
226
100
AcDbEntity
  8
06___PRT_ALL_SURFS
  6
CONTINUOUS
 62
     7
100
AcDbCircle
 10
357.9211101825
 20
209.6386550264
 30
0.0
 40
0.8642400193
100
AcDbArc
 50
152.918814739
 51
153.7814185198
  0
ARC
  5
569
330
226
100
AcDbEntity
  8
06___PRT_ALL_SURFS
  6
CONTINUOUS
 62
     7
100
AcDbCircle
 10
357.8887051736
 20
209.6558193814
 30
0.0
 40
0.8275738728
100
AcDbArc
 50
147.4310841048
 51
152.9555106959
  0
ARC
  5
56A
330
226
100
AcDbEntity
  8
06___PRT_ALL_SURFS
  6
CONTINUOUS
 62
     7
100
AcDbCircle
 10
357.8370468259
 20
209.6884312203
 30
0.0
 40
0.7664837515
100
AcDbArc
 50
144.2450897236
 51
147.4067940603
  0
ARC
  5
56B
330
226
100
AcDbEntity
  8
06___PRT_ALL_SURFS
  6
CONTINUOUS
 62
     7
100
AcDbCircle
 10
357.7534566464
 20
209.5927660294
 30
0.0
 40
0.7004933793
100
AcDbArc
 50
191.8279894975
 51
194.9537217971
  0
ARC
  5
56C
330
226
100
AcDbEntity
  8
06___PRT_ALL_SURFS
  6
CONTINUOUS
 62
     7
100
AcDbCircle
 10
357.2965477991
 20
210.0122328705
 30
0.0
 40
0.315042867
100
AcDbArc
 50
45.5863709067
 51
51.0499693289
  0
ARC
  5
56D
330
226
100
AcDbEntity
  8
06___PRT_ALL_SURFS
  6
CONTINUOUS
 62
     7
100
AcDbCircle
 10
357.3104297715
 20
210.0293459508
 30
0.0
 40
0.2930073246
100
AcDbArc
 50
51.0573855741
 51
57.7811213175
  0
ARC
  5
56E
330
226
100
AcDbEntity
  8
06___PRT_ALL_SURFS
  6
CONTINUOUS
 62
     7
100
AcDbCircle
 10
357.1961167908
 20
209.5243511531
 30
0.0
 40
0.2916552687
100
AcDbArc
 50
277.8193020033
 51
281.7443986124
  0
ARC
  5
56F
330
226
100
AcDbEntity
  8
06___PRT_ALL_SURFS
  6
CONTINUOUS
 62
     7
100
AcDbCircle
 10
369.2358810038
 20
229.9374661268
 30
0.0
 40
0.2008355703
100
AcDbArc
 50
359.9398550143
 51
16.527243329
  0
ARC
  5
570
330
226
100
AcDbEntity
  8
06___PRT_ALL_SURFS
  6
CONTINUOUS
 62
     7
100
AcDbCircle
 10
355.3428183842
 20
233.0952833725
 30
0.0
 40
0.2002729189
100
AcDbArc
 50
97.3957830547
 51
101.7535812484
  0
ARC
  5
571
330
226
100
AcDbEntity
  8
06___PRT_ALL_SURFS
  6
CONTINUOUS
 62
     9
100
AcDbCircle
 10
368.8740254537
 20
229.3430683751
 30
0.0
 40
0.0933514025
100
AcDbArc
 50
69.8615114632
 51
79.3287945894
  0
SPLINE
  5
572
330
226
100
AcDbEntity
  8
7_ALL_FEATURES
  6
CONTINUOUS
 62
     7
100
AcDbSpline
 70
     0
 71
     3
 72
     9
 73
     5
 74
     0
 42
0.000000001
 43
0.0000001
 40
0.0
 40
0.0
 40
0.0
 40
0.0
 40
0.2563975918
 40
1.0
 40
1.0
 40
1.0
 40
1.0
 10
357.2447699078
 20
210.0683512521
 30
0.0
 10
357.2390019564
 20
210.067992445
 30
0.0
 10
357.2165122268
 20
210.0664999774
 30
0.0
 10
357.194046014
 20
210.0645935757
 30
0.0
 10
357.1773843484
 20
210.0627760354
 30
0.0
  0
SPLINE
  5
573
330
226
100
AcDbEntity
  8
7_ALL_FEATURES
  6
CONTINUOUS
 62
     7
100
AcDbSpline
 70
     0
 71
     3
 72
     9
 73
     5
 74
     0
 42
0.000000001
 43
0.0000001
 40
0.0
 40
0.0
 40
0.0
 40
0.0
 40
0.4944094691
 40
1.0
 40
1.0
 40
1.0
 40
1.0
 10
357.066397584
 20
209.5036310481
 30
0.0
 10
357.0797147722
 20
209.4985084168
 30
0.0
 10
357.1083371382
 20
209.4920619225
 30
0.0
 10
357.1375472422
 20
209.4942432967
 30
0.0
 10
357.151833483
 20
209.4972105539
 30
0.0
  0
SPLINE
  5
574
330
226
100
AcDbEntity
  8
7_ALL_FEATURES
  6
CONTINUOUS
 62
     7
100
AcDbSpline
 70
     0
 71
     3
 72
    19
 73
    15
 74
     0
 42
0.000000001
 43
0.0000001
 40
0.0
 40
0.0
 40
0.0
 40
0.0
 40
0.0538854589
 40
0.1115365289
 40
0.1733325701
 40
0.2390761166
 40
0.3791939874
 40
0.5238985154
 40
0.6632063698
 40
0.7889906116
 40
0.8459715166
 40
0.8993070139
 40
0.9501068916
 40
1.0
 40
1.0
 40
1.0
 40
1.0
 10
357.151833483
 20
209.4972105539
 30
0.0
 10
357.1655586729
 20
209.5000612806
 30
0.0
 10
357.1932999253
 20
209.5095526951
 30
0.0
 10
357.2321131481
 20
209.5330427091
 30
0.0
 10
357.2682293066
 20
209.5653020106
 30
0.0
 10
357.3121496912
 20
209.6196461826
 30
0.0
 10
357.3532726342
 20
209.7023960326
 30
0.0
 10
357.3768251888
 20
209.8112912371
 30
0.0
 10
357.3730344296
 20
209.9189786855
 30
0.0
 10
357.3458687291
 20
210.0000871916
 30
0.0
 10
357.3102874881
 20
210.0506494314
 30
0.0
 10
357.2789935677
 20
210.0791185751
 30
0.0
 10
357.243251217
 20
210.0981704788
 30
0.0
 10
357.2173298684
 20
210.1039953162
 30
0.0
 10
357.2044009176
 20
210.1051399048
 30
0.0
  0
SPLINE
  5
575
330
226
100
AcDbEntity
  8
7_ALL_FEATURES
  6
CONTINUOUS
 62
     7
100
AcDbSpline
 70
     0
 71
     3
 72
     9
 73
     5
 74
     0
 42
0.000000001
 43
0.0000001
 40
0.0
 40
0.0
 40
0.0
 40
0.0
 40
0.4674071962
 40
1.0
 40
1.0
 40
1.0
 40
1.0
 10
357.1099716473
 20
209.5654379969
 30
0.0
 10
357.1298242687
 20
209.5695613932
 30
0.0
 10
357.1728688712
 20
209.5755542631
 30
0.0
 10
357.2161213554
 20
209.5789147187
 30
0.0
 10
357.2391808755
 20
209.5803491829
 30
0.0
  0
SPLINE
  5
576
330
226
100
AcDbEntity
  8
7_ALL_FEATURES
  6
CONTINUOUS
 62
     7
100
AcDbSpline
 70
     0
 71
     3
 72
     9
 73
     5
 74
     0
 42
0.000000001
 43
0.0000001
 40
0.0
 40
0.0
 40
0.0
 40
0.0
 40
0.2156593979
 40
1.0
 40
1.0
 40
1.0
 40
1.0
 10
357.0611509472
 20
209.5512012416
 30
0.0
 10
357.0645385648
 20
209.5525832108
 30
0.0
 10
357.080432945
 20
209.5585367607
 30
0.0
 10
357.0969433646
 20
209.562732018
 30
0.0
 10
357.1099716473
 20
209.5654379969
 30
0.0
  0
SPLINE
  5
577
330
226
100
AcDbEntity
  8
7_ALL_FEATURES
  6
CONTINUOUS
 62
     7
100
AcDbSpline
 70
     0
 71
     3
 72
    11
 73
     7
 74
     0
 42
0.000000001
 43
0.0000001
 40
0.0
 40
0.0
 40
0.0
 40
0.0
 40
0.2567791614
 40
0.5141840748
 40
0.7634441541
 40
1.0
 40
1.0
 40
1.0
 40
1.0
 10
357.3437687713
 20
209.8454927378
 30
0.0
 10
357.3275485293
 20
209.8265300458
 30
0.0
 10
357.2969135042
 20
209.7868623015
 30
0.0
 10
357.2617653062
 20
209.7209270705
 30
0.0
 10
357.2427196193
 20
209.6506485704
 30
0.0
 10
357.2393618557
 20
209.6033367434
 30
0.0
 10
357.2391808755
 20
209.5803491829
 30
0.0
  0
SPLINE
  5
578
330
226
100
AcDbEntity
  8
7_ALL_FEATURES
  6
CONTINUOUS
 62
     7
100
AcDbSpline
 70
     0
 71
     3
 72
    11
 73
     7
 74
     0
 42
0.000000001
 43
0.0000001
 40
0.0
 40
0.0
 40
0.0
 40
0.0
 40
0.1995686412
 40
0.4343384082
 40
0.7067564324
 40
1.0
 40
1.0
 40
1.0
 40
1.0
 10
357.2447699078
 20
210.0683512521
 30
0.0
 10
357.2444945192
 20
210.0517869156
 30
0.0
 10
357.247465554
 20
210.0155296202
 30
0.0
 10
357.2661529537
 20
209.9593487998
 30
0.0
 10
357.2998151834
 20
209.9016999328
 30
0.0
 10
357.3283562904
 20
209.864334887
 30
0.0
 10
357.3437687713
 20
209.8454927378
 30
0.0
  0
SPLINE
  5
579
330
226
100
AcDbEntity
  8
0
  6
CONTINUOUS
 62
     7
100
AcDbSpline
 70
     0
 71
     3
 72
     9
 73
     5
 74
     0
 42
0.000000001
 43
0.0000001
 40
0.0
 40
0.0
 40
0.0
 40
0.0
 40
0.7551206533
 40
1.0
 40
1.0
 40
1.0
 40
1.0
 10
362.3170572777
 20
75.9922251649
 30
0.0
 10
362.3190217644
 20
75.919457908
 30
0.0
 10
362.3025427067
 20
75.8210588888
 30
0.0
 10
362.2622969127
 20
75.7332872976
 30
0.0
 10
362.2509164512
 20
75.7126052311
 30
0.0
  0
SPLINE
  5
57A
330
226
100
AcDbEntity
  8
0
  6
CONTINUOUS
 62
     7
100
AcDbSpline
 70
     0
 71
     3
 72
     9
 73
     5
 74
     0
 42
0.000000001
 43
0.0000001
 40
0.0
 40
0.0
 40
0.0
 40
0.0
 40
0.7551206533
 40
1.0
 40
1.0
 40
1.0
 40
1.0
 10
348.2121528542
 20
73.0626316192
 30
0.0
 10
348.214117341
 20
72.9898643623
 30
0.0
 10
348.1976382833
 20
72.8914653431
 30
0.0
 10
348.1573924892
 20
72.8036937519
 30
0.0
 10
348.1460120277
 20
72.7830116854
 30
0.0
  0
SPLINE
  5
57B
330
226
100
AcDbEntity
  8
0
  6
CONTINUOUS
 62
     7
100
AcDbSpline
 70
     0
 71
     3
 72
    11
 73
     7
 74
     0
 42
0.000000001
 43
0.0000001
 40
0.0
 40
0.0
 40
0.0
 40
0.0
 40
0.2780334913
 40
0.547642786
 40
0.7900925224
 40
1.0
 40
1.0
 40
1.0
 40
1.0
 10
348.4246927746
 20
73.0299382778
 30
0.0
 10
348.4261333446
 20
72.9765776088
 30
0.0
 10
348.4137318531
 20
72.8705334971
 30
0.0
 10
348.3548688615
 20
72.728538315
 30
0.0
 10
348.2634481714
 20
72.6206983696
 30
0.0
 10
348.181088171
 20
72.5818335077
 30
0.0
 10
348.1412212339
 20
72.5759380534
 30
0.0
  0
SPLINE
  5
57C
330
226
100
AcDbEntity
  8
0
  6
CONTINUOUS
 62
     7
100
AcDbSpline
 70
     0
 71
     3
 72
     9
 73
     5
 74
     0
 42
0.000000001
 43
0.0000001
 40
0.0
 40
0.0
 40
0.0
 40
0.0
 40
0.2261562797
 40
1.0
 40
1.0
 40
1.0
 40
1.0
 10
362.4169494117
 20
76.2432873404
 30
0.0
 10
362.4334519409
 20
76.228494896
 30
0.0
 10
362.4977416233
 20
76.1533205036
 30
0.0
 10
362.5244913679
 20
76.051844376
 30
0.0
 10
362.5288908913
 20
75.9761402599
 30
0.0
  0
SPLINE
  5
57D
330
226
100
AcDbEntity
  8
0
  6
CONTINUOUS
 62
     7
100
AcDbSpline
 70
     0
 71
     3
 72
     9
 73
     5
 74
     0
 42
0.000000001
 43
0.0000001
 40
0.0
 40
0.0
 40
0.0
 40
0.0
 40
0.2254681889
 40
1.0
 40
1.0
 40
1.0
 40
1.0
 10
348.3120449883
 20
73.3136937947
 30
0.0
 10
348.3294059755
 20
73.2981318505
 30
0.0
 10
348.396754773
 20
73.218263251
 30
0.0
 10
348.4225313514
 20
73.1100003279
 30
0.0
 10
348.4246927746
 20
73.0299382778
 30
0.0
  0
SPLINE
  5
57E
330
226
100
AcDbEntity
  8
0
  6
CONTINUOUS
 62
     7
100
AcDbSpline
 70
     0
 71
     3
 72
    11
 73
     7
 74
     0
 42
0.000000001
 43
0.0000001
 40
0.0
 40
0.0
 40
0.0
 40
0.0
 40
0.2780334913
 40
0.547642786
 40
0.7900925224
 40
1.0
 40
1.0
 40
1.0
 40
1.0
 10
362.5295971981
 20
75.9595318235
 30
0.0
 10
362.5310377681
 20
75.9061711545
 30
0.0
 10
362.5186362766
 20
75.8001270428
 30
0.0
 10
362.4597732849
 20
75.6581318607
 30
0.0
 10
362.3683525948
 20
75.5502919153
 30
0.0
 10
362.2859925944
 20
75.5114270534
 30
0.0
 10
362.2461256574
 20
75.5055315991
 30
0.0
  0
SPLINE
  5
57F
330
226
100
AcDbEntity
  8
02___PRT_ALL_AXES
  6
CONTINUOUS
 62
     7
100
AcDbSpline
 70
     0
 71
     3
 72
     8
 73
     4
 74
     0
 42
0.000000001
 43
0.0000001
 40
0.0
 40
0.0
 40
0.0
 40
0.0
 40
1.0
 40
1.0
 40
1.0
 40
1.0
 10
362.717426829
 20
76.5311148811
 30
0.0
 10
362.7406040966
 20
76.5170784053
 30
0.0
 10
362.7623708439
 20
76.5004909445
 30
0.0
 10
362.782302613
 20
76.4821352107
 30
0.0
  0
SPLINE
  5
580
330
226
100
AcDbEntity
  8
02___PRT_ALL_AXES
  6
CONTINUOUS
 62
     7
100
AcDbSpline
 70
     0
 71
     3
 72
     9
 73
     5
 74
     0
 42
0.000000001
 43
0.0000001
 40
0.0
 40
0.0
 40
0.0
 40
0.0
 40
0.2236886878
 40
1.0
 40
1.0
 40
1.0
 40
1.0
 10
362.782302613
 20
76.4821352107
 30
0.0
 10
362.8136525188
 20
76.4532641895
 30
0.0
 10
362.9347763654
 20
76.3033316334
 30
0.0
 10
362.9742007049
 20
76.1012883193
 30
0.0
 10
362.9725068413
 20
75.9533899196
 30
0.0
  0
SPLINE
  5
581
330
226
100
AcDbEntity
  8
02___PRT_ALL_AXES
  6
CONTINUOUS
 62
     7
100
AcDbSpline
 70
     0
 71
     3
 72
     8
 73
     4
 74
     0
 42
0.000000001
 43
0.0000001
 40
0.0
 40
0.0
 40
0.0
 40
0.0
 40
1.0
 40
1.0
 40
1.0
 40
1.0
 10
362.8224600251
 20
76.5265280538
 30
0.0
 10
362.7882691339
 20
76.5342960738
 30
0.0
 10
362.7525571096
 20
76.5369204802
 30
0.0
 10
362.7175772821
 20
76.5345182222
 30
0.0
  0
SPLINE
  5
582
330
226
100
AcDbEntity
  8
02___PRT_ALL_AXES
  6
CONTINUOUS
 62
     7
100
AcDbSpline
 70
     0
 71
     3
 72
     9
 73
     5
 74
     0
 42
0.000000001
 43
0.0000001
 40
0.0
 40
0.0
 40
0.0
 40
0.0
 40
0.7426874991
 40
1.0
 40
1.0
 40
1.0
 40
1.0
 10
362.7175772821
 20
76.5345182222
 30
0.0
 10
362.6859082203
 20
76.5323433327
 30
0.0
 10
362.6434489408
 20
76.5239577786
 30
0.0
 10
362.6031727782
 20
76.5096381006
 30
0.0
 10
362.592946877
 20
76.5055901597
 30
0.0
  0
SPLINE
  5
583
330
226
100
AcDbEntity
  8
02___PRT_ALL_AXES
  6
CONTINUOUS
 62
     7
100
AcDbSpline
 70
     0
 71
     3
 72
     9
 73
     5
 74
     0
 42
0.000000001
 43
0.0000001
 40
0.0
 40
0.0
 40
0.0
 40
0.0
 40
0.279713857
 40
1.0
 40
1.0
 40
1.0
 40
1.0
 10
348.8676024179
 20
73.0237963739
 30
0.0
 10
348.8682112476
 20
73.076955877
 30
0.0
 10
348.8563085936
 20
73.2655141887
 30
0.0
 10
348.778099854
 20
73.4598026339
 30
0.0
 10
348.6773981896
 20
73.552541665
 30
0.0
  0
SPLINE
  5
584
330
226
100
AcDbEntity
  8
02___PRT_ALL_AXES
  6
CONTINUOUS
 62
     7
100
AcDbSpline
 70
     0
 71
     3
 72
     8
 73
     4
 74
     0
 42
0.000000001
 43
0.0000001
 40
0.0
 40
0.0
 40
0.0
 40
0.0
 40
1.0
 40
1.0
 40
1.0
 40
1.0
 10
348.6773981896
 20
73.552541665
 30
0.0
 10
348.6574664205
 20
73.5708973988
 30
0.0
 10
348.6356996731
 20
73.5874848596
 30
0.0
 10
348.6125224055
 20
73.6015213354
 30
0.0
  0
SPLINE
  5
585
330
226
100
AcDbEntity
  8
02___PRT_ALL_AXES
  6
CONTINUOUS
 62
     7
100
AcDbSpline
 70
     0
 71
     3
 72
    11
 73
     7
 74
     0
 42
0.000000001
 43
0.0000001
 40
0.0
 40
0.0
 40
0.0
 40
0.0
 40
0.2775162851
 40
0.5484233063
 40
0.7915850534
 40
1.0
 40
1.0
 40
1.0
 40
1.0
 10
362.9725068413
 20
75.9533899196
 30
0.0
 10
362.9713322085
 20
75.8508277622
 30
0.0
 10
362.9386759142
 20
75.6475084921
 30
0.0
 10
362.8132605699
 20
75.3788970452
 30
0.0
 10
362.6284673967
 20
75.1788825125
 30
0.0
 10
362.4664781818
 20
75.1115702717
 30
0.0
 10
362.3897470206
 20
75.1047994694
 30
0.0
  0
SPLINE
  5
586
330
226
100
AcDbEntity
  8
02___PRT_ALL_AXES
  6
CONTINUOUS
 62
     7
100
AcDbSpline
 70
     0
 71
     3
 72
     8
 73
     4
 74
     0
 42
0.000000001
 43
0.0000001
 40
0.0
 40
0.0
 40
0.0
 40
0.0
 40
1.0
 40
1.0
 40
1.0
 40
1.0
 10
362.4900110218
 20
75.0638603228
 30
0.0
 10
362.4542789503
 20
75.0719784922
 30
0.0
 10
362.4194745918
 20
75.0859182148
 30
0.0
 10
362.3878248349
 20
75.1043838176
 30
0.0
  0
SPLINE
  5
587
330
226
100
AcDbEntity
  8
02___PRT_ALL_AXES
  6
CONTINUOUS
 62
     7
100
AcDbSpline
 70
     0
 71
     3
 72
     9
 73
     5
 74
     0
 42
0.000000001
 43
0.0000001
 40
0.0
 40
0.0
 40
0.0
 40
0.0
 40
0.7429841809
 40
1.0
 40
1.0
 40
1.0
 40
1.0
 10
362.3878248349
 20
75.1043838176
 30
0.0
 10
362.3616281761
 20
75.1196678875
 30
0.0
 10
362.3287050182
 20
75.1445810088
 30
0.0
 10
362.2999198641
 20
75.1735317095
 30
0.0
 10
362.2927780169
 20
75.1812173015
 30
0.0
  0
SPLINE
  5
588
330
226
100
AcDbEntity
  8
02___PRT_ALL_AXES
  6
CONTINUOUS
 62
     7
100
AcDbSpline
 70
     0
 71
     3
 72
     9
 73
     5
 74
     0
 42
0.000000001
 43
0.0000001
 40
0.0
 40
0.0
 40
0.0
 40
0.0
 40
0.2573125009
 40
1.0
 40
1.0
 40
1.0
 40
1.0
 10
348.4880424535
 20
73.575996614
 30
0.0
 10
348.4982683548
 20
73.5800445549
 30
0.0
 10
348.5385445174
 20
73.5943642329
 30
0.0
 10
348.5810037969
 20
73.602749787
 30
0.0
 10
348.6126728587
 20
73.6049246765
 30
0.0
  0
SPLINE
  5
589
330
226
100
AcDbEntity
  8
02___PRT_ALL_AXES
  6
CONTINUOUS
 62
     7
100
AcDbSpline
 70
     0
 71
     3
 72
     8
 73
     4
 74
     0
 42
0.000000001
 43
0.0000001
 40
0.0
 40
0.0
 40
0.0
 40
0.0
 40
1.0
 40
1.0
 40
1.0
 40
1.0
 10
348.6126728587
 20
73.6049246765
 30
0.0
 10
348.6476526862
 20
73.6073269345
 30
0.0
 10
348.6833647105
 20
73.6047025281
 30
0.0
 10
348.7175556017
 20
73.5969345081
 30
0.0
  0
SPLINE
  5
58A
330
226
100
AcDbEntity
  8
02___PRT_ALL_AXES
  6
CONTINUOUS
 62
     7
100
AcDbSpline
 70
     0
 71
     3
 72
    11
 73
     7
 74
     0
 42
0.000000001
 43
0.0000001
 40
0.0
 40
0.0
 40
0.0
 40
0.0
 40
0.2084149466
 40
0.4515766937
 40
0.7224837149
 40
1.0
 40
1.0
 40
1.0
 40
1.0
 10
348.2848425972
 20
72.1752059237
 30
0.0
 10
348.3615737584
 20
72.181976726
 30
0.0
 10
348.5235629732
 20
72.2492889668
 30
0.0
 10
348.7083561465
 20
72.4493034995
 30
0.0
 10
348.8337714908
 20
72.7179149464
 30
0.0
 10
348.8664277851
 20
72.9212342165
 30
0.0
 10
348.8676024179
 20
73.0237963739
 30
0.0
  0
SPLINE
  5
58B
330
226
100
AcDbEntity
  8
02___PRT_ALL_AXES
  6
CONTINUOUS
 62
     7
100
AcDbSpline
 70
     0
 71
     3
 72
     9
 73
     5
 74
     0
 42
0.000000001
 43
0.0000001
 40
0.0
 40
0.0
 40
0.0
 40
0.0
 40
0.2570158191
 40
1.0
 40
1.0
 40
1.0
 40
1.0
 10
348.1878735935
 20
72.2516237558
 30
0.0
 10
348.1950154407
 20
72.2439381638
 30
0.0
 10
348.2238005947
 20
72.2149874631
 30
0.0
 10
348.2567237526
 20
72.1900743418
 30
0.0
 10
348.2829204114
 20
72.1747902719
 30
0.0
  0
SPLINE
  5
58C
330
226
100
AcDbEntity
  8
02___PRT_ALL_AXES
  6
CONTINUOUS
 62
     7
100
AcDbSpline
 70
     0
 71
     3
 72
     8
 73
     4
 74
     0
 42
0.000000001
 43
0.0000001
 40
0.0
 40
0.0
 40
0.0
 40
0.0
 40
1.0
 40
1.0
 40
1.0
 40
1.0
 10
348.2829204114
 20
72.1747902719
 30
0.0
 10
348.3145701684
 20
72.1563246691
 30
0.0
 10
348.3493745269
 20
72.1423849465
 30
0.0
 10
348.3851065983
 20
72.1342667771
 30
0.0
  0
SPLINE
  5
58D
330
226
100
AcDbEntity
  8
02___PRT_ALL_AXES
  6
CONTINUOUS
 62
     7
100
AcDbSpline
 70
     0
 71
     3
 72
    12
 73
     8
 74
     0
 42
0.000000001
 43
0.0000001
 40
0.0
 40
0.0
 40
0.0
 40
0.0
 40
0.2848483411
 40
0.5584029217
 40
0.7957161139
 40
0.9006548282
 40
1.0
 40
1.0
 40
1.0
 40
1.0
 10
363.1851694393
 20
75.9050539463
 30
0.0
 10
363.183841542
 20
75.7891096062
 30
0.0
 10
363.1425627424
 20
75.5608356973
 30
0.0
 10
362.9885515051
 20
75.2702579786
 30
0.0
 10
362.7897025095
 20
75.101055755
 30
0.0
 10
362.6143908237
 20
75.0507326266
 30
0.0
 10
362.5294460478
 20
75.0549008584
 30
0.0
 10
362.4900110218
 20
75.0638603228
 30
0.0
  0
SPLINE
  5
58E
330
226
100
AcDbEntity
  8
02___PRT_ALL_AXES
  6
CONTINUOUS
 62
     7
100
AcDbSpline
 70
     0
 71
     3
 72
    11
 73
     7
 74
     0
 42
0.000000001
 43
0.0000001
 40
0.0
 40
0.0
 40
0.0
 40
0.0
 40
0.2897714517
 40
0.5530747837
 40
0.7867693747
 40
1.0
 40
1.0
 40
1.0
 40
1.0
 10
363.1851694393
 20
75.9050539463
 30
0.0
 10
363.1860238185
 20
75.9796534066
 30
0.0
 10
363.1721168643
 20
76.1229628706
 30
0.0
 10
363.1005907273
 20
76.3153586892
 30
0.0
 10
362.9830515183
 20
76.4607740478
 30
0.0
 10
362.8759939614
 20
76.5143653791
 30
0.0
 10
362.8224600251
 20
76.5265280538
 30
0.0
  0
SPLINE
  5
58F
330
226
100
AcDbEntity
  8
02___PRT_ALL_AXES
  6
CONTINUOUS
 62
     7
100
AcDbSpline
 70
     0
 71
     3
 72
    11
 73
     7
 74
     0
 42
0.000000001
 43
0.0000001
 40
0.0
 40
0.0
 40
0.0
 40
0.0
 40
0.2132306253
 40
0.4469252163
 40
0.7102285483
 40
1.0
 40
1.0
 40
1.0
 40
1.0
 10
348.7175556017
 20
73.5969345081
 30
0.0
 10
348.771089538
 20
73.5847718334
 30
0.0
 10
348.8781470949
 20
73.5311805021
 30
0.0
 10
348.9956863039
 20
73.3857651435
 30
0.0
 10
349.0672124409
 20
73.1933693249
 30
0.0
 10
349.081119395
 20
73.0500598609
 30
0.0
 10
349.0802650159
 20
72.9754604006
 30
0.0
  0
SPLINE
  5
590
330
226
100
AcDbEntity
  8
02___PRT_ALL_AXES
  6
CONTINUOUS
 62
     7
100
AcDbSpline
 70
     0
 71
     3
 72
    12
 73
     8
 74
     0
 42
0.000000001
 43
0.0000001
 40
0.0
 40
0.0
 40
0.0
 40
0.0
 40
0.0993451718
 40
0.2042838861
 40
0.4415970783
 40
0.7151516589
 40
1.0
 40
1.0
 40
1.0
 40
1.0
 10
348.3851065983
 20
72.1342667771
 30
0.0
 10
348.4245416244
 20
72.1253073127
 30
0.0
 10
348.5094864003
 20
72.1211390809
 30
0.0
 10
348.684798086
 20
72.1714622093
 30
0.0
 10
348.8836470816
 20
72.3406644329
 30
0.0
 10
349.037658319
 20
72.6312421516
 30
0.0
 10
349.0789371185
 20
72.8595160605
 30
0.0
 10
349.0802650159
 20
72.9754604006
 30
0.0
  0
SPLINE
  5
591
330
226
100
AcDbEntity
  8
06___PRT_ALL_SURFS
  6
CONTINUOUS
 62
     7
100
AcDbSpline
 70
     0
 71
     3
 72
     8
 73
     4
 74
     0
 42
0.000000001
 43
0.0000001
 40
0.0
 40
0.0
 40
0.0
 40
0.0
 40
1.0
 40
1.0
 40
1.0
 40
1.0
 10
357.0514093027
 20
209.6296107329
 30
0.0
 10
357.0536472065
 20
209.7546660373
 30
0.0
 10
357.0823209034
 20
209.8817423535
 30
0.0
 10
357.1340329668
 20
209.9956269437
 30
0.0
  0
SPLINE
  5
592
330
226
100
AcDbEntity
  8
06___PRT_ALL_SURFS
  6
CONTINUOUS
 62
     7
100
AcDbSpline
 70
     0
 71
     3
 72
     8
 73
     4
 74
     0
 42
0.000000001
 43
0.0000001
 40
0.0
 40
0.0
 40
0.0
 40
0.0
 40
1.0
 40
1.0
 40
1.0
 40
1.0
 10
357.1467443027
 20
210.0206024304
 30
0.0
 10
357.1665650992
 20
210.0564391415
 30
0.0
 10
357.1895789413
 20
210.0907592783
 30
0.0
 10
357.2158003493
 20
210.1222167353
 30
0.0
  0
SPLINE
  5
593
330
226
100
AcDbEntity
  8
06___PRT_ALL_SURFS
  6
CONTINUOUS
 62
     7
100
AcDbSpline
 70
     0
 71
     3
 72
     9
 73
     5
 74
     0
 42
0.000000001
 43
0.0000001
 40
0.0
 40
0.0
 40
0.0
 40
0.0
 40
0.5403085592
 40
1.0
 40
1.0
 40
1.0
 40
1.0
 10
357.2158003493
 20
210.1222167353
 30
0.0
 10
357.260850657
 20
210.1762629604
 30
0.0
 10
357.363271083
 20
210.2649581337
 30
0.0
 10
357.502373962
 20
210.2849041974
 30
0.0
 10
357.560748848
 20
210.2716446875
 30
0.0
  0
SPLINE
  5
594
330
226
100
AcDbEntity
  8
06___PRT_ALL_SURFS
  6
CONTINUOUS
 62
     7
100
AcDbSpline
 70
     0
 71
     3
 72
     9
 73
     5
 74
     0
 42
0.000000001
 43
0.0000001
 40
0.0
 40
0.0
 40
0.0
 40
0.0
 40
0.4768051057
 40
1.0
 40
1.0
 40
1.0
 40
1.0
 10
357.3169487795
 20
209.1990030571
 30
0.0
 10
357.2773535458
 20
209.2079968802
 30
0.0
 10
357.1982116851
 20
209.2477745116
 30
0.0
 10
357.1436496725
 20
209.3160744342
 30
0.0
 10
357.1213991319
 20
209.3546749435
 30
0.0
  0
SPLINE
  5
595
330
226
100
AcDbEntity
  8
06___PRT_ALL_SURFS
  6
CONTINUOUS
 62
     7
100
AcDbSpline
 70
     0
 71
     3
 72
     9
 73
     5
 74
     0
 42
0.000000001
 43
0.0000001
 40
0.0
 40
0.0
 40
0.0
 40
0.0
 40
0.2396984875
 40
1.0
 40
1.0
 40
1.0
 40
1.0
 10
357.1213991319
 20
209.3546749435
 30
0.0
 10
357.1154752108
 20
209.3649518342
 30
0.0
 10
357.0925547429
 20
209.4088526664
 30
0.0
 10
357.0766184017
 20
209.4562555559
 30
0.0
 10
357.0680330551
 20
209.4928881659
 30
0.0
  0
SPLINE
  5
596
330
226
100
AcDbEntity
  8
06___PRT_ALL_SURFS
  6
CONTINUOUS
 62
     7
100
AcDbSpline
 70
     0
 71
     3
 72
     8
 73
     4
 74
     0
 42
0.000000001
 43
0.0000001
 40
0.0
 40
0.0
 40
0.0
 40
0.0
 40
1.0
 40
1.0
 40
1.0
 40
1.0
 10
357.0680330551
 20
209.4928881659
 30
0.0
 10
357.0595195388
 20
209.5292142849
 30
0.0
 10
357.0543849848
 20
209.5664454613
 30
0.0
 10
357.0521751776
 20
209.6036903755
 30
0.0
  0
SPLINE
  5
597
330
226
100
AcDbEntity
  8
06___PRT_ALL_SURFS
  6
CONTINUOUS
 62
     7
100
AcDbSpline
 70
     0
 71
     3
 72
     8
 73
     4
 74
     0
 42
0.000000001
 43
0.0000001
 40
0.0
 40
0.0
 40
0.0
 40
0.0
 40
1.0
 40
1.0
 40
1.0
 40
1.0
 10
355.3870837327
 20
233.2905764022
 30
0.0
 10
355.3642906236
 20
233.2957570363
 30
0.0
 10
355.3402188645
 20
233.2968978429
 30
0.0
 10
355.3170387315
 20
233.2938901487
 30
0.0
  0
SPLINE
  5
598
330
226
100
AcDbEntity
  8
06___PRT_ALL_SURFS
  6
CONTINUOUS
 62
     7
100
AcDbSpline
 70
     0
 71
     3
 72
     8
 73
     4
 74
     0
 42
0.000000001
 43
0.0000001
 40
0.0
 40
0.0
 40
0.0
 40
0.0
 40
1.0
 40
1.0
 40
1.0
 40
1.0
 10
369.2810401371
 20
230.1326261413
 30
0.0
 10
369.3031837209
 20
230.1275931375
 30
0.0
 10
369.3247528482
 20
230.1185973118
 30
0.0
 10
369.3439287869
 20
230.1064337267
 30
0.0
  0
SPLINE
  5
599
330
226
100
AcDbEntity
  8
06___PRT_ALL_SURFS
  6
CONTINUOUS
 62
     7
100
AcDbSpline
 70
     0
 71
     3
 72
     8
 73
     4
 74
     0
 42
0.000000001
 43
0.0000001
 40
0.0
 40
0.0
 40
0.0
 40
0.0
 40
1.0
 40
1.0
 40
1.0
 40
1.0
 10
369.3439287869
 20
230.1064337267
 30
0.0
 10
369.3833822026
 20
230.0814078341
 30
0.0
 10
369.4150861699
 20
230.0393764514
 30
0.0
 10
369.4284189685
 20
229.9945980661
 30
0.0
  0
SPLINE
  5
59A
330
226
100
AcDbEntity
  8
06___PRT_ALL_SURFS
  6
CONTINUOUS
 62
     7
100
AcDbSpline
 70
     0
 71
     3
 72
     8
 73
     4
 74
     0
 42
0.000000001
 43
0.0000001
 40
0.0
 40
0.0
 40
0.0
 40
0.0
 40
1.0
 40
1.0
 40
1.0
 40
1.0
 10
368.8913157916
 20
229.4348254626
 30
0.0
 10
368.8851987223
 20
229.4359858918
 30
0.0
 10
368.8787383866
 20
229.4356582758
 30
0.0
 10
368.8726423235
 20
229.4343921214
 30
0.0
  0
SPLINE
  5
59B
330
226
100
AcDbEntity
  8
06___PRT_ALL_SURFS
  6
CONTINUOUS
 62
     7
100
AcDbSpline
 70
     0
 71
     3
 72
     8
 73
     4
 74
     0
 42
0.000000001
 43
0.0000001
 40
0.0
 40
0.0
 40
0.0
 40
0.0
 40
1.0
 40
1.0
 40
1.0
 40
1.0
 10
346.1347772153
 20
208.89323017
 30
0.0
 10
346.1357046579
 20
208.8832718042
 30
0.0
 10
346.1371720704
 20
208.8733419233
 30
0.0
 10
346.1392871836
 20
208.8635666741
 30
0.0
  0
SPLINE
  5
59C
330
226
100
AcDbEntity
  8
06___PRT_ALL_SURFS
  6
CONTINUOUS
 62
     7
100
AcDbSpline
 70
     0
 71
     3
 72
     8
 73
     4
 74
     0
 42
0.000000001
 43
0.0000001
 40
0.0
 40
0.0
 40
0.0
 40
0.0
 40
1.0
 40
1.0
 40
1.0
 40
1.0
 10
346.1392871836
 20
208.8635666741
 30
0.0
 10
346.142744911
 20
208.8475863728
 30
0.0
 10
346.1479049623
 20
208.8317627911
 30
0.0
 10
346.1554390402
 20
208.817251982
 30
0.0
  0
SPLINE
  5
59D
330
226
100
AcDbEntity
  8
06___PRT_ALL_SURFS
  6
CONTINUOUS
 62
     7
100
AcDbSpline
 70
     0
 71
     3
 72
     9
 73
     5
 74
     0
 42
0.000000001
 43
0.0000001
 40
0.0
 40
0.0
 40
0.0
 40
0.0
 40
0.3538789909
 40
1.0
 40
1.0
 40
1.0
 40
1.0
 10
346.1554390402
 20
208.817251982
 30
0.0
 10
346.1587270058
 20
208.8109192839
 30
0.0
 10
346.1691919257
 20
208.7939145417
 30
0.0
 10
346.1855794702
 20
208.7790879087
 30
0.0
 10
346.198171212
 20
208.7757448486
 30
0.0
  0
SPLINE
  5
59E
330
226
100
AcDbEntity
  8
06___PRT_ALL_SURFS
  6
CONTINUOUS
 62
     7
100
AcDbSpline
 70
     0
 71
     3
 72
     9
 73
     5
 74
     0
 42
0.000000001
 43
0.0000001
 40
0.0
 40
0.0
 40
0.0
 40
0.0
 40
0.3887428832
 40
1.0
 40
1.0
 40
1.0
 40
1.0
 10
346.4458442902
 20
224.7763383837
 30
0.0
 10
346.4184662851
 20
224.7706519625
 30
0.0
 10
346.3598080462
 20
224.7185922432
 30
0.0
 10
346.3308634046
 20
224.6515133627
 30
0.0
 10
346.3209163139
 20
224.6086855638
 30
0.0
  0
SPLINE
  5
59F
330
226
100
AcDbEntity
  8
06___PRT_ALL_SURFS
  6
CONTINUOUS
 62
     7
100
AcDbSpline
 70
     0
 71
     3
 72
     8
 73
     4
 74
     0
 42
0.000000001
 43
0.0000001
 40
0.0
 40
0.0
 40
0.0
 40
0.0
 40
1.0
 40
1.0
 40
1.0
 40
1.0
 10
346.3209163139
 20
224.6086855638
 30
0.0
 10
346.3156417364
 20
224.5859755523
 30
0.0
 10
346.3126931857
 20
224.5625722418
 30
0.0
 10
346.3124261849
 20
224.5392592734
 30
0.0
  0
SPLINE
  5
5A0
330
226
100
AcDbEntity
  8
06___PRT_ALL_SURFS
  6
CONTINUOUS
 62
     9
100
AcDbSpline
 70
     0
 71
     3
 72
     9
 73
     5
 74
     0
 42
0.000000001
 43
0.0000001
 40
0.0
 40
0.0
 40
0.0
 40
0.0
 40
0.2593090561
 40
1.0
 40
1.0
 40
1.0
 40
1.0
 10
346.2943982884
 20
224.6152044691
 30
0.0
 10
346.2979346769
 20
224.6304308471
 30
0.0
 10
346.3147292466
 20
224.6883172076
 30
0.0
 10
346.3440151866
 20
224.7430026974
 30
0.0
 10
346.372629175
 20
224.7772793406
 30
0.0
  0
SPLINE
  5
5A1
330
226
100
AcDbEntity
  8
06___PRT_ALL_SURFS
  6
CONTINUOUS
 62
     9
100
AcDbSpline
 70
     0
 71
     3
 72
     8
 73
     4
 74
     0
 42
0.000000001
 43
0.0000001
 40
0.0
 40
0.0
 40
0.0
 40
0.0
 40
1.0
 40
1.0
 40
1.0
 40
1.0
 10
346.372629175
 20
224.7772793406
 30
0.0
 10
346.3897485747
 20
224.7977866374
 30
0.0
 10
346.4097311741
 20
224.8164171052
 30
0.0
 10
346.4321494573
 20
224.8309444465
 30
0.0
  0
SPLINE
  5
5A2
330
226
100
AcDbEntity
  8
06___PRT_ALL_SURFS
  6
CONTINUOUS
 62
     9
100
AcDbSpline
 70
     0
 71
     3
 72
     8
 73
     4
 74
     0
 42
0.000000001
 43
0.0000001
 40
0.0
 40
0.0
 40
0.0
 40
0.0
 40
1.0
 40
1.0
 40
1.0
 40
1.0
 10
346.4321494573
 20
224.8309444465
 30
0.0
 10
346.4516648837
 20
224.8435906986
 30
0.0
 10
346.4736270615
 20
224.8534077164
 30
0.0
 10
346.4963957991
 20
224.8581367911
 30
0.0
  0
SPLINE
  5
5A3
330
226
100
AcDbEntity
  8
06___PRT_ALL_SURFS
  6
CONTINUOUS
 62
     9
100
AcDbSpline
 70
     0
 71
     3
 72
    10
 73
     6
 74
     0
 42
0.000000001
 43
0.0000001
 40
0.0
 40
0.0
 40
0.0
 40
0.0
 40
0.2317488874
 40
0.4644107981
 40
1.0
 40
1.0
 40
1.0
 40
1.0
 10
346.3108977014
 20
208.6615126925
 30
0.0
 10
346.2897379282
 20
208.6571178002
 30
0.0
 10
346.2446228741
 20
208.6571653525
 30
0.0
 10
346.1592106045
 20
208.7016674441
 30
0.0
 10
346.1247408253
 20
208.7729568578
 30
0.0
 10
346.113485928
 20
208.8216177254
 30
0.0
  0
SPLINE
  5
5A4
330
226
100
AcDbEntity
  8
06___PRT_ALL_SURFS
  6
CONTINUOUS
 62
     9
100
AcDbSpline
 70
     0
 71
     3
 72
     8
 73
     4
 74
     0
 42
0.000000001
 43
0.0000001
 40
0.0
 40
0.0
 40
0.0
 40
0.0
 40
1.0
 40
1.0
 40
1.0
 40
1.0
 10
346.113485928
 20
208.8216177254
 30
0.0
 10
346.1074640497
 20
208.8476534872
 30
0.0
 10
346.1046163646
 20
208.874553874
 30
0.0
 10
346.1044526734
 20
208.9012764697
 30
0.0
  0
SPLINE
  5
5A5
330
226
100
AcDbEntity
  8
06___PRT_ALL_SURFS
  6
CONTINUOUS
 62
     9
100
AcDbSpline
 70
     0
 71
     3
 72
     9
 73
     5
 74
     0
 42
0.000000001
 43
0.0000001
 40
0.0
 40
0.0
 40
0.0
 40
0.0
 40
0.5459022808
 40
1.0
 40
1.0
 40
1.0
 40
1.0
 10
368.9507712585
 20
213.6534107255
 30
0.0
 10
368.9499041319
 20
213.5776982292
 30
0.0
 10
368.9134719696
 20
213.4381424428
 30
0.0
 10
368.7993636513
 20
213.3323748778
 30
0.0
 10
368.7376957347
 20
213.3195664301
 30
0.0
  0
SPLINE
  5
5A6
330
226
100
AcDbEntity
  8
06___PRT_ALL_SURFS
  6
CONTINUOUS
 62
     7
100
AcDbSpline
 70
     0
 71
     3
 72
    12
 73
     8
 74
     0
 42
0.000000001
 43
0.0000001
 40
0.0
 40
0.0
 40
0.0
 40
0.0
 40
0.2917624706
 40
0.5661988098
 40
0.795784612
 40
0.8983092
 40
1.0
 40
1.0
 40
1.0
 40
1.0
 10
357.9681457402
 20
209.8144236714
 30
0.0
 10
357.9668526032
 20
209.7015154827
 30
0.0
 10
357.9223440089
 20
209.4812990059
 30
0.0
 10
357.7602963328
 20
209.2120181038
 30
0.0
 10
357.5490606367
 20
209.0778381361
 30
0.0
 10
357.3771108546
 20
209.0748923202
 30
0.0
 10
357.3015670434
 20
209.1050080832
 30
0.0
 10
357.2682101293
 20
209.1258929299
 30
0.0
  0
SPLINE
  5
5A7
330
226
100
AcDbEntity
  8
06___PRT_ALL_SURFS
  6
CONTINUOUS
 62
     7
100
AcDbSpline
 70
     0
 71
     3
 72
     9
 73
     5
 74
     0
 42
0.000000001
 43
0.0000001
 40
0.0
 40
0.0
 40
0.0
 40
0.0
 40
0.229282744
 40
1.0
 40
1.0
 40
1.0
 40
1.0
 10
357.2682101293
 20
209.1258929299
 30
0.0
 10
357.2455928277
 20
209.1400536785
 30
0.0
 10
357.1542193061
 20
209.2137064854
 30
0.0
 10
357.0998528534
 20
209.3253565503
 30
0.0
 10
357.0766857828
 20
209.4120115754
 30
0.0
  0
SPLINE
  5
5A8
330
226
100
AcDbEntity
  8
06___PRT_ALL_SURFS
  6
CONTINUOUS
 62
     7
100
AcDbSpline
 70
     0
 71
     3
 72
     8
 73
     4
 74
     0
 42
0.000000001
 43
0.0000001
 40
0.0
 40
0.0
 40
0.0
 40
0.0
 40
1.0
 40
1.0
 40
1.0
 40
1.0
 10
357.0678365812
 20
209.4491829504
 30
0.0
 10
357.0571733547
 20
209.5000406328
 30
0.0
 10
357.051921118
 20
209.5522366715
 30
0.0
 10
357.0513265413
 20
209.604196798
 30
0.0
  0
SPLINE
  5
5A9
330
226
100
AcDbEntity
  8
06___PRT_ALL_SURFS
  6
CONTINUOUS
 62
     9
100
AcDbSpline
 70
     0
 71
     3
 72
     8
 73
     4
 74
     0
 42
0.000000001
 43
0.0000001
 40
0.0
 40
0.0
 40
0.0
 40
0.0
 40
1.0
 40
1.0
 40
1.0
 40
1.0
 10
368.81123899
 20
213.6544580056
 30
0.0
 10
368.8110301816
 20
213.6362260661
 30
0.0
 10
368.8089345209
 20
213.6179391394
 30
0.0
 10
368.8051956353
 20
213.600093469
 30
0.0
  0
SPLINE
  5
5AA
330
226
100
AcDbEntity
  8
06___PRT_ALL_SURFS
  6
CONTINUOUS
 62
     9
100
AcDbSpline
 70
     0
 71
     3
 72
     8
 73
     4
 74
     0
 42
0.000000001
 43
0.0000001
 40
0.0
 40
0.0
 40
0.0
 40
0.0
 40
1.0
 40
1.0
 40
1.0
 40
1.0
 10
368.8051956353
 20
213.600093469
 30
0.0
 10
368.7985384578
 20
213.5683188154
 30
0.0
 10
368.7863587479
 20
213.5370843211
 30
0.0
 10
368.7688926047
 20
213.5097186408
 30
0.0
  0
SPLINE
  5
5AB
330
226
100
AcDbEntity
  8
06___PRT_ALL_SURFS
  6
CONTINUOUS
 62
     9
100
AcDbSpline
 70
     0
 71
     3
 72
     8
 73
     4
 74
     0
 42
0.000000001
 43
0.0000001
 40
0.0
 40
0.0
 40
0.0
 40
0.0
 40
1.0
 40
1.0
 40
1.0
 40
1.0
 10
368.7688926047
 20
213.5097186408
 30
0.0
 10
368.7592676522
 20
213.4946384156
 30
0.0
 10
368.7478540256
 20
213.4804837654
 30
0.0
 10
368.7347317317
 20
213.4683240653
 30
0.0
  0
SPLINE
  5
5AC
330
226
100
AcDbEntity
  8
06___PRT_ALL_SURFS
  6
CONTINUOUS
 62
     9
100
AcDbSpline
 70
     0
 71
     3
 72
     8
 73
     4
 74
     0
 42
0.000000001
 43
0.0000001
 40
0.0
 40
0.0
 40
0.0
 40
0.0
 40
1.0
 40
1.0
 40
1.0
 40
1.0
 10
368.7347317317
 20
213.4683240653
 30
0.0
 10
368.7262788896
 20
213.4604912865
 30
0.0
 10
368.7170074908
 20
213.4534224941
 30
0.0
 10
368.7070727965
 20
213.4475825614
 30
0.0
  0
SPLINE
  5
5AD
330
226
100
AcDbEntity
  8
06___PRT_ALL_SURFS
  6
CONTINUOUS
 62
     9
100
AcDbSpline
 70
     0
 71
     3
 72
     8
 73
     4
 74
     0
 42
0.000000001
 43
0.0000001
 40
0.0
 40
0.0
 40
0.0
 40
0.0
 40
1.0
 40
1.0
 40
1.0
 40
1.0
 10
368.7070727965
 20
213.4475825614
 30
0.0
 10
368.6955478742
 20
213.4408078414
 30
0.0
 10
368.6828705381
 20
213.4355422779
 30
0.0
 10
368.6697812447
 20
213.4328236271
 30
0.0
  0
SPLINE
  5
5AE
330
226
100
AcDbEntity
  8
06___PRT_ALL_SURFS
  6
CONTINUOUS
 62
     9
100
AcDbSpline
 70
     0
 71
     3
 72
     8
 73
     4
 74
     0
 42
0.000000001
 43
0.0000001
 40
0.0
 40
0.0
 40
0.0
 40
0.0
 40
1.0
 40
1.0
 40
1.0
 40
1.0
 10
369.3784878732
 20
229.9053762944
 30
0.0
 10
369.3787861891
 20
229.9314235119
 30
0.0
 10
369.3752893876
 20
229.9577396784
 30
0.0
 10
369.3684571105
 20
229.9828766337
 30
0.0
  0
SPLINE
  5
5AF
330
226
100
AcDbEntity
  8
06___PRT_ALL_SURFS
  6
CONTINUOUS
 62
     9
100
AcDbSpline
 70
     0
 71
     3
 72
     8
 73
     4
 74
     0
 42
0.000000001
 43
0.0000001
 40
0.0
 40
0.0
 40
0.0
 40
0.0
 40
1.0
 40
1.0
 40
1.0
 40
1.0
 10
369.3684571105
 20
229.9828766337
 30
0.0
 10
369.3617394913
 20
230.0075917457
 30
0.0
 10
369.3516124475
 20
230.0316940487
 30
0.0
 10
369.3381497986
 20
230.0534821245
 30
0.0
  0
SPLINE
  5
5B0
330
226
100
AcDbEntity
  8
06___PRT_ALL_SURFS
  6
CONTINUOUS
 62
     9
100
AcDbSpline
 70
     0
 71
     3
 72
     9
 73
     5
 74
     0
 42
0.000000001
 43
0.0000001
 40
0.0
 40
0.0
 40
0.0
 40
0.0
 40
0.2672175855
 40
1.0
 40
1.0
 40
1.0
 40
1.0
 10
369.3381497986
 20
230.0534821245
 30
0.0
 10
369.3338097013
 20
230.0605061781
 30
0.0
 10
369.3162663262
 20
230.0859054735
 30
0.0
 10
369.2929999803
 20
230.1078059163
 30
0.0
 10
369.2733637197
 20
230.1190791852
 30
0.0
  0
SPLINE
  5
5B1
330
226
100
AcDbEntity
  8
06___PRT_ALL_SURFS
  6
CONTINUOUS
 62
     9
100
AcDbSpline
 70
     0
 71
     3
 72
     8
 73
     4
 74
     0
 42
0.000000001
 43
0.0000001
 40
0.0
 40
0.0
 40
0.0
 40
0.0
 40
1.0
 40
1.0
 40
1.0
 40
1.0
 10
369.2733637197
 20
230.1190791852
 30
0.0
 10
369.2626532802
 20
230.1252280986
 30
0.0
 10
369.2509912739
 20
230.1300638904
 30
0.0
 10
369.2389484208
 20
230.1328011044
 30
0.0
  0
SPLINE
  5
5B2
330
226
100
AcDbEntity
  8
06___PRT_ALL_SURFS
  6
CONTINUOUS
 62
     7
100
AcDbSpline
 70
     0
 71
     3
 72
     9
 73
     5
 74
     0
 42
0.000000001
 43
0.0000001
 40
0.0
 40
0.0
 40
0.0
 40
0.0
 40
0.279831092
 40
1.0
 40
1.0
 40
1.0
 40
1.0
 10
357.2150269361
 20
210.1363024049
 30
0.0
 10
357.2369859411
 20
210.1667808761
 30
0.0
 10
357.3225132557
 20
210.2693942306
 30
0.0
 10
357.4482701673
 20
210.3460737147
 30
0.0
 10
357.5441912272
 20
210.3581390588
 30
0.0
  0
SPLINE
  5
5B3
330
226
100
AcDbEntity
  8
06___PRT_ALL_SURFS
  6
CONTINUOUS
 62
     7
100
AcDbSpline
 70
     0
 71
     3
 72
    11
 73
     7
 74
     0
 42
0.000000001
 43
0.0000001
 40
0.0
 40
0.0
 40
0.0
 40
0.0
 40
0.2161466409
 40
0.4437407849
 40
0.7049041076
 40
1.0
 40
1.0
 40
1.0
 40
1.0
 10
357.5441912272
 20
210.3581390588
 30
0.0
 10
357.5997334689
 20
210.3651253896
 30
0.0
 10
357.7206344114
 20
210.3483207094
 30
0.0
 10
357.865208249
 20
210.2245227857
 30
0.0
 10
357.9521134674
 20
210.0362122882
 30
0.0
 10
357.969020992
 20
209.8908456587
 30
0.0
 10
357.9681457402
 20
209.8144236714
 30
0.0
  0
SPLINE
  5
5B4
330
226
100
AcDbEntity
  8
06___PRT_ALL_SURFS
  6
CONTINUOUS
 62
     7
100
AcDbSpline
 70
     0
 71
     3
 72
     9
 73
     5
 74
     0
 42
0.000000001
 43
0.0000001
 40
0.0
 40
0.0
 40
0.0
 40
0.0
 40
0.7384923084
 40
1.0
 40
1.0
 40
1.0
 40
1.0
 10
357.2554820646
 20
209.2388015777
 30
0.0
 10
357.2870609517
 20
209.2453605256
 30
0.0
 10
357.3285942188
 20
209.2613319357
 30
0.0
 10
357.3660876192
 20
209.283719279
 30
0.0
 10
357.3756461648
 20
209.2899702683
 30
0.0
  0
SPLINE
  5
5B5
330
226
100
AcDbEntity
  8
06___PRT_ALL_SURFS
  6
CONTINUOUS
 62
     7
100
AcDbSpline
 70
     0
 71
     3
 72
     9
 73
     5
 74
     0
 42
0.000000001
 43
0.0000001
 40
0.0
 40
0.0
 40
0.0
 40
0.0
 40
0.2287821482
 40
1.0
 40
1.0
 40
1.0
 40
1.0
 10
357.3756461648
 20
209.2899702683
 30
0.0
 10
357.4166701046
 20
209.3167986395
 30
0.0
 10
357.5750542811
 20
209.464990801
 30
0.0
 10
357.6476225483
 20
209.6909416284
 30
0.0
 10
357.6495148537
 20
209.8561676726
 30
0.0
  0
SPLINE
  5
5B6
330
226
100
AcDbEntity
  8
06___PRT_ALL_SURFS
  6
CONTINUOUS
 62
     7
100
AcDbSpline
 70
     0
 71
     3
 72
    10
 73
     6
 74
     0
 42
0.000000001
 43
0.0000001
 40
0.0
 40
0.0
 40
0.0
 40
0.0
 40
0.2142779314
 40
0.4491115734
 40
1.0
 40
1.0
 40
1.0
 40
1.0
 10
357.560748848
 20
210.2716446875
 30
0.0
 10
357.6000083435
 20
210.2627271254
 30
0.0
 10
357.6785466871
 20
210.2233772971
 30
0.0
 10
357.7990934672
 20
210.0742671395
 30
0.0
 10
357.8279190223
 20
209.9193844124
 30
0.0
 10
357.8267336854
 20
209.8158876948
 30
0.0
  0
SPLINE
  5
5B7
330
226
100
AcDbEntity
  8
06___PRT_ALL_SURFS
  6
CONTINUOUS
 62
     9
100
AcDbSpline
 70
     0
 71
     3
 72
     9
 73
     5
 74
     0
 42
0.000000001
 43
0.0000001
 40
0.0
 40
0.0
 40
0.0
 40
0.0
 40
0.3262332822
 40
1.0
 40
1.0
 40
1.0
 40
1.0
 10
331.8121784696
 20
228.2539455936
 30
0.0
 10
331.8120211965
 20
228.2465018958
 30
0.0
 10
331.8361815599
 20
228.2309741002
 30
0.0
 10
331.8561328035
 20
228.2264420962
 30
0.0
 10
331.8711272056
 20
228.2230340261
 30
0.0
  0
SPLINE
  5
5B8
330
226
100
AcDbEntity
  8
06___PRT_ALL_SURFS
  6
CONTINUOUS
 62
     9
100
AcDbSpline
 70
     0
 71
     3
 72
     9
 73
     5
 74
     0
 42
0.000000001
 43
0.0000001
 40
0.0
 40
0.0
 40
0.0
 40
0.0
 40
0.5545678916
 40
1.0
 40
1.0
 40
1.0
 40
1.0
 10
346.4963957991
 20
224.8581367911
 30
0.0
 10
346.4961804836
 20
224.8393366799
 30
0.0
 10
346.4896885391
 20
224.8042922114
 30
0.0
 10
346.4606318477
 20
224.7794008581
 30
0.0
 10
346.4458424174
 20
224.7763474267
 30
0.0
  0
SPLINE
  5
5B9
330
226
100
AcDbEntity
  8
06___PRT_ALL_SURFS
  6
CONTINUOUS
 62
     9
100
AcDbSpline
 70
     0
 71
     3
 72
     9
 73
     5
 74
     0
 42
0.000000001
 43
0.0000001
 40
0.0
 40
0.0
 40
0.0
 40
0.0
 40
0.3817432416
 40
1.0
 40
1.0
 40
1.0
 40
1.0
 10
346.2833202753
 20
224.5242924958
 30
0.0
 10
346.2874620925
 20
224.5251527526
 30
0.0
 10
346.2970531884
 20
224.5277432742
 30
0.0
 10
346.3123497001
 20
224.5324086112
 30
0.0
 10
346.3124261587
 20
224.5392592737
 30
0.0
  0
SPLINE
  5
5BA
330
226
100
AcDbEntity
  8
06___PRT_ALL_SURFS
  6
CONTINUOUS
 62
     9
100
AcDbSpline
 70
     0
 71
     3
 72
     9
 73
     5
 74
     0
 42
0.000000001
 43
0.0000001
 40
0.0
 40
0.0
 40
0.0
 40
0.0
 40
0.3817432427
 40
1.0
 40
1.0
 40
1.0
 40
1.0
 10
346.1044712412
 20
208.9082262801
 30
0.0
 10
346.1086130583
 20
208.9090865369
 30
0.0
 10
346.1182041542
 20
208.9116770585
 30
0.0
 10
346.1335006659
 20
208.9163423955
 30
0.0
 10
346.1335771246
 20
208.9231930579
 30
0.0
  0
SPLINE
  5
5BB
330
226
100
AcDbEntity
  8
06___PRT_ALL_SURFS
  6
CONTINUOUS
 62
     9
100
AcDbSpline
 70
     0
 71
     3
 72
     9
 73
     5
 74
     0
 42
0.000000001
 43
0.0000001
 40
0.0
 40
0.0
 40
0.0
 40
0.0
 40
0.2801831867
 40
1.0
 40
1.0
 40
1.0
 40
1.0
 10
346.3108977014
 20
208.6615126925
 30
0.0
 10
346.3110437076
 20
208.6742611089
 30
0.0
 10
346.3058663018
 20
208.7187918025
 30
0.0
 10
346.2746564989
 20
208.7664254999
 30
0.0
 10
346.2429832116
 20
208.7747698895
 30
0.0
  0
SPLINE
  5
5BC
330
226
100
AcDbEntity
  8
06___PRT_ALL_SURFS
  6
CONTINUOUS
 62
     9
100
AcDbSpline
 70
     0
 71
     3
 72
     9
 73
     5
 74
     0
 42
0.000000001
 43
0.0000001
 40
0.0
 40
0.0
 40
0.0
 40
0.0
 40
0.2801831895
 40
1.0
 40
1.0
 40
1.0
 40
1.0
 10
368.7376957347
 20
213.3195664301
 30
0.0
 10
368.7378417409
 20
213.3323148467
 30
0.0
 10
368.732664335
 20
213.3768455403
 30
0.0
 10
368.701454532
 20
213.4244792376
 30
0.0
 10
368.6697812447
 20
213.4328236271
 30
0.0
  0
SPLINE
  5
5BD
330
226
100
AcDbEntity
  8
06___PRT_ALL_SURFS
  6
CONTINUOUS
 62
     9
100
AcDbSpline
 70
     0
 71
     3
 72
     9
 73
     5
 74
     0
 42
0.000000001
 43
0.0000001
 40
0.0
 40
0.0
 40
0.0
 40
0.0
 40
0.2291729653
 40
1.0
 40
1.0
 40
1.0
 40
1.0
 10
368.9507712585
 20
213.6534107255
 30
0.0
 10
368.9403029856
 20
213.6512364615
 30
0.0
 10
368.8939388752
 20
213.6457846351
 30
0.0
 10
368.8463882207
 20
213.6468571624
 30
0.0
 10
368.81123899
 20
213.6544580057
 30
0.0
  0
SPLINE
  5
5BE
330
226
100
AcDbEntity
  8
06___PRT_ALL_SURFS
  6
CONTINUOUS
 62
     9
100
AcDbSpline
 70
     0
 71
     3
 72
     9
 73
     5
 74
     0
 42
0.000000001
 43
0.0000001
 40
0.0
 40
0.0
 40
0.0
 40
0.0
 40
0.2291729681
 40
1.0
 40
1.0
 40
1.0
 40
1.0
 10
369.1296202927
 20
229.2694769412
 30
0.0
 10
369.1191520196
 20
229.2673026772
 30
0.0
 10
369.0727879092
 20
229.2618508508
 30
0.0
 10
369.0252372547
 20
229.262923378
 30
0.0
 10
368.9900880241
 20
229.2705242213
 30
0.0
  0
SPLINE
  5
5BF
330
226
100
AcDbEntity
  8
06___PRT_ALL_SURFS
  6
CONTINUOUS
 62
     9
100
AcDbSpline
 70
     0
 71
     3
 72
     9
 73
     5
 74
     0
 42
0.000000001
 43
0.0000001
 40
0.0
 40
0.0
 40
0.0
 40
0.0
 40
0.5545678882
 40
1.0
 40
1.0
 40
1.0
 40
1.0
 10
368.9231938324
 20
229.5161905288
 30
0.0
 10
368.9229785169
 20
229.4973904176
 30
0.0
 10
368.9164865723
 20
229.4623459492
 30
0.0
 10
368.8874298811
 20
229.4374545957
 30
0.0
 10
368.8726404506
 20
229.4344011643
 30
0.0
  0
SPLINE
  5
5C0
330
226
100
AcDbEntity
  8
06___PRT_ALL_SURFS
  6
CONTINUOUS
 62
     7
100
AcDbSpline
 70
     0
 71
     3
 72
    11
 73
     7
 74
     0
 42
0.000000001
 43
0.0000001
 40
0.0
 40
0.0
 40
0.0
 40
0.0
 40
0.2051511918
 40
0.4461955895
 40
0.7187871534
 40
1.0
 40
1.0
 40
1.0
 40
1.0
 10
357.099586002
 20
209.4052356099
 30
0.0
 10
357.1417670845
 20
209.4031974657
 30
0.0
 10
357.2354068831
 20
209.4310165024
 30
0.0
 10
357.3435273155
 20
209.5373833418
 30
0.0
 10
357.4173975698
 20
209.686057209
 30
0.0
 10
357.4367338388
 20
209.8004799471
 30
0.0
 10
357.4373967715
 20
209.8583637077
 30
0.0
  0
SPLINE
  5
5C1
330
226
100
AcDbEntity
  8
06___PRT_ALL_SURFS
  6
CONTINUOUS
 62
     9
100
AcDbSpline
 70
     0
 71
     3
 72
     9
 73
     5
 74
     0
 42
0.000000001
 43
0.0000001
 40
0.0
 40
0.0
 40
0.0
 40
0.0
 40
0.4473007964
 40
1.0
 40
1.0
 40
1.0
 40
1.0
 10
368.9061654505
 20
229.4307125703
 30
0.0
 10
368.932653924
 20
229.4209894044
 30
0.0
 10
368.9804044518
 20
229.370156446
 30
0.0
 10
368.9904873074
 20
229.3053873289
 30
0.0
 10
368.9900880241
 20
229.2705242213
 30
0.0
  0
SPLINE
  5
5C2
330
226
100
AcDbEntity
  8
06___PRT_ALL_SURFS
  6
CONTINUOUS
 62
     9
100
AcDbSpline
 70
     0
 71
     3
 72
     9
 73
     5
 74
     0
 42
0.000000001
 43
0.0000001
 40
0.0
 40
0.0
 40
0.0
 40
0.0
 40
0.2164228592
 40
1.0
 40
1.0
 40
1.0
 40
1.0
 10
345.9083269199
 20
225.2870229187
 30
0.0
 10
345.8888866959
 20
225.2829851774
 30
0.0
 10
345.8047129953
 20
225.2391717629
 30
0.0
 10
345.7665836414
 20
225.1369552316
 30
0.0
 10
345.76508361
 20
225.0650837653
 30
0.0
  0
SPLINE
  5
5C3
330
226
100
AcDbEntity
  8
06___PRT_ALL_SURFS
  6
CONTINUOUS
 62
     9
100
AcDbSpline
 70
     0
 71
     3
 72
     8
 73
     4
 74
     0
 42
0.000000001
 43
0.0000001
 40
0.0
 40
0.0
 40
0.0
 40
0.0
 40
1.0
 40
1.0
 40
1.0
 40
1.0
 10
331.8832345502
 20
228.2992848496
 30
0.0
 10
331.8904716761
 20
228.3234455411
 30
0.0
 10
331.9009672667
 20
228.346930445
 30
0.0
 10
331.9146442573
 20
228.3681213613
 30
0.0
  0
SPLINE
  5
5C4
330
226
100
AcDbEntity
  8
06___PRT_ALL_SURFS
  6
CONTINUOUS
 62
     9
100
AcDbSpline
 70
     0
 71
     3
 72
     9
 73
     5
 74
     0
 42
0.000000001
 43
0.0000001
 40
0.0
 40
0.0
 40
0.0
 40
0.0
 40
0.2673187708
 40
1.0
 40
1.0
 40
1.0
 40
1.0
 10
331.9146442573
 20
228.3681213613
 30
0.0
 10
331.9190364233
 20
228.3749265151
 30
0.0
 10
331.9366994364
 20
228.399508653
 30
0.0
 10
331.959787253
 20
228.4206331006
 30
0.0
 10
331.9791502698
 20
228.4314907175
 30
0.0
  0
SPLINE
  5
5C5
330
226
100
AcDbEntity
  8
06___PRT_ALL_SURFS
  6
CONTINUOUS
 62
     9
100
AcDbSpline
 70
     0
 71
     3
 72
     8
 73
     4
 74
     0
 42
0.000000001
 43
0.0000001
 40
0.0
 40
0.0
 40
0.0
 40
0.0
 40
1.0
 40
1.0
 40
1.0
 40
1.0
 10
331.9791502698
 20
228.4314907175
 30
0.0
 10
331.9901149749
 20
228.4376390657
 30
0.0
 10
332.0020623199
 20
228.4424167631
 30
0.0
 10
332.0143705155
 20
228.4449731796
 30
0.0
  0
SPLINE
  5
5C6
330
226
100
AcDbEntity
  8
06___PRT_ALL_SURFS
  6
CONTINUOUS
 62
     9
100
AcDbSpline
 70
     0
 71
     3
 72
     9
 73
     5
 74
     0
 42
0.000000001
 43
0.0000001
 40
0.0
 40
0.0
 40
0.0
 40
0.0
 40
0.4986484691
 40
1.0
 40
1.0
 40
1.0
 40
1.0
 10
346.0478663723
 20
225.0595981087
 30
0.0
 10
346.0015058053
 20
225.0508070713
 30
0.0
 10
345.9063065744
 20
225.0475815018
 30
0.0
 10
345.8113461703
 20
225.0545687716
 30
0.0
 10
345.76508361
 20
225.0650837653
 30
0.0
  0
SPLINE
  5
5C7
330
226
100
AcDbEntity
  8
06___PRT_ALL_SURFS
  6
CONTINUOUS
 62
     9
100
AcDbSpline
 70
     0
 71
     3
 72
     9
 73
     5
 74
     0
 42
0.000000001
 43
0.0000001
 40
0.0
 40
0.0
 40
0.0
 40
0.0
 40
0.2816274676
 40
1.0
 40
1.0
 40
1.0
 40
1.0
 10
346.0478663723
 20
225.0595981087
 30
0.0
 10
346.0481633422
 20
225.0855278024
 30
0.0
 10
346.0376365993
 20
225.1755082924
 30
0.0
 10
345.972827377
 20
225.2723626427
 30
0.0
 10
345.9083269199
 20
225.2870229187
 30
0.0
  0
SPLINE
  5
5C8
330
226
100
AcDbEntity
  8
06___PRT_ALL_SURFS
  6
CONTINUOUS
 62
     9
100
AcDbSpline
 70
     0
 71
     3
 72
     9
 73
     5
 74
     0
 42
0.000000001
 43
0.0000001
 40
0.0
 40
0.0
 40
0.0
 40
0.0
 40
0.6645820315
 40
1.0
 40
1.0
 40
1.0
 40
1.0
 10
369.3784878732
 20
229.9053762944
 30
0.0
 10
369.3932750086
 20
229.9087147864
 30
0.0
 10
369.4137154599
 20
229.9132861048
 30
0.0
 10
369.4366963981
 20
229.9295498154
 30
0.0
 10
369.4367124184
 20
229.9372007841
 30
0.0
  0
SPLINE
  5
5C9
330
226
100
AcDbEntity
  8
06___PRT_ALL_SURFS
  6
CONTINUOUS
 62
     7
100
AcDbSpline
 70
     0
 71
     3
 72
     9
 73
     5
 74
     0
 42
0.000000001
 43
0.0000001
 40
0.0
 40
0.0
 40
0.0
 40
0.0
 40
0.2784211883
 40
1.0
 40
1.0
 40
1.0
 40
1.0
 10
357.6495148537
 20
209.8561676726
 30
0.0
 10
357.6499495672
 20
209.8941242484
 30
0.0
 10
357.6415802071
 20
210.0294829783
 30
0.0
 10
357.5873405401
 20
210.1684662402
 30
0.0
 10
357.5170252802
 20
210.2372699527
 30
0.0
  0
SPLINE
  5
5CA
330
226
100
AcDbEntity
  8
06___PRT_ALL_SURFS
  6
CONTINUOUS
 62
     7
100
AcDbSpline
 70
     0
 71
     3
 72
    11
 73
     7
 74
     0
 42
0.000000001
 43
0.0000001
 40
0.0
 40
0.0
 40
0.0
 40
0.0
 40
0.2856079923
 40
0.5598725882
 40
0.797801273
 40
1.0
 40
1.0
 40
1.0
 40
1.0
 10
357.8267336854
 20
209.8158876948
 30
0.0
 10
357.8257598667
 20
209.7308586424
 30
0.0
 10
357.7956950909
 20
209.5634067098
 30
0.0
 10
357.6818880727
 20
209.350529613
 30
0.0
 10
357.5157949609
 20
209.2063163781
 30
0.0
 10
357.3756544079
 20
209.185668421
 30
0.0
 10
357.3169487795
 20
209.1990030571
 30
0.0
  0
SPLINE
  5
5CB
330
226
100
AcDbEntity
  8
06___PRT_ALL_SURFS
  6
CONTINUOUS
 62
     7
100
AcDbSpline
 70
     0
 71
     3
 72
     9
 73
     5
 74
     0
 42
0.000000001
 43
0.0000001
 40
0.0
 40
0.0
 40
0.0
 40
0.0
 40
0.5512071272
 40
1.0
 40
1.0
 40
1.0
 40
1.0
 10
357.4373967715
 20
209.8583637077
 30
0.0
 10
357.4381862133
 20
209.9272930352
 30
0.0
 10
357.4184764846
 20
210.0553719301
 30
0.0
 10
357.3272771344
 20
210.1578721192
 30
0.0
 10
357.275549158
 20
210.1796514192
 30
0.0
  0
SPLINE
  5
5CC
330
226
100
AcDbEntity
  8
06___PRT_ALL_SURFS
  6
CONTINUOUS
 62
     9
100
AcDbSpline
 70
     0
 71
     3
 72
    11
 73
     7
 74
     0
 42
0.000000001
 43
0.0000001
 40
0.0
 40
0.0
 40
0.0
 40
0.0
 40
0.2180854466
 40
0.4441695454
 40
0.7042348466
 40
1.0
 40
1.0
 40
1.0
 40
1.0
 10
368.9231938324
 20
229.5161905288
 30
0.0
 10
368.9493696444
 20
229.521627254
 30
0.0
 10
369.0073586833
 20
229.5183486722
 30
0.0
 10
369.078907031
 20
229.4628909735
 30
0.0
 10
369.1217241726
 20
229.3745246972
 30
0.0
 10
369.1300355125
 20
229.3057315466
 30
0.0
 10
369.1296202927
 20
229.2694769412
 30
0.0
  0
SPLINE
  5
5CD
330
226
100
AcDbEntity
  8
02___PRT_ALL_AXES
  6
CONTINUOUS
 62
     7
100
AcDbSpline
 70
     0
 71
     3
 72
     9
 73
     5
 74
     0
 42
0.000000001
 43
0.0000001
 40
0.0
 40
0.0
 40
0.0
 40
0.0
 40
0.2383480404
 40
1.0
 40
1.0
 40
1.0
 40
1.0
 10
348.7516978269
 20
71.7436601169
 30
0.0
 10
348.7744902953
 20
71.7483941205
 30
0.0
 10
348.8689235394
 20
71.7739339322
 30
0.0
 10
348.9570161271
 20
71.8205865875
 30
0.0
 10
349.0177682375
 20
71.863515294
 30
0.0
  0
SPLINE
  5
5CE
330
226
100
AcDbEntity
  8
02___PRT_ALL_AXES
  6
CONTINUOUS
 62
     7
100
AcDbSpline
 70
     0
 71
     3
 72
    10
 73
     6
 74
     0
 42
0.000000001
 43
0.0000001
 40
0.0
 40
0.0
 40
0.0
 40
0.0
 40
0.2472511552
 40
0.5218411299
 40
1.0
 40
1.0
 40
1.0
 40
1.0
 10
349.0177682375
 20
71.863515294
 30
0.0
 10
349.1566953359
 20
71.9616840752
 30
0.0
 10
349.3899051601
 20
72.2559393585
 30
0.0
 10
349.6032361857
 20
72.9059626671
 30
0.0
 10
349.5085651051
 20
73.5145816915
 30
0.0
 10
349.2720680607
 20
73.7432643244
 30
0.0
  0
SPLINE
  5
5CF
330
226
100
AcDbEntity
  8
02___PRT_ALL_AXES
  6
CONTINUOUS
 62
     7
100
AcDbSpline
 70
     0
 71
     3
 72
     8
 73
     4
 74
     0
 42
0.000000001
 43
0.0000001
 40
0.0
 40
0.0
 40
0.0
 40
0.0
 40
1.0
 40
1.0
 40
1.0
 40
1.0
 10
349.2720680607
 20
73.7432643244
 30
0.0
 10
349.2179046794
 20
73.7956380218
 30
0.0
 10
349.1529195691
 20
73.8392745863
 30
0.0
 10
349.082785725
 20
73.8668049325
 30
0.0
  0
SPLINE
  5
5D0
330
226
100
AcDbEntity
  8
02___PRT_ALL_AXES
  6
CONTINUOUS
 62
     7
100
AcDbSpline
 70
     0
 71
     3
 72
     9
 73
     5
 74
     0
 42
0.000000001
 43
0.0000001
 40
0.0
 40
0.0
 40
0.0
 40
0.0
 40
0.2383480404
 40
1.0
 40
1.0
 40
1.0
 40
1.0
 10
362.8566022504
 20
74.6732536626
 30
0.0
 10
362.8793947188
 20
74.6779876662
 30
0.0
 10
362.9738279628
 20
74.7035274779
 30
0.0
 10
363.0619205506
 20
74.7501801332
 30
0.0
 10
363.1226726609
 20
74.7931088397
 30
0.0
  0
SPLINE
  5
5D1
330
226
100
AcDbEntity
  8
02___PRT_ALL_AXES
  6
CONTINUOUS
 62
     7
100
AcDbSpline
 70
     0
 71
     3
 72
    10
 73
     6
 74
     0
 42
0.000000001
 43
0.0000001
 40
0.0
 40
0.0
 40
0.0
 40
0.0
 40
0.2472511552
 40
0.5218411299
 40
1.0
 40
1.0
 40
1.0
 40
1.0
 10
363.1226726609
 20
74.7931088397
 30
0.0
 10
363.2615997593
 20
74.8912776209
 30
0.0
 10
363.4948095835
 20
75.1855329042
 30
0.0
 10
363.7081406091
 20
75.8355562128
 30
0.0
 10
363.6134695286
 20
76.4441752372
 30
0.0
 10
363.3769724842
 20
76.6728578701
 30
0.0
  0
SPLINE
  5
5D2
330
226
100
AcDbEntity
  8
02___PRT_ALL_AXES
  6
CONTINUOUS
 62
     7
100
AcDbSpline
 70
     0
 71
     3
 72
     8
 73
     4
 74
     0
 42
0.000000001
 43
0.0000001
 40
0.0
 40
0.0
 40
0.0
 40
0.0
 40
1.0
 40
1.0
 40
1.0
 40
1.0
 10
363.3769724842
 20
76.6728578701
 30
0.0
 10
363.3228091029
 20
76.7252315675
 30
0.0
 10
363.2578239925
 20
76.768868132
 30
0.0
 10
363.1876901485
 20
76.7963984782
 30
0.0
  0
SPLINE
  5
5D3
330
226
100
AcDbEntity
  8
02___PRT_ALL_AXES
  6
CONTINUOUS
 62
     3
100
AcDbSpline
 70
     0
 71
     3
 72
    13
 73
     9
 74
     0
 42
0.000000001
 43
0.0000001
 40
0.0
 40
0.0
 40
0.0
 40
0.0
 40
0.2867492615
 40
0.5604226938
 40
0.6840936126
 40
0.7968640748
 40
0.9005976013
 40
1.0
 40
1.0
 40
1.0
 40
1.0
 10
363.6094056037
 20
75.9006618761
 30
0.0
 10
363.6074724737
 20
75.7318721165
 30
0.0
 10
363.5460186814
 20
75.4010190905
 30
0.0
 10
363.3452831495
 20
75.0407370284
 30
0.0
 10
363.1235774646
 20
74.834624013
 30
0.0
 10
362.9456110817
 20
74.7373686811
 30
0.0
 10
362.760147164
 20
74.700010397
 30
0.0
 10
362.638992168
 20
74.718823934
 30
0.0
 10
362.5837017193
 20
74.7379812256
 30
0.0
  0
SPLINE
  5
5D4
330
226
100
AcDbEntity
  8
02___PRT_ALL_AXES
  6
CONTINUOUS
 62
     3
100
AcDbSpline
 70
     0
 71
     3
 72
     9
 73
     5
 74
     0
 42
0.000000001
 43
0.0000001
 40
0.0
 40
0.0
 40
0.0
 40
0.0
 40
0.5420643736
 40
1.0
 40
1.0
 40
1.0
 40
1.0
 10
349.5045011803
 20
72.9710683304
 30
0.0
 10
349.5062779773
 20
73.126208
 30
0.0
 10
349.4655886372
 20
73.4162648304
 30
0.0
 10
349.2988738203
 20
73.6690026906
 30
0.0
 10
349.1943092286
 20
73.748032549
 30
0.0
  0
SPLINE
  5
5D5
330
226
100
AcDbEntity
  8
02___PRT_ALL_AXES
  6
CONTINUOUS
 62
     3
100
AcDbSpline
 70
     0
 71
     3
 72
     9
 73
     5
 74
     0
 42
0.000000001
 43
0.0000001
 40
0.0
 40
0.0
 40
0.0
 40
0.0
 40
0.2551565454
 40
1.0
 40
1.0
 40
1.0
 40
1.0
 10
349.1943092286
 20
73.748032549
 30
0.0
 10
349.182274304
 20
73.7571285381
 30
0.0
 10
349.1337220826
 20
73.7908923805
 30
0.0
 10
349.0795090846
 20
73.8166265785
 30
0.0
 10
349.0375555257
 20
73.8300129076
 30
0.0
  0
SPLINE
  5
5D6
330
226
100
AcDbEntity
  8
02___PRT_ALL_AXES
  6
CONTINUOUS
 62
     3
100
AcDbSpline
 70
     0
 71
     3
 72
     8
 73
     4
 74
     0
 42
0.000000001
 43
0.0000001
 40
0.0
 40
0.0
 40
0.0
 40
0.0
 40
1.0
 40
1.0
 40
1.0
 40
1.0
 10
349.0375555257
 20
73.8300129076
 30
0.0
 10
348.992316591
 20
73.8444475179
 30
0.0
 10
348.9445064873
 20
73.8523392467
 30
0.0
 10
348.8970326542
 20
73.853413662
 30
0.0
  0
SPLINE
  5
5D7
330
226
100
AcDbEntity
  8
02___PRT_ALL_AXES
  6
CONTINUOUS
 62
     3
100
AcDbSpline
 70
     0
 71
     3
 72
    13
 73
     9
 74
     0
 42
0.000000001
 43
0.0000001
 40
0.0
 40
0.0
 40
0.0
 40
0.0
 40
0.0994023987
 40
0.2031359252
 40
0.3159063874
 40
0.4395773062
 40
0.7132507385
 40
1.0
 40
1.0
 40
1.0
 40
1.0
 10
348.4787972958
 20
71.8083876799
 30
0.0
 10
348.5340877445
 20
71.7892303883
 30
0.0
 10
348.6552427405
 20
71.7704168513
 30
0.0
 10
348.8407066583
 20
71.8077751353
 30
0.0
 10
349.0186730411
 20
71.9050304673
 30
0.0
 10
349.240378726
 20
72.1111434827
 30
0.0
 10
349.441114258
 20
72.4714255448
 30
0.0
 10
349.5025680503
 20
72.8022785708
 30
0.0
 10
349.5045011803
 20
72.9710683304
 30
0.0
  0
SPLINE
  5
5D8
330
226
100
AcDbEntity
  8
02___PRT_ALL_AXES
  6
CONTINUOUS
 62
     3
100
AcDbSpline
 70
     0
 71
     3
 72
     8
 73
     4
 74
     0
 42
0.000000001
 43
0.0000001
 40
0.0
 40
0.0
 40
0.0
 40
0.0
 40
1.0
 40
1.0
 40
1.0
 40
1.0
 10
363.0019370777
 20
76.7830072077
 30
0.0
 10
363.0494109107
 20
76.7819327924
 30
0.0
 10
363.0972210144
 20
76.7740410636
 30
0.0
 10
363.1424599492
 20
76.7596064533
 30
0.0
  0
SPLINE
  5
5D9
330
226
100
AcDbEntity
  8
02___PRT_ALL_AXES
  6
CONTINUOUS
 62
     3
100
AcDbSpline
 70
     0
 71
     3
 72
     9
 73
     5
 74
     0
 42
0.000000001
 43
0.0000001
 40
0.0
 40
0.0
 40
0.0
 40
0.0
 40
0.7448434546
 40
1.0
 40
1.0
 40
1.0
 40
1.0
 10
363.1424599492
 20
76.7596064533
 30
0.0
 10
363.184413508
 20
76.7462201242
 30
0.0
 10
363.2386265061
 20
76.7204859262
 30
0.0
 10
363.2871787274
 20
76.6867220838
 30
0.0
 10
363.299213652
 20
76.6776260947
 30
0.0
  0
SPLINE
  5
5DA
330
226
100
AcDbEntity
  8
02___PRT_ALL_AXES
  6
CONTINUOUS
 62
     3
100
AcDbSpline
 70
     0
 71
     3
 72
     9
 73
     5
 74
     0
 42
0.000000001
 43
0.0000001
 40
0.0
 40
0.0
 40
0.0
 40
0.0
 40
0.4579356264
 40
1.0
 40
1.0
 40
1.0
 40
1.0
 10
363.299213652
 20
76.6776260947
 30
0.0
 10
363.4037782438
 20
76.5985962363
 30
0.0
 10
363.5704930607
 20
76.3458583761
 30
0.0
 10
363.6111824007
 20
76.0558015457
 30
0.0
 10
363.6094056037
 20
75.9006618761
 30
0.0
  0
SPLINE
  5
5DB
330
226
100
AcDbEntity
  8
7_ALL_FEATURES
  6
CONTINUOUS
 62
     3
100
AcDbSpline
 70
     0
 71
     3
 72
     9
 73
     5
 74
     0
 42
0.000000001
 43
0.0000001
 40
0.0
 40
0.0
 40
0.0
 40
0.0
 40
0.6694547708
 40
1.0
 40
1.0
 40
1.0
 40
1.0
 10
330.1945147468
 20
72.9334009476
 30
0.0
 10
330.1495590956
 20
72.9436188946
 30
0.0
 10
330.0886387639
 20
72.9573805315
 30
0.0
 10
330.0174490635
 20
73.0053821091
 30
0.0
 10
330.0177011078
 20
73.0281438305
 30
0.0
  0
SPLINE
  5
5DC
330
226
100
AcDbEntity
  8
7_ALL_FEATURES
  6
CONTINUOUS
 62
     3
100
AcDbSpline
 70
     0
 71
     3
 72
     9
 73
     5
 74
     0
 42
0.000000001
 43
0.0000001
 40
0.0
 40
0.0
 40
0.0
 40
0.0
 40
0.2951575037
 40
1.0
 40
1.0
 40
1.0
 40
1.0
 10
331.750501344
 20
208.7931770244
 30
0.0
 10
331.7372766387
 20
208.7961828609
 30
0.0
 10
331.6927721167
 20
208.8073305135
 30
0.0
 10
331.6485456605
 20
208.8216641628
 30
0.0
 10
331.6199465957
 20
208.8368618377
 30
0.0
  0
SPLINE
  5
5DD
330
226
100
AcDbEntity
  8
02___PRT_ALL_AXES
  6
CONTINUOUS
 62
     3
100
AcDbSpline
 70
     0
 71
     3
 72
     9
 73
     5
 74
     0
 42
0.000000001
 43
0.0000001
 40
0.0
 40
0.0
 40
0.0
 40
0.0
 40
0.2365484908
 40
1.0
 40
1.0
 40
1.0
 40
1.0
 10
348.9180646345
 20
73.8586452393
 30
0.0
 10
348.8915703001
 20
73.8531423568
 30
0.0
 10
348.7811824171
 20
73.8221536225
 30
0.0
 10
348.679868811
 20
73.7627724647
 30
0.0
 10
348.6115171183
 20
73.7084093511
 30
0.0
  0
SPLINE
  5
5DE
330
226
100
AcDbEntity
  8
02___PRT_ALL_AXES
  6
CONTINUOUS
 62
     3
100
AcDbSpline
 70
     0
 71
     3
 72
     9
 73
     5
 74
     0
 42
0.000000001
 43
0.0000001
 40
0.0
 40
0.0
 40
0.0
 40
0.0
 40
0.23383036
 40
1.0
 40
1.0
 40
1.0
 40
1.0
 10
348.6115171183
 20
73.7084093511
 30
0.0
 10
348.5719737372
 20
73.6769587574
 30
0.0
 10
348.4138768841
 20
73.5286871716
 30
0.0
 10
348.3008374708
 20
73.3363023053
 30
0.0
 10
348.2400803938
 20
73.1823023293
 30
0.0
  0
SPLINE
  5
5DF
330
226
100
AcDbEntity
  8
02___PRT_ALL_AXES
  6
CONTINUOUS
 62
     3
100
AcDbSpline
 70
     0
 71
     3
 72
     9
 73
     5
 74
     0
 42
0.000000001
 43
0.0000001
 40
0.0
 40
0.0
 40
0.0
 40
0.0
 40
0.264832163
 40
1.0
 40
1.0
 40
1.0
 40
1.0
 10
348.1350804398
 20
72.7314509115
 30
0.0
 10
348.1305045886
 20
72.6757517187
 30
0.0
 10
348.124472591
 20
72.4649795474
 30
0.0
 10
348.1647906575
 20
72.2504735154
 30
0.0
 10
348.2277845227
 20
72.108697777
 30
0.0
  0
SPLINE
  5
5E0
330
226
100
AcDbEntity
  8
02___PRT_ALL_AXES
  6
CONTINUOUS
 62
     3
100
AcDbSpline
 70
     0
 71
     3
 72
     8
 73
     4
 74
     0
 42
0.000000001
 43
0.0000001
 40
0.0
 40
0.0
 40
0.0
 40
0.0
 40
1.0
 40
1.0
 40
1.0
 40
1.0
 10
348.258919218
 20
72.0452301139
 30
0.0
 10
348.2956885332
 20
71.9771149478
 30
0.0
 10
348.3420486205
 20
71.9128481461
 30
0.0
 10
348.3976944007
 20
71.8590410317
 30
0.0
  0
SPLINE
  5
5E1
330
226
100
AcDbEntity
  8
02___PRT_ALL_AXES
  6
CONTINUOUS
 62
     3
100
AcDbSpline
 70
     0
 71
     3
 72
     8
 73
     4
 74
     0
 42
0.000000001
 43
0.0000001
 40
0.0
 40
0.0
 40
0.0
 40
0.0
 40
1.0
 40
1.0
 40
1.0
 40
1.0
 10
348.3976944007
 20
71.8590410317
 30
0.0
 10
348.451857782
 20
71.8066673343
 30
0.0
 10
348.5168428923
 20
71.7630307699
 30
0.0
 10
348.5869767364
 20
71.7355004237
 30
0.0
  0
SPLINE
  5
5E2
330
226
100
AcDbEntity
  8
02___PRT_ALL_AXES
  6
CONTINUOUS
 62
     3
100
AcDbSpline
 70
     0
 71
     3
 72
     9
 73
     5
 74
     0
 42
0.000000001
 43
0.0000001
 40
0.0
 40
0.0
 40
0.0
 40
0.0
 40
0.2365484908
 40
1.0
 40
1.0
 40
1.0
 40
1.0
 10
363.0229690579
 20
76.788238785
 30
0.0
 10
362.9964747235
 20
76.7827359025
 30
0.0
 10
362.8860868406
 20
76.7517471682
 30
0.0
 10
362.7847732345
 20
76.6923660104
 30
0.0
 10
362.7164215417
 20
76.6380028968
 30
0.0
  0
SPLINE
  5
5E3
330
226
100
AcDbEntity
  8
02___PRT_ALL_AXES
  6
CONTINUOUS
 62
     3
100
AcDbSpline
 70
     0
 71
     3
 72
     9
 73
     5
 74
     0
 42
0.000000001
 43
0.0000001
 40
0.0
 40
0.0
 40
0.0
 40
0.0
 40
0.23383036
 40
1.0
 40
1.0
 40
1.0
 40
1.0
 10
362.7164215417
 20
76.6380028968
 30
0.0
 10
362.6768781606
 20
76.6065523031
 30
0.0
 10
362.5187813076
 20
76.4582807173
 30
0.0
 10
362.4057418942
 20
76.265895851
 30
0.0
 10
362.3449848172
 20
76.111895875
 30
0.0
  0
SPLINE
  5
5E4
330
226
100
AcDbEntity
  8
02___PRT_ALL_AXES
  6
CONTINUOUS
 62
     3
100
AcDbSpline
 70
     0
 71
     3
 72
     9
 73
     5
 74
     0
 42
0.000000001
 43
0.0000001
 40
0.0
 40
0.0
 40
0.0
 40
0.0
 40
0.264832163
 40
1.0
 40
1.0
 40
1.0
 40
1.0
 10
362.2399848632
 20
75.6610444572
 30
0.0
 10
362.2354090121
 20
75.6053452644
 30
0.0
 10
362.2293770144
 20
75.3945730931
 30
0.0
 10
362.269695081
 20
75.1800670611
 30
0.0
 10
362.3326889461
 20
75.0382913227
 30
0.0
  0
SPLINE
  5
5E5
330
226
100
AcDbEntity
  8
02___PRT_ALL_AXES
  6
CONTINUOUS
 62
     3
100
AcDbSpline
 70
     0
 71
     3
 72
     8
 73
     4
 74
     0
 42
0.000000001
 43
0.0000001
 40
0.0
 40
0.0
 40
0.0
 40
0.0
 40
1.0
 40
1.0
 40
1.0
 40
1.0
 10
362.3638236414
 20
74.9748236597
 30
0.0
 10
362.4005929567
 20
74.9067084935
 30
0.0
 10
362.446953044
 20
74.8424416918
 30
0.0
 10
362.5025988241
 20
74.7886345775
 30
0.0
  0
SPLINE
  5
5E6
330
226
100
AcDbEntity
  8
02___PRT_ALL_AXES
  6
CONTINUOUS
 62
     3
100
AcDbSpline
 70
     0
 71
     3
 72
     8
 73
     4
 74
     0
 42
0.000000001
 43
0.0000001
 40
0.0
 40
0.0
 40
0.0
 40
0.0
 40
1.0
 40
1.0
 40
1.0
 40
1.0
 10
362.5025988241
 20
74.7886345775
 30
0.0
 10
362.5567622054
 20
74.7362608801
 30
0.0
 10
362.6217473157
 20
74.6926243156
 30
0.0
 10
362.6918811598
 20
74.6650939694
 30
0.0
  0
SPLINE
  5
5E7
330
226
100
AcDbEntity
  8
7_ALL_FEATURES
  6
CONTINUOUS
 62
     3
100
AcDbSpline
 70
     0
 71
     3
 72
     9
 73
     5
 74
     0
 42
0.000000001
 43
0.0000001
 40
0.0
 40
0.0
 40
0.0
 40
0.0
 40
0.5009899087
 40
1.0
 40
1.0
 40
1.0
 40
1.0
 10
343.5213708899
 20
69.9043466158
 30
0.0
 10
343.6601058068
 20
69.8728136273
 30
0.0
 10
343.9453862856
 20
69.8536950435
 30
0.0
 10
344.2310933021
 20
69.8667440695
 30
0.0
 10
344.3698432186
 20
69.8955624754
 30
0.0
  0
SPLINE
  5
5E8
330
226
100
AcDbEntity
  8
7_ALL_FEATURES
  6
CONTINUOUS
 62
     3
100
AcDbSpline
 70
     0
 71
     3
 72
     9
 73
     5
 74
     0
 42
0.000000001
 43
0.0000001
 40
0.0
 40
0.0
 40
0.0
 40
0.0
 40
0.3314355836
 40
1.0
 40
1.0
 40
1.0
 40
1.0
 10
367.6765220487
 20
74.7899127605
 30
0.0
 10
367.676274568
 20
74.7675631647
 30
0.0
 10
367.6061168694
 20
74.7216143449
 30
0.0
 10
367.5460302248
 20
74.7092645629
 30
0.0
 10
367.5018864731
 20
74.7000958903
 30
0.0
  0
SPLINE
  5
5E9
330
226
100
AcDbEntity
  8
7_ALL_FEATURES
  6
CONTINUOUS
 62
     3
100
AcDbSpline
 70
     0
 71
     3
 72
     9
 73
     5
 74
     0
 42
0.000000001
 43
0.0000001
 40
0.0
 40
0.0
 40
0.0
 40
0.0
 40
0.2025779598
 40
1.0
 40
1.0
 40
1.0
 40
1.0
 10
369.1874285146
 20
210.6008638883
 30
0.0
 10
369.1792640198
 20
210.5966413139
 30
0.0
 10
369.1376431436
 20
210.5783707531
 30
0.0
 10
369.0932993237
 20
210.5672300122
 30
0.0
 10
369.0578730702
 20
210.5598719671
 30
0.0
  0
SPLINE
  5
5EA
330
226
100
AcDbEntity
  8
02___PRT_ALL_AXES
  6
CONTINUOUS
 62
     3
100
AcDbSpline
 70
     0
 71
     3
 72
     8
 73
     4
 74
     0
 42
0.000000001
 43
0.0000001
 40
0.0
 40
0.0
 40
0.0
 40
0.0
 40
1.0
 40
1.0
 40
1.0
 40
1.0
 10
362.8547416361
 20
74.6298672473
 30
0.0
 10
362.9026956883
 20
74.6272962931
 30
0.0
 10
362.9513578825
 20
74.6312637277
 30
0.0
 10
362.9983773157
 20
74.6410296803
 30
0.0
  0
SPLINE
  5
5EB
330
226
100
AcDbEntity
  8
7_ALL_FEATURES
  6
CONTINUOUS
 62
     3
100
AcDbSpline
 70
     0
 71
     3
 72
     9
 73
     5
 74
     0
 42
0.000000001
 43
0.0000001
 40
0.0
 40
0.0
 40
0.0
 40
0.0
 40
0.2254321609
 40
1.0
 40
1.0
 40
1.0
 40
1.0
 10
345.077357487
 20
205.7641226925
 30
0.0
 10
345.0918210646
 20
205.7608352734
 30
0.0
 10
345.1562928356
 20
205.7476337262
 30
0.0
 10
345.2216246545
 20
205.7389132869
 30
0.0
 10
345.2723325505
 20
205.733818001
 30
0.0
  0
SPLINE
  5
5EC
330
226
100
AcDbEntity
  8
7_ALL_FEATURES
  6
CONTINUOUS
 62
     3
100
AcDbSpline
 70
     0
 71
     3
 72
     8
 73
     4
 74
     0
 42
0.000000001
 43
0.0000001
 40
0.0
 40
0.0
 40
0.0
 40
0.0
 40
1.0
 40
1.0
 40
1.0
 40
1.0
 10
345.7956605622
 20
205.7352016704
 30
0.0
 10
345.8392925293
 20
205.7400982866
 30
0.0
 10
345.8828414037
 20
205.746409844
 30
0.0
 10
345.9258298158
 20
205.7553385521
 30
0.0
  0
SPLINE
  5
5ED
330
226
100
AcDbEntity
  8
02___PRT_ALL_AXES
  6
CONTINUOUS
 62
     3
100
AcDbSpline
 70
     0
 71
     3
 72
     8
 73
     4
 74
     0
 42
0.000000001
 43
0.0000001
 40
0.0
 40
0.0
 40
0.0
 40
0.0
 40
1.0
 40
1.0
 40
1.0
 40
1.0
 10
348.7498372126
 20
71.7002737016
 30
0.0
 10
348.7977912649
 20
71.6977027474
 30
0.0
 10
348.8464534591
 20
71.701670182
 30
0.0
 10
348.8934728923
 20
71.7114361346
 30
0.0
  0
SPLINE
  5
5EE
330
226
100
AcDbEntity
  8
02___PRT_ALL_AXES
  6
CONTINUOUS
 62
     3
100
AcDbSpline
 70
     0
 71
     3
 72
    13
 73
     9
 74
     0
 42
0.000000001
 43
0.0000001
 40
0.0
 40
0.0
 40
0.0
 40
0.0
 40
0.2323326716
 40
0.5133094586
 40
0.654333859
 40
0.7839651051
 40
0.8981775761
 40
1.0
 40
1.0
 40
1.0
 40
1.0
 10
362.9983773157
 20
74.6410296803
 30
0.0
 10
363.1988691269
 20
74.6826718991
 30
0.0
 10
363.5826135532
 20
75.0013176833
 30
0.0
 10
363.7834490043
 20
75.5609219123
 30
0.0
 10
363.7938813063
 20
76.0511854665
 30
0.0
 10
363.7105247389
 20
76.3850261498
 30
0.0
 10
363.5427248989
 20
76.647626892
 30
0.0
 10
363.373585352
 20
76.7530506647
 30
0.0
 10
363.2875564049
 20
76.7786014084
 30
0.0
  0
SPLINE
  5
5EF
330
226
100
AcDbEntity
  8
02___PRT_ALL_AXES
  6
CONTINUOUS
 62
     3
100
AcDbSpline
 70
     0
 71
     3
 72
    13
 73
     9
 74
     0
 42
0.000000001
 43
0.0000001
 40
0.0
 40
0.0
 40
0.0
 40
0.0
 40
0.2323326716
 40
0.5133094586
 40
0.654333859
 40
0.7839651051
 40
0.8981775761
 40
1.0
 40
1.0
 40
1.0
 40
1.0
 10
348.8934728923
 20
71.7114361346
 30
0.0
 10
349.0939647034
 20
71.7530783534
 30
0.0
 10
349.4777091298
 20
72.0717241376
 30
0.0
 10
349.6785445809
 20
72.6313283666
 30
0.0
 10
349.6889768829
 20
73.1215919207
 30
0.0
 10
349.6056203154
 20
73.4554326041
 30
0.0
 10
349.4378204755
 20
73.7180333463
 30
0.0
 10
349.2686809285
 20
73.823457119
 30
0.0
 10
349.1826519815
 20
73.8490078627
 30
0.0
  0
ELLIPSE
  5
5F0
330
226
100
AcDbEntity
  8
06___PRT_ALL_SURFS
  6
CONTINUOUS
 62
     7
100
AcDbEllipse
 10
202.6820288789
 20
65.06492741495
 30
0.0
 11
1.0000856798
 21
0.0
 31
0.0
210
0.0
220
0.0
230
1.0
 40
0.9999143276
 41
-1.5707963268
 42
0.0
  0
ELLIPSE
  5
5F1
330
226
100
AcDbEntity
  8
06___PRT_ALL_SURFS
  6
CONTINUOUS
 62
     7
100
AcDbEllipse
 10
202.6820288789
 20
163.06492741495
 30
0.0
 11
1.0000856798
 21
0.0
 31
0.0
210
0.0
220
0.0
230
1.0
 40
0.9999143276
 41
0.0
 42
1.5707963268
  0
ELLIPSE
  5
5F2
330
226
100
AcDbEntity
  8
06___PRT_ALL_SURFS
  6
CONTINUOUS
 62
     7
100
AcDbEllipse
 10
34.68220023849999
 20
163.06492741495
 30
0.0
 11
1.0000856798
 21
0.0
 31
0.0
210
0.0
220
0.0
230
1.0
 40
0.9999143276
 41
1.5707963268
 42
3.1415926536
  0
ELLIPSE
  5
5F3
330
226
100
AcDbEntity
  8
06___PRT_ALL_SURFS
  6
CONTINUOUS
 62
     7
100
AcDbEllipse
 10
34.68220023849999
 20
65.06492741495
 30
0.0
 11
1.0000856798
 21
0.0
 31
0.0
210
0.0
220
0.0
230
1.0
 40
0.9999143276
 41
3.1415926536
 42
4.7123889804
  0
ELLIPSE
  5
5F4
330
226
100
AcDbEntity
  8
06___PRT_ALL_SURFS
  6
CONTINUOUS
 62
     7
100
AcDbEllipse
 10
331.6080123426
 20
208.8869234344
 30
0.0
 11
0.1999954102
 21
-0.0022866132
 31
0.0
210
0.0
220
0.0
230
1.0
 40
0.2174650641
 41
3.1397122451
 42
3.9320013594
  0
ELLIPSE
  5
5F5
330
226
100
AcDbEntity
  8
06___PRT_ALL_SURFS
  6
CONTINUOUS
 62
     7
100
AcDbEllipse
 10
345.501968747
 20
205.7289731735
 30
0.0
 11
0.1999954102
 21
-0.0022866132
 31
0.0
210
0.0
220
0.0
230
1.0
 40
0.2174650641
 41
-2.3511839478
 42
-0.780387621
  0
ELLIPSE
  5
5F6
330
226
100
AcDbEntity
  8
06___PRT_ALL_SURFS
  6
CONTINUOUS
 62
     7
100
AcDbEllipse
 10
369.1981840083
 20
210.6506853102
 30
0.0
 11
0.1999954102
 21
-0.0022866132
 31
0.0
210
0.0
220
0.0
230
1.0
 40
0.2174650641
 41
-0.780387621
 42
0.0021263283
  0
LINE
  5
678
102
{ACAD_REACTORS
102
}
330
226
100
AcDbEntity
  8
0
  6
CONTINUOUS
 62
     7
100
AcDbLine
 10
0.0
 20
597.0
 30
0.0
 11
420.0
 21
597.0
 31
0.0
  0
ENDSEC
  0
SECTION
  2
OBJECTS
  0
DICTIONARY
  5
C
330
0
100
AcDbDictionary
  3
ACAD_DETAILVIEWSTYLE
350
645
  3
ACAD_GROUP
350
D
  3
ACAD_MLINESTYLE
350
17
  3
ACAD_SCALELIST
350
5FC
  3
ACAD_SECTIONVIEWSTYLE
350
646
  3
ACDBVARIABLEDICTIONARY
350
641
  3
APPDATA
350
63E
  3
DWGPROPS
350
6AB
  0
DICTIONARY
  5
645
102
{ACAD_REACTORS
330
C
102
}
330
C
100
AcDbDictionary
  0
DICTIONARY
  5
D
102
{ACAD_REACTORS
330
C
102
}
330
C
100
AcDbDictionary
  0
DICTIONARY
  5
17
102
{ACAD_REACTORS
330
C
102
}
330
C
100
AcDbDictionary
  3
STANDARD
350
18
  0
DICTIONARY
  5
5FC
102
{ACAD_REACTORS
330
C
102
}
330
C
100
AcDbDictionary
  0
DICTIONARY
  5
646
102
{ACAD_REACTORS
330
C
102
}
330
C
100
AcDbDictionary
  0
DICTIONARY
  5
641
102
{ACAD_REACTORS
330
C
102
}
330
C
100
AcDbDictionary
  0
DICTIONARY
  5
63E
102
{ACAD_REACTORS
330
C
102
}
330
C
100
AcDbDictionary
  0
XRECORD
  5
6AB
102
{ACAD_REACTORS
330
C
102
}
330
C
100
AcDbXrecord
  1
DWGPROPS COOKIE
  2

  3

  4

  6

  7

  8
umberto.novello
  9

300
=
301
=
302
=
303
=
304
=
305
=
306
=
307
=
308
=
309
=
 40
0.0
 41
0.0
 42
2458444.334305694
  1

 90
        0
  0
MLINESTYLE
  5
18
102
{ACAD_REACTORS
330
17
102
}
330
17
100
AcDbMlineStyle
  2
STANDARD
 70
     0
  3

 62
   256
 51
90.0
 52
90.0
 71
     2
 49
0.5
 62
   256
  6
BYLAYER
 49
-0.5
 62
   256
  6
BYLAYER
  0
ENDSEC
  0
EOF
