  0
SECTION
  2
HEADER
  9
$ACADVER
  1
AC1021
  9
$ACADMAINTVER
 70
    25
  9
$DWGCODEPAGE
  3
ANSI_1252
  9
$LASTSAVEDBY
  1
umberto.novello
  9
$INSBASE
 10
0.0
 20
0.0
 30
0.0
  9
$EXTMIN
 10
0.0
 20
0.0
 30
0.0
  9
$EXTMAX
 10
420.0
 20
297.0
 30
0.0
  9
$LIMMIN
 10
0.0
 20
0.0
  9
$LIMMAX
 10
420.0
 20
297.0
  9
$ORTHOMODE
 70
     0
  9
$REGENMODE
 70
     1
  9
$FILLMODE
 70
     1
  9
$QTEXTMODE
 70
     0
  9
$MIRRTEXT
 70
     1
  9
$LTSCALE
 40
23.1
  9
$ATTMODE
 70
     1
  9
$TEXTSIZE
 40
0.2
  9
$TRACEWID
 40
0.05
  9
$TEXTSTYLE
  7
STANDARD
  9
$CLAYER
  8
0
  9
$CELTYPE
  6
BYLAYER
  9
$CECOLOR
 62
   256
  9
$CELTSCALE
 40
1.0
  9
$DISPSILH
 70
     0
  9
$DIMSCALE
 40
1.0
  9
$DIMASZ
 40
2.5
  9
$DIMEXO
 40
2.625
  9
$DIMDLI
 40
15.96
  9
$DIMRND
 40
0.0
  9
$DIMDLE
 40
0.0
  9
$DIMEXE
 40
7.56
  9
$DIMTP
 40
0.01
  9
$DIMTM
 40
0.01
  9
$DIMTXT
 40
3.0
  9
$DIMCEN
 40
3.78
  9
$DIMTSZ
 40
0.0
  9
$DIMTOL
 70
     1
  9
$DIMLIM
 70
     0
  9
$DIMTIH
 70
     1
  9
$DIMTOH
 70
     1
  9
$DIMSE1
 70
     0
  9
$DIMSE2
 70
     0
  9
$DIMTAD
 70
     0
  9
$DIMZIN
 70
     0
  9
$DIMBLK
  1
CLOSED
  9
$DIMASO
 70
     1
  9
$DIMSHO
 70
     1
  9
$DIMPOST
  1

  9
$DIMAPOST
  1

  9
$DIMALT
 70
     0
  9
$DIMALTD
 70
     2
  9
$DIMALTF
 40
25.4
  9
$DIMLFAC
 40
1.0
  9
$DIMTOFL
 70
     0
  9
$DIMTVP
 40
0.0
  9
$DIMTIX
 70
     0
  9
$DIMSOXD
 70
     0
  9
$DIMSAH
 70
     0
  9
$DIMBLK1
  1

  9
$DIMBLK2
  1

  9
$DIMSTYLE
  2
STANDARD
  9
$DIMCLRD
 70
     0
  9
$DIMCLRE
 70
     0
  9
$DIMCLRT
 70
     0
  9
$DIMTFAC
 40
1.0
  9
$DIMGAP
 40
0.09
  9
$DIMJUST
 70
     0
  9
$DIMSD1
 70
     0
  9
$DIMSD2
 70
     0
  9
$DIMTOLJ
 70
     1
  9
$DIMTZIN
 70
     0
  9
$DIMALTZ
 70
     0
  9
$DIMALTTZ
 70
     0
  9
$DIMUPT
 70
     0
  9
$DIMDEC
 70
     4
  9
$DIMTDEC
 70
     4
  9
$DIMALTU
 70
     2
  9
$DIMALTTD
 70
     2
  9
$DIMTXSTY
  7
STANDARD
  9
$DIMAUNIT
 70
     0
  9
$DIMADEC
 70
     0
  9
$DIMALTRND
 40
0.0
  9
$DIMAZIN
 70
     0
  9
$DIMDSEP
 70
    46
  9
$DIMATFIT
 70
     3
  9
$DIMFRAC
 70
     0
  9
$DIMLDRBLK
  1

  9
$DIMLUNIT
 70
     2
  9
$DIMLWD
 70
    -2
  9
$DIMLWE
 70
    -2
  9
$DIMTMOVE
 70
     0
  9
$DIMFXL
 40
1.0
  9
$DIMFXLON
 70
     0
  9
$DIMJOGANG
 40
0.7853981633974483
  9
$DIMTFILL
 70
     0
  9
$DIMTFILLCLR
 70
     0
  9
$DIMARCSYM
 70
     0
  9
$DIMLTYPE
  6

  9
$DIMLTEX1
  6

  9
$DIMLTEX2
  6

  9
$LUNITS
 70
     2
  9
$LUPREC
 70
     4
  9
$SKETCHINC
 40
0.1
  9
$FILLETRAD
 40
0.5
  9
$AUNITS
 70
     0
  9
$AUPREC
 70
     0
  9
$MENU
  1
.
  9
$ELEVATION
 40
0.0
  9
$PELEVATION
 40
0.0
  9
$THICKNESS
 40
0.0
  9
$LIMCHECK
 70
     0
  9
$CHAMFERA
 40
0.0
  9
$CHAMFERB
 40
0.0
  9
$CHAMFERC
 40
0.0
  9
$CHAMFERD
 40
0.0
  9
$SKPOLY
 70
     0
  9
$TDCREATE
 40
2447893.041666667
  9
$TDUCREATE
 40
0.0
  9
$TDUPDATE
 40
2458444.487170926
  9
$TDUUPDATE
 40
2458444.445504259
  9
$TDINDWG
 40
0.0007692245
  9
$TDUSRTIMER
 40
0.0076737384
  9
$USRTIMER
 70
     1
  9
$ANGBASE
 50
0.0
  9
$ANGDIR
 70
     0
  9
$PDMODE
 70
     3
  9
$PDSIZE
 40
0.3125
  9
$PLINEWID
 40
0.0
  9
$SPLFRAME
 70
     0
  9
$SPLINETYPE
 70
     6
  9
$SPLINESEGS
 70
     8
  9
$HANDSEED
  5
5B4
  9
$SURFTAB1
 70
     6
  9
$SURFTAB2
 70
     6
  9
$SURFTYPE
 70
     6
  9
$SURFU
 70
     6
  9
$SURFV
 70
     6
  9
$UCSBASE
  2

  9
$UCSNAME
  2

  9
$UCSORG
 10
0.0
 20
0.0
 30
0.0
  9
$UCSXDIR
 10
1.0
 20
0.0
 30
0.0
  9
$UCSYDIR
 10
0.0
 20
1.0
 30
0.0
  9
$UCSORTHOREF
  2

  9
$UCSORTHOVIEW
 70
     0
  9
$UCSORGTOP
 10
0.0
 20
0.0
 30
0.0
  9
$UCSORGBOTTOM
 10
0.0
 20
0.0
 30
0.0
  9
$UCSORGLEFT
 10
0.0
 20
0.0
 30
0.0
  9
$UCSORGRIGHT
 10
0.0
 20
0.0
 30
0.0
  9
$UCSORGFRONT
 10
0.0
 20
0.0
 30
0.0
  9
$UCSORGBACK
 10
0.0
 20
0.0
 30
0.0
  9
$PUCSBASE
  2

  9
$PUCSNAME
  2

  9
$PUCSORG
 10
0.0
 20
0.0
 30
0.0
  9
$PUCSXDIR
 10
1.0
 20
0.0
 30
0.0
  9
$PUCSYDIR
 10
0.0
 20
1.0
 30
0.0
  9
$PUCSORTHOREF
  2

  9
$PUCSORTHOVIEW
 70
     0
  9
$PUCSORGTOP
 10
0.0
 20
0.0
 30
0.0
  9
$PUCSORGBOTTOM
 10
0.0
 20
0.0
 30
0.0
  9
$PUCSORGLEFT
 10
0.0
 20
0.0
 30
0.0
  9
$PUCSORGRIGHT
 10
0.0
 20
0.0
 30
0.0
  9
$PUCSORGFRONT
 10
0.0
 20
0.0
 30
0.0
  9
$PUCSORGBACK
 10
0.0
 20
0.0
 30
0.0
  9
$USERI1
 70
     0
  9
$USERI2
 70
     0
  9
$USERI3
 70
     0
  9
$USERI4
 70
     0
  9
$USERI5
 70
     0
  9
$USERR1
 40
0.0
  9
$USERR2
 40
0.0
  9
$USERR3
 40
0.0
  9
$USERR4
 40
0.0
  9
$USERR5
 40
0.0
  9
$WORLDVIEW
 70
     1
  9
$SHADEDGE
 70
     3
  9
$SHADEDIF
 70
    70
  9
$TILEMODE
 70
     1
  9
$MAXACTVP
 70
    64
  9
$PINSBASE
 10
0.0
 20
0.0
 30
0.0
  9
$PLIMCHECK
 70
     0
  9
$PEXTMIN
 10
1.000000000000000E+20
 20
1.000000000000000E+20
 30
1.000000000000000E+20
  9
$PEXTMAX
 10
-1.000000000000000E+20
 20
-1.000000000000000E+20
 30
-1.000000000000000E+20
  9
$PLIMMIN
 10
0.0
 20
0.0
  9
$PLIMMAX
 10
420.0
 20
297.0
  9
$UNITMODE
 70
     0
  9
$VISRETAIN
 70
     1
  9
$PLINEGEN
 70
     0
  9
$PSLTSCALE
 70
     1
  9
$TREEDEPTH
 70
  3020
  9
$CMLSTYLE
  2
Standard
  9
$CMLJUST
 70
     0
  9
$CMLSCALE
 40
1.0
  9
$PROXYGRAPHICS
 70
     1
  9
$MEASUREMENT
 70
     1
  9
$CELWEIGHT
370
    -1
  9
$ENDCAPS
280
     0
  9
$JOINSTYLE
280
     0
  9
$LWDISPLAY
290
     0
  9
$INSUNITS
 70
     4
  9
$HYPERLINKBASE
  1

  9
$STYLESHEET
  1

  9
$XEDIT
290
     1
  9
$CEPSNTYPE
380
     0
  9
$PSTYLEMODE
290
     1
  9
$FINGERPRINTGUID
  2
{7DF9183B-4E11-42BB-ADEF-2AE4E8B0EACD}
  9
$VERSIONGUID
  2
{FAEB1C32-E019-11D5-929B-00C0DF256EC4}
  9
$EXTNAMES
290
     1
  9
$PSVPSCALE
 40
0.0
  9
$OLESTARTUP
290
     0
  9
$SORTENTS
280
   127
  9
$INDEXCTL
280
     0
  9
$HIDETEXT
280
     1
  9
$XCLIPFRAME
290
     0
  9
$HALOGAP
280
     0
  9
$OBSCOLOR
 70
   257
  9
$OBSLTYPE
280
     0
  9
$INTERSECTIONDISPLAY
280
     0
  9
$INTERSECTIONCOLOR
 70
   257
  9
$DIMASSOC
280
     2
  9
$PROJECTNAME
  1

  9
$CAMERADISPLAY
290
     0
  9
$LENSLENGTH
 40
50.0
  9
$CAMERAHEIGHT
 40
0.0
  9
$STEPSPERSEC
 40
2.0
  9
$STEPSIZE
 40
6.0
  9
$3DDWFPREC
 40
2.0
  9
$PSOLWIDTH
 40
0.25
  9
$PSOLHEIGHT
 40
4.0
  9
$LOFTANG1
 40
1.570796326794897
  9
$LOFTANG2
 40
1.570796326794897
  9
$LOFTMAG1
 40
0.0
  9
$LOFTMAG2
 40
0.0
  9
$LOFTPARAM
 70
     7
  9
$LOFTNORMALS
280
     1
  9
$LATITUDE
 40
37.795
  9
$LONGITUDE
 40
-122.394
  9
$NORTHDIRECTION
 40
0.0
  9
$TIMEZONE
 70
 -8000
  9
$LIGHTGLYPHDISPLAY
280
     1
  9
$TILEMODELIGHTSYNCH
280
     1
  9
$SOLIDHIST
280
     0
  9
$SHOWHIST
280
     1
  9
$DWFFRAME
280
     2
  9
$DGNFRAME
280
     2
  9
$REALWORLDSCALE
290
     1
  9
$INTERFERECOLOR
 62
   256
  9
$CSHADOW
280
     0
  9
$SHADOWPLANELOCATION
 40
0.0
  0
ENDSEC
  0
SECTION
  2
CLASSES
  0
CLASS
  1
ACDBDICTIONARYWDFLT
  2
AcDbDictionaryWithDefault
  3
ObjectDBX Classes
 90
        0
 91
       14
280
     0
281
     0
  0
CLASS
  1
ACDBPLACEHOLDER
  2
AcDbPlaceHolder
  3
ObjectDBX Classes
 90
        0
 91
        1
280
     0
281
     0
  0
CLASS
  1
LAYOUT
  2
AcDbLayout
  3
ObjectDBX Classes
 90
        0
 91
        1
280
     0
281
     0
  0
CLASS
  1
TABLESTYLE
  2
AcDbTableStyle
  3
ObjectDBX Classes
 90
     4095
 91
       14
280
     0
281
     0
  0
CLASS
  1
ACAD_TABLE
  2
AcDbTable
  3
ObjectDBX Classes
 90
     1025
 91
       14
280
     0
281
     1
  0
CLASS
  1
SCALE
  2
AcDbScale
  3
ObjectDBX Classes
 90
     1153
 91
       14
280
     0
281
     0
  0
CLASS
  1
TABLEGEOMETRY
  2
AcDbTableGeometry
  3
ObjectDBX Classes
 90
     1152
 91
       14
280
     0
281
     0
  0
CLASS
  1
VISUALSTYLE
  2
AcDbVisualStyle
  3
ObjectDBX Classes
 90
     4095
 91
       14
280
     0
281
     0
  0
CLASS
  1
MATERIAL
  2
AcDbMaterial
  3
ObjectDBX Classes
 90
     1153
 91
       14
280
     0
281
     0
  0
CLASS
  1
MLEADERSTYLE
  2
AcDbMLeaderStyle
  3
ACDB_MLEADERSTYLE_CLASS
 90
     4095
 91
       14
280
     0
281
     0
  0
CLASS
  1
SUN
  2
AcDbSun
  3
SCENEOE
 90
     1153
 91
       14
280
     0
281
     0
  0
CLASS
  1
DICTIONARYVAR
  2
AcDbDictionaryVar
  3
ObjectDBX Classes
 90
        0
 91
        4
280
     0
281
     0
  0
CLASS
  1
CELLSTYLEMAP
  2
AcDbCellStyleMap
  3
ObjectDBX Classes
 90
     1152
 91
        4
280
     0
281
     0
  0
ENDSEC
  0
SECTION
  2
TABLES
  0
TABLE
  2
VPORT
  5
8
330
0
100
AcDbSymbolTable
 70
     1
  0
VPORT
  5
1F4
330
8
100
AcDbSymbolTableRecord
100
AcDbViewportTableRecord
  2
*ACTIVE
 70
     0
 10
0.0
 20
0.0
 11
1.0
 21
1.0
 12
297.6217412451363
 22
134.5071011673151
 13
0.0
 23
0.0
 14
1.0
 24
1.0
 15
0.0
 25
0.0
 16
0.0
 26
0.0
 36
1.0
 17
0.0
 27
0.0
 37
0.0
 40
371.25
 41
1.929961089494163
 42
50.0
 43
0.0
 44
0.0
 50
0.0
 51
0.0
 71
    16
 72
   100
 73
     1
 74
     1
 75
     0
 76
     0
 77
     0
 78
     0
281
     0
 65
     1
110
0.0
120
0.0
130
0.0
111
1.0
121
0.0
131
0.0
112
0.0
122
1.0
132
0.0
 79
     0
146
0.0
348
58C
 60
     3
 61
     5
292
     1
282
     1
141
0.0
142
0.0
 63
   256
361
5A7
  0
ENDTAB
  0
TABLE
  2
LTYPE
  5
5
330
0
100
AcDbSymbolTable
 70
     6
  0
LTYPE
  5
14
330
5
100
AcDbSymbolTableRecord
100
AcDbLinetypeTableRecord
  2
BYBLOCK
 70
     0
  3

 72
    65
 73
     0
 40
0.0
  0
LTYPE
  5
15
330
5
100
AcDbSymbolTableRecord
100
AcDbLinetypeTableRecord
  2
BYLAYER
 70
     0
  3

 72
    65
 73
     0
 40
0.0
  0
LTYPE
  5
16
330
5
100
AcDbSymbolTableRecord
100
AcDbLinetypeTableRecord
  2
CONTINUOUS
 70
     0
  3
Solid line
 72
    65
 73
     0
 40
0.0
  0
LTYPE
  5
1F5
330
5
100
AcDbSymbolTableRecord
100
AcDbLinetypeTableRecord
  2
CENTER
 70
     0
  3
____ _ ____ _ ____ _ ____ _ ____ _ ____ _ ____
 72
    65
 73
     4
 40
0.6
 49
0.375
 74
     0
 49
-0.075
 74
     0
 49
0.075
 74
     0
 49
-0.075
 74
     0
  0
LTYPE
  5
1F6
330
5
100
AcDbSymbolTableRecord
100
AcDbLinetypeTableRecord
  2
HIDDEN
 70
     0
  3
- - - - - - - - - - - - - - - - - - - -
 72
    65
 73
     2
 40
0.2
 49
0.1
 74
     0
 49
-0.1
 74
     0
  0
LTYPE
  5
1F7
330
5
100
AcDbSymbolTableRecord
100
AcDbLinetypeTableRecord
  2
PHANTOM
 70
     0
  3
_____ _ _ _____ _ _ _____ _ _ _____
 72
    65
 73
     6
 40
0.8
 49
0.45
 74
     0
 49
-0.05
 74
     0
 49
0.1
 74
     0
 49
-0.05
 74
     0
 49
0.1
 74
     0
 49
-0.05
 74
     0
  0
LTYPE
  5
1F8
330
5
100
AcDbSymbolTableRecord
100
AcDbLinetypeTableRecord
  2
DOT
 70
     0
  3
. . . . . . . . . . . . . . . . . . . .
 72
    65
 73
     2
 40
0.2
 49
0.1
 74
     0
 49
-0.1
 74
     0
  0
LTYPE
  5
1F9
330
5
100
AcDbSymbolTableRecord
100
AcDbLinetypeTableRecord
  2
DASHED
 70
     0
  3
- - - - - - - - - - - - - - - - - - - -
 72
    65
 73
     2
 40
0.2
 49
0.1
 74
     0
 49
-0.1
 74
     0
  0
ENDTAB
  0
TABLE
  2
LAYER
  5
2
330
0
100
AcDbSymbolTable
 70
    35
  0
LAYER
  5
10
330
2
100
AcDbSymbolTableRecord
100
AcDbLayerTableRecord
  2
0
 70
     0
 62
     7
  6
CONTINUOUS
370
    -3
390
F
347
5A3
  0
LAYER
  5
1FA
330
2
100
AcDbSymbolTableRecord
100
AcDbLayerTableRecord
  2
DEFAULT_1
 70
     0
 62
     7
  6
CENTER
370
    -3
390
F
347
5A3
  0
LAYER
  5
1FB
330
2
100
AcDbSymbolTableRecord
100
AcDbLayerTableRecord
  2
DEFAULT_2
 70
     0
 62
     8
  6
HIDDEN
370
    -3
390
F
347
5A3
  0
LAYER
  5
1FC
330
2
100
AcDbSymbolTableRecord
100
AcDbLayerTableRecord
  2
DEFAULT_3
 70
     0
 62
     7
  6
PHANTOM
370
    -3
390
F
347
5A3
  0
LAYER
  5
1FD
330
2
100
AcDbSymbolTableRecord
100
AcDbLayerTableRecord
  2
01_ALL_DTM_PLN
 70
     0
 62
     7
  6
CONTINUOUS
370
    -3
390
F
347
5A3
  0
LAYER
  5
1FE
330
2
100
AcDbSymbolTableRecord
100
AcDbLayerTableRecord
  2
01__ASM_ALL_DTM_PLN
 70
     0
 62
     7
  6
CONTINUOUS
370
    -3
390
F
347
5A3
  0
LAYER
  5
1FF
330
2
100
AcDbSymbolTableRecord
100
AcDbLayerTableRecord
  2
01__ASM_DEF_DTM_PLN
 70
     0
 62
     7
  6
CONTINUOUS
370
    -3
390
F
347
5A3
  0
LAYER
  5
200
330
2
100
AcDbSymbolTableRecord
100
AcDbLayerTableRecord
  2
01___PRT_ALL_DTM_PLN
 70
     0
 62
     7
  6
CONTINUOUS
370
    -3
390
F
347
5A3
  0
LAYER
  5
201
330
2
100
AcDbSymbolTableRecord
100
AcDbLayerTableRecord
  2
01___PRT_DEF_DTM_PLN
 70
     0
 62
     7
  6
CONTINUOUS
370
    -3
390
F
347
5A3
  0
LAYER
  5
202
330
2
100
AcDbSymbolTableRecord
100
AcDbLayerTableRecord
  2
02_ALL_AXES
 70
     0
 62
     7
  6
CONTINUOUS
370
    -3
390
F
347
5A3
  0
LAYER
  5
203
330
2
100
AcDbSymbolTableRecord
100
AcDbLayerTableRecord
  2
02__ASM_ALL_AXES
 70
     0
 62
     7
  6
CONTINUOUS
370
    -3
390
F
347
5A3
  0
LAYER
  5
204
330
2
100
AcDbSymbolTableRecord
100
AcDbLayerTableRecord
  2
02___PRT_ALL_AXES
 70
     0
 62
     7
  6
CONTINUOUS
370
    -3
390
F
347
5A3
  0
LAYER
  5
205
330
2
100
AcDbSymbolTableRecord
100
AcDbLayerTableRecord
  2
03_ALL_CURVES
 70
     0
 62
     7
  6
CONTINUOUS
370
    -3
390
F
347
5A3
  0
LAYER
  5
206
330
2
100
AcDbSymbolTableRecord
100
AcDbLayerTableRecord
  2
03__ASM_ALL_CURVES
 70
     0
 62
     7
  6
CONTINUOUS
370
    -3
390
F
347
5A3
  0
LAYER
  5
207
330
2
100
AcDbSymbolTableRecord
100
AcDbLayerTableRecord
  2
03___PRT_ALL_CURVES
 70
     0
 62
     7
  6
CONTINUOUS
370
    -3
390
F
347
5A3
  0
LAYER
  5
208
330
2
100
AcDbSymbolTableRecord
100
AcDbLayerTableRecord
  2
04_ALL_DTM_PNT
 70
     0
 62
     7
  6
CONTINUOUS
370
    -3
390
F
347
5A3
  0
LAYER
  5
209
330
2
100
AcDbSymbolTableRecord
100
AcDbLayerTableRecord
  2
04__ASM_ALL_DTM_PNT
 70
     0
 62
     7
  6
CONTINUOUS
370
    -3
390
F
347
5A3
  0
LAYER
  5
20A
330
2
100
AcDbSymbolTableRecord
100
AcDbLayerTableRecord
  2
04___PRT_ALL_DTM_PNT
 70
     0
 62
     7
  6
CONTINUOUS
370
    -3
390
F
347
5A3
  0
LAYER
  5
20B
330
2
100
AcDbSymbolTableRecord
100
AcDbLayerTableRecord
  2
05_ALL_DTM_CSYS
 70
     0
 62
     7
  6
CONTINUOUS
370
    -3
390
F
347
5A3
  0
LAYER
  5
20C
330
2
100
AcDbSymbolTableRecord
100
AcDbLayerTableRecord
  2
05__ASM_ALL_DTM_CSYS
 70
     0
 62
     7
  6
CONTINUOUS
370
    -3
390
F
347
5A3
  0
LAYER
  5
20D
330
2
100
AcDbSymbolTableRecord
100
AcDbLayerTableRecord
  2
05__ASM_DEF_DTM_CSYS
 70
     0
 62
     7
  6
CONTINUOUS
370
    -3
390
F
347
5A3
  0
LAYER
  5
20E
330
2
100
AcDbSymbolTableRecord
100
AcDbLayerTableRecord
  2
05___PRT_ALL_DTM_CSYS
 70
     0
 62
     7
  6
CONTINUOUS
370
    -3
390
F
347
5A3
  0
LAYER
  5
20F
330
2
100
AcDbSymbolTableRecord
100
AcDbLayerTableRecord
  2
05___PRT_DEF_DTM_CSYS
 70
     0
 62
     7
  6
CONTINUOUS
370
    -3
390
F
347
5A3
  0
LAYER
  5
210
330
2
100
AcDbSymbolTableRecord
100
AcDbLayerTableRecord
  2
06_ALL_SURFS
 70
     0
 62
     7
  6
CONTINUOUS
370
    -3
390
F
347
5A3
  0
LAYER
  5
211
330
2
100
AcDbSymbolTableRecord
100
AcDbLayerTableRecord
  2
06__ASM_ALL_SURFS
 70
     0
 62
     7
  6
CONTINUOUS
370
    -3
390
F
347
5A3
  0
LAYER
  5
212
330
2
100
AcDbSymbolTableRecord
100
AcDbLayerTableRecord
  2
06___PRT_ALL_SURFS
 70
     0
 62
     7
  6
CONTINUOUS
370
    -3
390
F
347
5A3
  0
LAYER
  5
213
330
2
100
AcDbSymbolTableRecord
100
AcDbLayerTableRecord
  2
07__ASM_ALL_SKELETONS
 70
     0
 62
     7
  6
CONTINUOUS
370
    -3
390
F
347
5A3
  0
LAYER
  5
214
330
2
100
AcDbSymbolTableRecord
100
AcDbLayerTableRecord
  2
1_ALL_PLANES
 70
     0
 62
     7
  6
CONTINUOUS
370
    -3
390
F
347
5A3
  0
LAYER
  5
215
330
2
100
AcDbSymbolTableRecord
100
AcDbLayerTableRecord
  2
3_ALL_AXES
 70
     0
 62
     7
  6
CONTINUOUS
370
    -3
390
F
347
5A3
  0
LAYER
  5
216
330
2
100
AcDbSymbolTableRecord
100
AcDbLayerTableRecord
  2
4_ALL_POINTS
 70
     0
 62
     7
  6
CONTINUOUS
370
    -3
390
F
347
5A3
  0
LAYER
  5
217
330
2
100
AcDbSymbolTableRecord
100
AcDbLayerTableRecord
  2
5_ALL_CURVES
 70
     0
 62
     7
  6
CONTINUOUS
370
    -3
390
F
347
5A3
  0
LAYER
  5
218
330
2
100
AcDbSymbolTableRecord
100
AcDbLayerTableRecord
  2
6_ALL_SURFS
 70
     0
 62
     7
  6
CONTINUOUS
370
    -3
390
F
347
5A3
  0
LAYER
  5
219
330
2
100
AcDbSymbolTableRecord
100
AcDbLayerTableRecord
  2
7_ALL_FEATURES
 70
     0
 62
     7
  6
CONTINUOUS
370
    -3
390
F
347
5A3
  0
LAYER
  5
21A
330
2
100
AcDbSymbolTableRecord
100
AcDbLayerTableRecord
  2
8_ALL_NOTES_BALLOONS_SYMBOLS_GT
 70
     0
 62
     7
  6
CONTINUOUS
370
    -3
390
F
347
5A3
  0
LAYER
  5
21B
330
2
100
AcDbSymbolTableRecord
100
AcDbLayerTableRecord
  2
XSEC_DATUMS
 70
     0
 62
     7
  6
CONTINUOUS
370
    -3
390
F
347
5A3
  0
ENDTAB
  0
TABLE
  2
STYLE
  5
3
330
0
100
AcDbSymbolTable
 70
     5
  0
STYLE
  5
11
330
3
100
AcDbSymbolTableRecord
100
AcDbTextStyleTableRecord
  2
STANDARD
 70
     0
 40
0.0
 41
0.85
 50
0.0
 71
     0
 42
0.2
  3
txt
  4

  0
STYLE
  5
21C
330
3
100
AcDbSymbolTableRecord
100
AcDbTextStyleTableRecord
  2
TEXTSTYLE_1
 70
     0
 40
0.0
 41
0.8
 50
0.0
 71
     0
 42
0.2
  3
gdt
  4

  0
STYLE
  5
21D
330
3
100
AcDbSymbolTableRecord
100
AcDbTextStyleTableRecord
  2
TEXTSTYLE_2
 70
     0
 40
0.0
 41
0.9
 50
0.0
 71
     0
 42
0.2
  3
txt
  4

  0
STYLE
  5
21E
330
3
100
AcDbSymbolTableRecord
100
AcDbTextStyleTableRecord
  2
TEXTSTYLE_3
 70
     0
 40
0.0
 41
0.9
 50
0.0
 71
     0
 42
0.2
  3
txt
  4

  0
STYLE
  5
21F
330
3
100
AcDbSymbolTableRecord
100
AcDbTextStyleTableRecord
  2
TEXTSTYLE_4
 70
     0
 40
0.0
 41
0.85
 50
0.0
 71
     0
 42
0.2
  3
txt
  4

  0
ENDTAB
  0
TABLE
  2
VIEW
  5
6
330
0
100
AcDbSymbolTable
 70
     0
  0
ENDTAB
  0
TABLE
  2
UCS
  5
7
330
0
100
AcDbSymbolTable
 70
     0
  0
ENDTAB
  0
TABLE
  2
APPID
  5
9
330
0
100
AcDbSymbolTable
 70
     2
  0
APPID
  5
220
330
9
100
AcDbSymbolTableRecord
100
AcDbRegAppTableRecord
  2
ACAD
 70
     0
  0
APPID
  5
5B2
330
9
100
AcDbSymbolTableRecord
100
AcDbRegAppTableRecord
  2
ACAD_MLEADERVER
 70
     0
  0
ENDTAB
  0
TABLE
  2
DIMSTYLE
  5
A
330
0
100
AcDbSymbolTable
 70
     4
100
AcDbDimStyleTable
  0
DIMSTYLE
105
22A
330
A
100
AcDbSymbolTableRecord
100
AcDbDimStyleTableRecord
  2
STANDARD
 70
     0
 41
2.5
 47
0.01
 48
0.01
 71
     1
 73
     0
 74
     0
 77
     1
 78
     8
140
3.0
178
     0
271
     2
272
     2
284
     8
340
11
341
223
342
223
343
223
344
223
  0
DIMSTYLE
105
22B
330
A
100
AcDbSymbolTableRecord
100
AcDbDimStyleTableRecord
  2
DIMSTYLE_1
 70
     0
 41
2.5
 47
0.5
 48
0.5
 73
     0
 74
     0
 77
     1
 78
     8
140
3.0
144
2.0
178
     0
271
     2
272
     2
284
     8
340
11
341
223
342
223
343
223
344
223
  0
DIMSTYLE
105
22C
330
A
100
AcDbSymbolTableRecord
100
AcDbDimStyleTableRecord
  2
DIMSTYLE_2
 70
     0
 41
2.5
 47
0.3
 48
0.3
 73
     0
 74
     0
 77
     1
 78
     8
140
3.0
144
2.0
178
     0
271
     0
272
     0
284
     8
340
11
341
223
342
223
343
223
344
223
  0
DIMSTYLE
105
22D
330
A
100
AcDbSymbolTableRecord
100
AcDbDimStyleTableRecord
  2
DIMSTYLE_3
 70
     0
 41
2.5
 47
0.2
 48
0.2
 73
     0
 74
     0
 77
     1
 78
     8
140
3.0
144
2.0
178
     0
271
     2
272
     2
284
     8
340
11
341
223
342
223
343
223
344
223
  0
ENDTAB
  0
TABLE
  2
BLOCK_RECORD
  5
1
330
0
100
AcDbSymbolTable
 70
     7
  0
BLOCK_RECORD
  5
221
330
1
100
AcDbSymbolTableRecord
100
AcDbBlockTableRecord
  2
*Model_Space
340
560
 70
     0
280
     1
281
     0
  0
BLOCK_RECORD
  5
222
330
1
100
AcDbSymbolTableRecord
100
AcDbBlockTableRecord
  2
*Paper_Space
340
561
 70
     0
280
     1
281
     0
  0
BLOCK_RECORD
  5
223
330
1
100
AcDbSymbolTableRecord
100
AcDbBlockTableRecord
  2
_CLOSED
340
0
102
{BLKREFS
331
275
331
276
331
27D
331
27E
331
285
331
286
331
28D
331
28E
102
}
 70
     0
280
     1
281
     0
  0
BLOCK_RECORD
  5
224
330
1
100
AcDbSymbolTableRecord
100
AcDbBlockTableRecord
  2
*D1
340
0
 70
     0
280
     1
281
     0
  0
BLOCK_RECORD
  5
225
330
1
100
AcDbSymbolTableRecord
100
AcDbBlockTableRecord
  2
*D2
340
0
 70
     0
280
     1
281
     0
  0
BLOCK_RECORD
  5
226
330
1
100
AcDbSymbolTableRecord
100
AcDbBlockTableRecord
  2
*D3
340
0
 70
     0
280
     1
281
     0
  0
BLOCK_RECORD
  5
227
330
1
100
AcDbSymbolTableRecord
100
AcDbBlockTableRecord
  2
*D4
340
0
 70
     0
280
     1
281
     0
  0
BLOCK_RECORD
  5
228
330
1
100
AcDbSymbolTableRecord
100
AcDbBlockTableRecord
  2
LOGO2_BL0
340
0
102
{BLKREFS
331
2A0
102
}
 70
     0
280
     1
281
     0
  0
BLOCK_RECORD
  5
229
330
1
100
AcDbSymbolTableRecord
100
AcDbBlockTableRecord
  2
*T6
340
0
102
{BLKREFS
331
3CC
102
}
 70
     0
280
     1
281
     0
  0
ENDTAB
  0
ENDSEC
  0
SECTION
  2
BLOCKS
  0
BLOCK
  5
20
330
221
100
AcDbEntity
  8
0
100
AcDbBlockBegin
  2
*Model_Space
 70
     0
 10
0.0
 20
0.0
 30
0.0
  3
*Model_Space
  1

  0
ENDBLK
  5
21
330
221
100
AcDbEntity
  8
0
100
AcDbBlockEnd
  0
BLOCK
  5
1C
330
222
100
AcDbEntity
 67
     1
  8
0
100
AcDbBlockBegin
  2
*Paper_Space
 70
     0
 10
0.0
 20
0.0
 30
0.0
  3
*Paper_Space
  1

  0
ENDBLK
  5
1D
330
222
100
AcDbEntity
 67
     1
  8
0
100
AcDbBlockEnd
  0
BLOCK
  5
26A
330
223
100
AcDbEntity
  8
0
100
AcDbBlockBegin
  2
_CLOSED
 70
     0
 10
0.0
 20
0.0
 30
0.0
  3
_CLOSED
  1

  0
LINE
  5
26B
330
223
100
AcDbEntity
  8
0
  6
ByBlock
 62
     0
100
AcDbLine
 10
0.0
 20
0.0
 30
0.0
 11
-1.0
 21
0.2
 31
0.0
  0
LINE
  5
26C
330
223
100
AcDbEntity
  8
0
  6
ByBlock
 62
     0
100
AcDbLine
 10
-1.0
 20
0.2
 30
0.0
 11
-1.0
 21
-0.2
 31
0.0
  0
LINE
  5
26D
330
223
100
AcDbEntity
  8
0
  6
ByBlock
 62
     0
100
AcDbLine
 10
-1.0
 20
-0.2
 30
0.0
 11
0.0
 21
0.0
 31
0.0
  0
LINE
  5
26E
330
223
100
AcDbEntity
  8
0
  6
ByBlock
 62
     0
100
AcDbLine
 10
-1.0
 20
0.0
 30
0.0
 11
0.0
 21
0.0
 31
0.0
  0
ENDBLK
  5
26F
330
223
100
AcDbEntity
  8
0
  6
ByBlock
 62
     0
100
AcDbBlockEnd
  0
BLOCK
  5
270
330
224
100
AcDbEntity
  8
0
100
AcDbBlockBegin
  2
*D1
 70
     1
 10
0.0
 20
0.0
 30
0.0
  3
*D1
  1

  0
LINE
  5
271
330
224
100
AcDbEntity
  8
0
  6
Continuous
 62
     2
100
AcDbLine
 10
127.549732555
 20
80.8166725852
 30
0.0
 11
127.549732555
 21
99.6293226303
 31
0.0
  0
LINE
  5
272
330
224
100
AcDbEntity
  8
0
  6
Continuous
 62
     2
100
AcDbLine
 10
47.549732555
 20
82.0666725852
 30
0.0
 11
47.549732555
 21
99.6293226303
 31
0.0
  0
LINE
  5
273
330
224
100
AcDbEntity
  8
0
  6
Continuous
 62
     2
100
AcDbLine
 10
127.549732555
 20
98.8793226303
 30
0.0
 11
87.549732555
 21
98.8793226303
 31
0.0
  0
LINE
  5
274
330
224
100
AcDbEntity
  8
0
  6
Continuous
 62
     2
100
AcDbLine
 10
47.549732555
 20
98.8793226303
 30
0.0
 11
87.549732555
 21
98.8793226303
 31
0.0
  0
INSERT
  5
275
330
224
100
AcDbEntity
  8
0
  6
Continuous
 62
     2
100
AcDbBlockReference
  2
_CLOSED
 10
127.549732555
 20
98.8793226303
 30
0.0
 41
2.5
 42
2.5
 43
2.5
  0
INSERT
  5
276
330
224
100
AcDbEntity
  8
0
  6
Continuous
 62
     2
100
AcDbBlockReference
  2
_CLOSED
 10
47.549732555
 20
98.8793226303
 30
0.0
 41
2.5
 42
2.5
 43
2.5
 50
180.0
  0
ENDBLK
  5
277
330
224
100
AcDbEntity
  8
0
  6
ByBlock
 62
     0
100
AcDbBlockEnd
  0
BLOCK
  5
278
330
225
100
AcDbEntity
  8
0
100
AcDbBlockBegin
  2
*D2
 70
     1
 10
0.0
 20
0.0
 30
0.0
  3
*D2
  1

  0
LINE
  5
279
330
225
100
AcDbEntity
  8
0
  6
Continuous
 62
     2
100
AcDbLine
 10
139.549732555
 20
234.820003267
 30
0.0
 11
139.549732555
 21
245.1844738342
 31
0.0
  0
LINE
  5
27A
330
225
100
AcDbEntity
  8
0
  6
Continuous
 62
     2
100
AcDbLine
 10
35.549732555
 20
234.820003267
 30
0.0
 11
35.549732555
 21
245.1844738342
 31
0.0
  0
LINE
  5
27B
330
225
100
AcDbEntity
  8
0
  6
Continuous
 62
     2
100
AcDbLine
 10
139.549732555
 20
244.4344738342
 30
0.0
 11
87.549732555
 21
244.4344738342
 31
0.0
  0
LINE
  5
27C
330
225
100
AcDbEntity
  8
0
  6
Continuous
 62
     2
100
AcDbLine
 10
35.549732555
 20
244.4344738342
 30
0.0
 11
87.549732555
 21
244.4344738342
 31
0.0
  0
INSERT
  5
27D
330
225
100
AcDbEntity
  8
0
  6
Continuous
 62
     2
100
AcDbBlockReference
  2
_CLOSED
 10
139.549732555
 20
244.4344738342
 30
0.0
 41
2.5
 42
2.5
 43
2.5
  0
INSERT
  5
27E
330
225
100
AcDbEntity
  8
0
  6
Continuous
 62
     2
100
AcDbBlockReference
  2
_CLOSED
 10
35.549732555
 20
244.4344738342
 30
0.0
 41
2.5
 42
2.5
 43
2.5
 50
180.0
  0
ENDBLK
  5
27F
330
225
100
AcDbEntity
  8
0
  6
ByBlock
 62
     0
100
AcDbBlockEnd
  0
BLOCK
  5
280
330
226
100
AcDbEntity
  8
0
100
AcDbBlockBegin
  2
*D3
 70
     1
 10
0.0
 20
0.0
 30
0.0
  3
*D3
  1

  0
LINE
  5
281
330
226
100
AcDbEntity
  8
0
  6
Continuous
 62
     2
100
AcDbLine
 10
140.049732555
 20
234.320003267
 30
0.0
 11
151.1749808759
 21
234.320003267
 31
0.0
  0
LINE
  5
282
330
226
100
AcDbEntity
  8
0
  6
Continuous
 62
     2
100
AcDbLine
 10
140.049732555
 20
194.570003267
 30
0.0
 11
151.1749808759
 21
194.570003267
 31
0.0
  0
LINE
  5
283
330
226
100
AcDbEntity
  8
0
  6
Continuous
 62
     2
100
AcDbLine
 10
150.4249808759
 20
234.320003267
 30
0.0
 11
150.4249808759
 21
214.445003267
 31
0.0
  0
LINE
  5
284
330
226
100
AcDbEntity
  8
0
  6
Continuous
 62
     2
100
AcDbLine
 10
150.4249808759
 20
194.570003267
 30
0.0
 11
150.4249808759
 21
214.445003267
 31
0.0
  0
INSERT
  5
285
330
226
100
AcDbEntity
  8
0
  6
Continuous
 62
     2
100
AcDbBlockReference
  2
_CLOSED
 10
150.4249808759
 20
234.320003267
 30
0.0
 41
2.5
 42
2.5
 43
2.5
 50
90.0
  0
INSERT
  5
286
330
226
100
AcDbEntity
  8
0
  6
Continuous
 62
     2
100
AcDbBlockReference
  2
_CLOSED
 10
150.4249808759
 20
194.570003267
 30
0.0
 41
2.5
 42
2.5
 43
2.5
 50
270.0
  0
ENDBLK
  5
287
330
226
100
AcDbEntity
  8
0
  6
ByBlock
 62
     0
100
AcDbBlockEnd
  0
BLOCK
  5
288
330
227
100
AcDbEntity
  8
0
100
AcDbBlockBegin
  2
*D4
 70
     1
 10
0.0
 20
0.0
 30
0.0
  3
*D4
  1

  0
LINE
  5
289
330
227
100
AcDbEntity
  8
0
  6
Continuous
 62
     2
100
AcDbLine
 10
188.9325734641
 20
234.820003267
 30
0.0
 11
188.9325734641
 21
245.1844738342
 31
0.0
  0
LINE
  5
28A
330
227
100
AcDbEntity
  8
0
  6
Continuous
 62
     2
100
AcDbLine
 10
203.4325734641
 20
234.820003267
 30
0.0
 11
203.4325734641
 21
245.1844738342
 31
0.0
  0
LINE
  5
28B
330
227
100
AcDbEntity
  8
0
  6
Continuous
 62
     2
100
AcDbLine
 10
188.9325734641
 20
244.4344738342
 30
0.0
 11
196.1825734641
 21
244.4344738342
 31
0.0
  0
LINE
  5
28C
330
227
100
AcDbEntity
  8
0
  6
Continuous
 62
     2
100
AcDbLine
 10
203.4325734641
 20
244.4344738342
 30
0.0
 11
196.1825734641
 21
244.4344738342
 31
0.0
  0
INSERT
  5
28D
330
227
100
AcDbEntity
  8
0
  6
Continuous
 62
     2
100
AcDbBlockReference
  2
_CLOSED
 10
188.9325734641
 20
244.4344738342
 30
0.0
 41
2.5
 42
2.5
 43
2.5
 50
180.0
  0
INSERT
  5
28E
330
227
100
AcDbEntity
  8
0
  6
Continuous
 62
     2
100
AcDbBlockReference
  2
_CLOSED
 10
203.4325734641
 20
244.4344738342
 30
0.0
 41
2.5
 42
2.5
 43
2.5
  0
ENDBLK
  5
28F
330
227
100
AcDbEntity
  8
0
  6
ByBlock
 62
     0
100
AcDbBlockEnd
  0
BLOCK
  5
22E
330
228
100
AcDbEntity
  8
0
100
AcDbBlockBegin
  2
LOGO2_BL0
 70
     0
 10
333.1473869546
 20
37.5239270671
 30
0.0
  3
LOGO2_BL0
  1

  0
LINE
  5
22F
330
228
100
AcDbEntity
  8
0
  6
Continuous
 62
     7
100
AcDbLine
 10
324.8903121828
 20
40.7194184059
 30
0.0
 11
323.5859712535
 21
40.7194184059
 31
0.0
  0
LINE
  5
230
330
228
100
AcDbEntity
  8
0
  6
Continuous
 62
     7
100
AcDbLine
 10
323.5859712535
 20
40.7194184059
 30
0.0
 11
323.5859712535
 21
30.260352346
 31
0.0
  0
LINE
  5
231
330
228
100
AcDbEntity
  8
0
  6
Continuous
 62
     7
100
AcDbLine
 10
323.5859712535
 20
30.260352346
 30
0.0
 11
328.0670261417
 21
30.260352346
 31
0.0
  0
LINE
  5
232
330
228
100
AcDbEntity
  8
0
  6
Continuous
 62
     7
100
AcDbLine
 10
328.0670261417
 20
30.260352346
 30
0.0
 11
328.0670261417
 21
31.4532066711
 31
0.0
  0
LINE
  5
233
330
228
100
AcDbEntity
  8
0
  6
Continuous
 62
     7
100
AcDbLine
 10
328.0670261417
 20
31.4532066711
 30
0.0
 11
324.8903121828
 21
31.4532066711
 31
0.0
  0
LINE
  5
234
330
228
100
AcDbEntity
  8
0
  6
Continuous
 62
     7
100
AcDbLine
 10
324.8903121828
 20
31.4532066711
 30
0.0
 11
324.8903121828
 21
40.7194184059
 31
0.0
  0
LINE
  5
235
330
228
100
AcDbEntity
  8
0
  6
Continuous
 62
     7
100
AcDbLine
 10
339.8266383991
 20
40.7194184059
 30
0.0
 11
338.522820881
 21
40.7194184059
 31
0.0
  0
LINE
  5
236
330
228
100
AcDbEntity
  8
0
  6
Continuous
 62
     7
100
AcDbLine
 10
338.522820881
 20
40.7194184059
 30
0.0
 11
338.522820881
 21
30.260352346
 31
0.0
  0
LINE
  5
237
330
228
100
AcDbEntity
  8
0
  6
Continuous
 62
     7
100
AcDbLine
 10
338.522820881
 20
30.260352346
 30
0.0
 11
343.0040066221
 21
30.260352346
 31
0.0
  0
LINE
  5
238
330
228
100
AcDbEntity
  8
0
  6
Continuous
 62
     7
100
AcDbLine
 10
343.0040066221
 20
30.260352346
 30
0.0
 11
343.0040066221
 21
31.4532066711
 31
0.0
  0
LINE
  5
239
330
228
100
AcDbEntity
  8
0
  6
Continuous
 62
     7
100
AcDbLine
 10
343.0040066221
 20
31.4532066711
 30
0.0
 11
339.8266383991
 21
31.4532066711
 31
0.0
  0
LINE
  5
23A
330
228
100
AcDbEntity
  8
0
  6
Continuous
 62
     7
100
AcDbLine
 10
339.8266383991
 20
31.4532066711
 30
0.0
 11
339.8266383991
 21
40.7194184059
 31
0.0
  0
LWPOLYLINE
  5
23B
330
228
100
AcDbEntity
  8
0
  6
Continuous
 62
     7
100
AcDbPolyline
 90
        2
 70
     0
 43
0.2
 10
321.9403661644
 20
26.9168010391
 10
321.9403661644
 20
25.0597377898
  0
LWPOLYLINE
  5
23C
330
228
100
AcDbEntity
  8
0
  6
Continuous
 62
     7
100
AcDbPolyline
 90
        2
 70
     0
 43
0.2
 10
321.9403661644
 20
25.0597377898
 10
322.7360821748
 20
25.0597377898
  0
LWPOLYLINE
  5
23D
330
228
100
AcDbEntity
  8
0
  6
Continuous
 62
     7
100
AcDbPolyline
 90
        2
 70
     0
 43
0.2
 10
322.7360821748
 20
25.0597377898
 10
322.7360821748
 20
25.2717193614
  0
LWPOLYLINE
  5
23E
330
228
100
AcDbEntity
  8
0
  6
Continuous
 62
     7
100
AcDbPolyline
 90
        2
 70
     0
 43
0.2
 10
322.7360821748
 20
25.2717193614
 10
322.1719756593
 20
25.2717193614
  0
LWPOLYLINE
  5
23F
330
228
100
AcDbEntity
  8
0
  6
Continuous
 62
     7
100
AcDbPolyline
 90
        2
 70
     0
 43
0.2
 10
322.1719756593
 20
25.2717193614
 10
322.1719756593
 20
26.9168010391
  0
LWPOLYLINE
  5
240
330
228
100
AcDbEntity
  8
0
  6
Continuous
 62
     7
100
AcDbPolyline
 90
        2
 70
     0
 43
0.2
 10
322.1719756593
 20
26.9168010391
 10
321.9403661644
 20
26.9168010391
  0
SPLINE
  5
241
330
228
100
AcDbEntity
  8
0
  6
Continuous
 62
     7
100
AcDbSpline
 70
     3
 71
     3
 72
    35
 73
    31
 74
     0
 42
0.000000001
 43
0.0000001
 40
0.0
 40
0.0
 40
0.0
 40
0.0
 40
1.0
 40
1.0
 40
1.0
 40
2.0
 40
2.0
 40
2.0
 40
3.0
 40
3.0
 40
3.0
 40
4.0
 40
4.0
 40
4.0
 40
5.0
 40
5.0
 40
5.0
 40
6.0
 40
6.0
 40
6.0
 40
7.0
 40
7.0
 40
7.0
 40
8.0
 40
8.0
 40
8.0
 40
9.0
 40
9.0
 40
9.0
 40
10.0
 40
10.0
 40
10.0
 40
10.0
 10
324.1343754303
 20
26.2122894457
 30
0.0
 10
324.1343754303
 20
26.2122894457
 30
0.0
 10
324.1343754303
 20
25.5501741665
 30
0.0
 10
324.1343754303
 20
25.5501741665
 30
0.0
 10
324.1343754303
 20
25.2350805712
 30
0.0
 10
324.2822391191
 20
25.0204819432
 30
0.0
 10
324.6223256034
 20
25.0204819432
 30
0.0
 10
324.9618886764
 20
25.0204819432
 30
0.0
 10
325.1100140709
 20
25.2350805712
 30
0.0
 10
325.1100140709
 20
25.5501741665
 30
0.0
 10
325.1100140709
 20
25.5501741665
 30
0.0
 10
325.1100140709
 20
26.2122894457
 30
0.0
 10
325.1100140709
 20
26.2122894457
 30
0.0
 10
325.1100140709
 20
26.2122894457
 30
0.0
 10
324.887956832
 20
26.2122894457
 30
0.0
 10
324.887956832
 20
26.2122894457
 30
0.0
 10
324.887956832
 20
26.2122894457
 30
0.0
 10
324.887956832
 20
25.5752979083
 30
0.0
 10
324.887956832
 20
25.5752979083
 30
0.0
 10
324.887956832
 20
25.3894869011
 30
0.0
 10
324.8412423746
 20
25.2267059906
 30
0.0
 10
324.6223256034
 20
25.2267059906
 30
0.0
 10
324.402885421
 20
25.2267059906
 30
0.0
 10
324.3561709636
 20
25.3894869011
 30
0.0
 10
324.3561709636
 20
25.5752979083
 30
0.0
 10
324.3561709636
 20
25.5752979083
 30
0.0
 10
324.3561709636
 20
26.2122894457
 30
0.0
 10
324.3561709636
 20
26.2122894457
 30
0.0
 10
324.3561709636
 20
26.2122894457
 30
0.0
 10
324.1343754303
 20
26.2122894457
 30
0.0
 10
324.1343754303
 20
26.2122894457
 30
0.0
  0
SPLINE
  5
242
330
228
100
AcDbEntity
  8
0
  6
Continuous
 62
     7
100
AcDbSpline
 70
     3
 71
     3
 72
    35
 73
    31
 74
     0
 42
0.000000001
 43
0.0000001
 40
0.0
 40
0.0
 40
0.0
 40
0.0
 40
1.0
 40
1.0
 40
1.0
 40
2.0
 40
2.0
 40
2.0
 40
3.0
 40
3.0
 40
3.0
 40
4.0
 40
4.0
 40
4.0
 40
5.0
 40
5.0
 40
5.0
 40
6.0
 40
6.0
 40
6.0
 40
7.0
 40
7.0
 40
7.0
 40
8.0
 40
8.0
 40
8.0
 40
9.0
 40
9.0
 40
9.0
 40
10.0
 40
10.0
 40
10.0
 40
10.0
 10
327.5331466281
 20
26.1709399539
 30
0.0
 10
327.4446901205
 20
26.2222342601
 30
0.0
 10
327.3312407238
 20
26.2473580019
 30
0.0
 10
327.2276052888
 20
26.2473580019
 30
0.0
 10
326.8727324356
 20
26.2473580019
 30
0.0
 10
326.5972872454
 20
25.9835587129
 30
0.0
 10
326.5972872454
 20
25.6260688032
 30
0.0
 10
326.5972872454
 20
25.2811407645
 30
0.0
 10
326.8757420505
 20
25.0210053545
 30
0.0
 10
327.2153051235
 20
25.0210053545
 30
0.0
 10
327.3312407238
 20
25.0210053545
 30
0.0
 10
327.4319973967
 20
25.0429886286
 30
0.0
 10
327.5331466281
 20
25.0968999912
 30
0.0
 10
327.5331466281
 20
25.0968999912
 30
0.0
 10
327.5331466281
 20
25.3795420867
 30
0.0
 10
327.5331466281
 20
25.3795420867
 30
0.0
 10
327.4492699692
 20
25.2863748774
 30
0.0
 10
327.345765387
 20
25.2272294019
 30
0.0
 10
327.2176604743
 20
25.2272294019
 30
0.0
 10
326.9839573343
 20
25.2272294019
 30
0.0
 10
326.8186902202
 20
25.3994317156
 30
0.0
 10
326.8186902202
 20
25.6360136177
 30
0.0
 10
326.8186902202
 20
25.8479951893
 30
0.0
 10
326.9864435379
 20
26.040087132
 30
0.0
 10
327.2032666639
 20
26.040087132
 30
0.0
 10
327.3360822782
 20
26.040087132
 30
0.0
 10
327.4446901205
 20
25.9861757693
 30
0.0
 10
327.5331466281
 20
25.8851573907
 30
0.0
 10
327.5331466281
 20
25.8851573907
 30
0.0
 10
327.5331466281
 20
26.1709399539
 30
0.0
 10
327.5331466281
 20
26.1709399539
 30
0.0
  0
SPLINE
  5
243
330
228
100
AcDbEntity
  8
0
  6
Continuous
 62
     7
100
AcDbSpline
 70
     3
 71
     3
 72
    32
 73
    28
 74
     0
 42
0.000000001
 43
0.0000001
 40
0.0
 40
0.0
 40
0.0
 40
0.0
 40
1.0
 40
1.0
 40
1.0
 40
2.0
 40
2.0
 40
2.0
 40
3.0
 40
3.0
 40
3.0
 40
4.0
 40
4.0
 40
4.0
 40
5.0
 40
5.0
 40
5.0
 40
6.0
 40
6.0
 40
6.0
 40
7.0
 40
7.0
 40
7.0
 40
8.0
 40
8.0
 40
8.0
 40
9.0
 40
9.0
 40
9.0
 40
9.0
 10
330.0650178804
 20
25.5993748276
 30
0.0
 10
330.0650178804
 20
25.5993748276
 30
0.0
 10
330.0650178804
 20
25.6333965613
 30
0.0
 10
330.0650178804
 20
25.6333965613
 30
0.0
 10
330.0650178804
 20
25.9757075435
 30
0.0
 10
329.8921613025
 20
26.2473580019
 30
0.0
 10
329.5255116954
 20
26.2473580019
 30
0.0
 10
329.153889681
 20
26.2473580019
 30
0.0
 10
328.9641530891
 20
25.9809416564
 30
0.0
 10
328.9641530891
 20
25.6260688032
 30
0.0
 10
328.9641530891
 20
25.2863748774
 30
0.0
 10
329.1782283059
 20
25.0204819432
 30
0.0
 10
329.5303532498
 20
25.0204819432
 30
0.0
 10
329.754373281
 20
25.0204819432
 30
0.0
 10
329.9565408909
 20
25.1361558378
 30
0.0
 10
330.0650178804
 20
25.3355755385
 30
0.0
 10
330.0650178804
 20
25.3355755385
 30
0.0
 10
329.8773749337
 20
25.4423514412
 30
0.0
 10
329.8773749337
 20
25.4423514412
 30
0.0
 10
329.7938908332
 20
25.3036474499
 30
0.0
 10
329.7026864163
 20
25.2178079987
 30
0.0
 10
329.5331011591
 20
25.2178079987
 30
0.0
 10
329.3211195875
 20
25.2178079987
 30
0.0
 10
329.1881731204
 20
25.4025721833
 30
0.0
 10
329.1858177696
 20
25.5993748276
 30
0.0
 10
329.1858177696
 20
25.5993748276
 30
0.0
 10
330.0650178804
 20
25.5993748276
 30
0.0
 10
330.0650178804
 20
25.5993748276
 30
0.0
  0
SPLINE
  5
244
330
228
100
AcDbEntity
  8
0
  6
Continuous
 62
     7
100
AcDbSpline
 70
     3
 71
     3
 72
    14
 73
    10
 74
     0
 42
0.000000001
 43
0.0000001
 40
0.0
 40
0.0
 40
0.0
 40
0.0
 40
1.0
 40
1.0
 40
1.0
 40
2.0
 40
2.0
 40
2.0
 40
3.0
 40
3.0
 40
3.0
 40
3.0
 10
329.1978562292
 20
25.7668664397
 30
0.0
 10
329.2254661746
 20
25.9317409954
 30
0.0
 10
329.3533093817
 20
26.054742648
 30
0.0
 10
329.5255116954
 20
26.054742648
 30
0.0
 10
329.7026864163
 20
26.054742648
 30
0.0
 10
329.816135813
 20
25.9390687534
 30
0.0
 10
329.8433531999
 20
25.7668664397
 30
0.0
 10
329.8433531999
 20
25.7668664397
 30
0.0
 10
329.1978562292
 20
25.7668664397
 30
0.0
 10
329.1978562292
 20
25.7668664397
 30
0.0
  0
SPLINE
  5
245
330
228
100
AcDbEntity
  8
0
  6
Continuous
 62
     7
100
AcDbSpline
 70
     3
 71
     3
 72
    20
 73
    16
 74
     0
 42
0.000000001
 43
0.0000001
 40
0.0
 40
0.0
 40
0.0
 40
0.0
 40
1.0
 40
1.0
 40
1.0
 40
2.0
 40
2.0
 40
2.0
 40
3.0
 40
3.0
 40
3.0
 40
4.0
 40
4.0
 40
4.0
 40
5.0
 40
5.0
 40
5.0
 40
5.0
 10
332.0890493306
 20
25.9762309548
 30
0.0
 10
332.0890493306
 20
25.9762309548
 30
0.0
 10
332.5001888972
 20
25.4737561185
 30
0.0
 10
332.5001888972
 20
25.4737561185
 30
0.0
 10
332.3841224441
 20
25.3580822239
 30
0.0
 10
332.2463344226
 20
25.2277528132
 30
0.0
 10
332.0743938145
 20
25.2277528132
 30
0.0
 10
331.8969573879
 20
25.2277528132
 30
0.0
 10
331.7294657758
 20
25.3921039576
 30
0.0
 10
331.7294657758
 20
25.5690169729
 30
0.0
 10
331.7294657758
 20
25.7469768107
 30
0.0
 10
331.9392228494
 20
25.8731189311
 30
0.0
 10
332.0668043508
 20
25.9610520275
 30
0.0
 10
332.0668043508
 20
25.9610520275
 30
0.0
 10
332.0890493306
 20
25.9762309548
 30
0.0
 10
332.0890493306
 20
25.9762309548
 30
0.0
  0
SPLINE
  5
246
330
228
100
AcDbEntity
  8
0
  6
Continuous
 62
     7
100
AcDbSpline
 70
     3
 71
     3
 72
    23
 73
    19
 74
     0
 42
0.000000001
 43
0.0000001
 40
0.0
 40
0.0
 40
0.0
 40
0.0
 40
1.0
 40
1.0
 40
1.0
 40
2.0
 40
2.0
 40
2.0
 40
3.0
 40
3.0
 40
3.0
 40
4.0
 40
4.0
 40
4.0
 40
5.0
 40
5.0
 40
5.0
 40
6.0
 40
6.0
 40
6.0
 40
6.0
 10
332.1383808444
 20
26.2672476309
 30
0.0
 10
332.1383808444
 20
26.2672476309
 30
0.0
 10
332.0767491653
 20
26.3457593241
 30
0.0
 10
332.0767491653
 20
26.3457593241
 30
0.0
 10
332.0228378026
 20
26.4143262028
 30
0.0
 10
331.9660476779
 20
26.4834164928
 30
0.0
 10
331.9660476779
 20
26.5771071133
 30
0.0
 10
331.9660476779
 20
26.6959214757
 30
0.0
 10
332.0619627964
 20
26.7733863463
 30
0.0
 10
332.1729259894
 20
26.7733863463
 30
0.0
 10
332.2961893477
 20
26.7733863463
 30
0.0
 10
332.3894874098
 20
26.7022024111
 30
0.0
 10
332.3894874098
 20
26.5718730004
 30
0.0
 10
332.3894874098
 20
26.4368328882
 30
0.0
 10
332.2613824971
 20
26.3604148401
 30
0.0
 10
332.1678227294
 20
26.2866138485
 30
0.0
 10
332.1678227294
 20
26.2866138485
 30
0.0
 10
332.1383808444
 20
26.2672476309
 30
0.0
 10
332.1383808444
 20
26.2672476309
 30
0.0
  0
SPLINE
  5
247
330
228
100
AcDbEntity
  8
0
  6
Continuous
 62
     7
100
AcDbSpline
 70
     3
 71
     3
 72
    50
 73
    46
 74
     0
 42
0.000000001
 43
0.0000001
 40
0.0
 40
0.0
 40
0.0
 40
0.0
 40
1.0
 40
1.0
 40
1.0
 40
2.0
 40
2.0
 40
2.0
 40
3.0
 40
3.0
 40
3.0
 40
4.0
 40
4.0
 40
4.0
 40
5.0
 40
5.0
 40
5.0
 40
6.0
 40
6.0
 40
6.0
 40
7.0
 40
7.0
 40
7.0
 40
8.0
 40
8.0
 40
8.0
 40
9.0
 40
9.0
 40
9.0
 40
10.0
 40
10.0
 40
10.0
 40
11.0
 40
11.0
 40
11.0
 40
12.0
 40
12.0
 40
12.0
 40
13.0
 40
13.0
 40
13.0
 40
14.0
 40
14.0
 40
14.0
 40
15.0
 40
15.0
 40
15.0
 40
15.0
 10
332.8405370871
 20
25.0602612011
 30
0.0
 10
332.8405370871
 20
25.0602612011
 30
0.0
 10
333.1259270918
 20
25.0602612011
 30
0.0
 10
333.1259270918
 20
25.0602612011
 30
0.0
 10
333.1259270918
 20
25.0602612011
 30
0.0
 10
332.793560924
 20
25.471139062
 30
0.0
 10
332.793560924
 20
25.471139062
 30
0.0
 10
332.793560924
 20
25.471139062
 30
0.0
 10
333.0200671588
 20
25.7370319963
 30
0.0
 10
333.0200671588
 20
25.7370319963
 30
0.0
 10
333.0200671588
 20
25.7370319963
 30
0.0
 10
332.8718109116
 20
25.8898680923
 30
0.0
 10
332.8718109116
 20
25.8898680923
 30
0.0
 10
332.8718109116
 20
25.8898680923
 30
0.0
 10
332.6559037553
 20
25.6386306742
 30
0.0
 10
332.6559037553
 20
25.6386306742
 30
0.0
 10
332.6559037553
 20
25.6386306742
 30
0.0
 10
332.2688411079
 20
26.1065603655
 30
0.0
 10
332.2688411079
 20
26.1065603655
 30
0.0
 10
332.4242942604
 20
26.2206640263
 30
0.0
 10
332.6065722414
 20
26.3604148401
 30
0.0
 10
332.6065722414
 20
26.5697793553
 30
0.0
 10
332.6065722414
 20
26.8136890154
 30
0.0
 10
332.4045354843
 20
26.9571037083
 30
0.0
 10
332.1780292495
 20
26.9571037083
 30
0.0
 10
331.9338578837
 20
26.9571037083
 30
0.0
 10
331.7494862575
 20
26.8063612574
 30
0.0
 10
331.7494862575
 20
26.5498897263
 30
0.0
 10
331.7494862575
 20
26.3923429287
 30
0.0
 10
331.8481492853
 20
26.25468576
 30
0.0
 10
331.953485807
 20
26.1437225669
 30
0.0
 10
331.953485807
 20
26.1437225669
 30
0.0
 10
331.8379427652
 20
26.0599767609
 30
0.0
 10
331.8379427652
 20
26.0599767609
 30
0.0
 10
331.660244633
 20
25.9317409954
 30
0.0
 10
331.5129043554
 20
25.8040286411
 30
0.0
 10
331.5129043554
 20
25.5669233277
 30
0.0
 10
331.5129043554
 20
25.2465956195
 30
0.0
 10
331.7714695316
 20
25.0204819432
 30
0.0
 10
332.0818524253
 20
25.0204819432
 30
0.0
 10
332.3007691965
 20
25.0204819432
 30
0.0
 10
332.4979643992
 20
25.145577241
 30
0.0
 10
332.6382386243
 20
25.3114986192
 30
0.0
 10
332.6382386243
 20
25.3114986192
 30
0.0
 10
332.8405370871
 20
25.0602612011
 30
0.0
 10
332.8405370871
 20
25.0602612011
 30
0.0
  0
LWPOLYLINE
  5
248
330
228
100
AcDbEntity
  8
0
  6
Continuous
 62
     7
100
AcDbPolyline
 90
        2
 70
     0
 43
0.2
 10
334.7759811768
 20
26.9168010391
 10
334.5446333876
 20
26.9168010391
  0
LWPOLYLINE
  5
249
330
228
100
AcDbEntity
  8
0
  6
Continuous
 62
     7
100
AcDbPolyline
 90
        2
 70
     0
 43
0.2
 10
334.5446333876
 20
26.9168010391
 10
334.5446333876
 20
25.0597377898
  0
LWPOLYLINE
  5
24A
330
228
100
AcDbEntity
  8
0
  6
Continuous
 62
     7
100
AcDbPolyline
 90
        2
 70
     0
 43
0.2
 10
334.5446333876
 20
25.0597377898
 10
335.3399568395
 20
25.0597377898
  0
LWPOLYLINE
  5
24B
330
228
100
AcDbEntity
  8
0
  6
Continuous
 62
     7
100
AcDbPolyline
 90
        2
 70
     0
 43
0.2
 10
335.3399568395
 20
25.0597377898
 10
335.3399568395
 20
25.2717193614
  0
LWPOLYLINE
  5
24C
330
228
100
AcDbEntity
  8
0
  6
Continuous
 62
     7
100
AcDbPolyline
 90
        2
 70
     0
 43
0.2
 10
335.3399568395
 20
25.2717193614
 10
334.7759811768
 20
25.2717193614
  0
LWPOLYLINE
  5
24D
330
228
100
AcDbEntity
  8
0
  6
Continuous
 62
     7
100
AcDbPolyline
 90
        2
 70
     0
 43
0.2
 10
334.7759811768
 20
25.2717193614
 10
334.7759811768
 20
26.9168010391
  0
LWPOLYLINE
  5
24E
330
228
100
AcDbEntity
  8
0
  6
Continuous
 62
     7
100
AcDbPolyline
 90
        2
 70
     0
 43
0.2
 10
337.019060251
 20
26.2122894457
 10
336.7979189819
 20
26.2122894457
  0
LWPOLYLINE
  5
24F
330
228
100
AcDbEntity
  8
0
  6
Continuous
 62
     7
100
AcDbPolyline
 90
        2
 70
     0
 43
0.2
 10
336.7979189819
 20
26.2122894457
 10
336.7979189819
 20
25.0602612011
  0
LWPOLYLINE
  5
250
330
228
100
AcDbEntity
  8
0
  6
Continuous
 62
     7
100
AcDbPolyline
 90
        2
 70
     0
 43
0.2
 10
336.7979189819
 20
25.0602612011
 10
337.019060251
 20
25.0602612011
  0
LWPOLYLINE
  5
251
330
228
100
AcDbEntity
  8
0
  6
Continuous
 62
     7
100
AcDbPolyline
 90
        2
 70
     0
 43
0.2
 10
337.019060251
 20
25.0602612011
 10
337.019060251
 20
26.2122894457
  0
SPLINE
  5
252
330
228
100
AcDbEntity
  8
0
  6
Continuous
 62
     7
100
AcDbSpline
 70
     3
 71
     3
 72
    17
 73
    13
 74
     0
 42
0.000000001
 43
0.0000001
 40
0.0
 40
0.0
 40
0.0
 40
0.0
 40
1.0
 40
1.0
 40
1.0
 40
2.0
 40
2.0
 40
2.0
 40
3.0
 40
3.0
 40
3.0
 40
4.0
 40
4.0
 40
4.0
 40
4.0
 10
336.9086204693
 20
26.894817765
 30
0.0
 10
336.8246129576
 20
26.894817765
 30
0.0
 10
336.7560460788
 20
26.825727475
 30
0.0
 10
336.7560460788
 20
26.7398880238
 30
0.0
 10
336.7560460788
 20
26.6556188065
 30
0.0
 10
336.8246129576
 20
26.5896689842
 30
0.0
 10
336.9086204693
 20
26.5896689842
 30
0.0
 10
336.9923662753
 20
26.5896689842
 30
0.0
 10
337.0611948597
 20
26.6556188065
 30
0.0
 10
337.0611948597
 20
26.7398880238
 30
0.0
 10
337.0611948597
 20
26.825727475
 30
0.0
 10
336.9923662753
 20
26.894817765
 30
0.0
 10
336.9086204693
 20
26.894817765
 30
0.0
  0
SPLINE
  5
253
330
228
100
AcDbEntity
  8
0
  6
Continuous
 62
     7
100
AcDbSpline
 70
     3
 71
     3
 72
    17
 73
    13
 74
     0
 42
0.000000001
 43
0.0000001
 40
0.0
 40
0.0
 40
0.0
 40
0.0
 40
1.0
 40
1.0
 40
1.0
 40
2.0
 40
2.0
 40
2.0
 40
3.0
 40
3.0
 40
3.0
 40
4.0
 40
4.0
 40
4.0
 40
4.0
 10
339.1493441926
 20
25.2178079987
 30
0.0
 10
338.915379347
 20
25.2178079987
 30
0.0
 10
338.7850499363
 20
25.4198447558
 30
0.0
 10
338.7850499363
 20
25.6360136177
 30
0.0
 10
338.7850499363
 20
25.8506122457
 30
0.0
 10
338.9208751655
 20
26.0495085351
 30
0.0
 10
339.1493441926
 20
26.0495085351
 30
0.0
 10
339.3888048568
 20
26.0495085351
 30
0.0
 10
339.5243683804
 20
25.8605570602
 30
0.0
 10
339.5243683804
 20
25.6360136177
 30
0.0
 10
339.5243683804
 20
25.4098999414
 30
0.0
 10
339.3911602076
 20
25.2178079987
 30
0.0
 10
339.1493441926
 20
25.2178079987
 30
0.0
  0
SPLINE
  5
254
330
228
100
AcDbEntity
  8
0
  6
Continuous
 62
     7
100
AcDbSpline
 70
     3
 71
     3
 72
    50
 73
    46
 74
     0
 42
0.000000001
 43
0.0000001
 40
0.0
 40
0.0
 40
0.0
 40
0.0
 40
1.0
 40
1.0
 40
1.0
 40
2.0
 40
2.0
 40
2.0
 40
3.0
 40
3.0
 40
3.0
 40
4.0
 40
4.0
 40
4.0
 40
5.0
 40
5.0
 40
5.0
 40
6.0
 40
6.0
 40
6.0
 40
7.0
 40
7.0
 40
7.0
 40
8.0
 40
8.0
 40
8.0
 40
9.0
 40
9.0
 40
9.0
 40
10.0
 40
10.0
 40
10.0
 40
11.0
 40
11.0
 40
11.0
 40
12.0
 40
12.0
 40
12.0
 40
13.0
 40
13.0
 40
13.0
 40
14.0
 40
14.0
 40
14.0
 40
15.0
 40
15.0
 40
15.0
 40
15.0
 10
339.7334711899
 20
26.2128128569
 30
0.0
 10
339.7334711899
 20
26.2128128569
 30
0.0
 10
339.5118065095
 20
26.2128128569
 30
0.0
 10
339.5118065095
 20
26.2128128569
 30
0.0
 10
339.5118065095
 20
26.2128128569
 30
0.0
 10
339.5118065095
 20
26.0154868014
 30
0.0
 10
339.5118065095
 20
26.0154868014
 30
0.0
 10
339.5118065095
 20
26.0154868014
 30
0.0
 10
339.5070958079
 20
26.0154868014
 30
0.0
 10
339.5070958079
 20
26.0154868014
 30
0.0
 10
339.4157605382
 20
26.158378083
 30
0.0
 10
339.2778416638
 20
26.2468345907
 30
0.0
 10
339.1051159388
 20
26.2468345907
 30
0.0
 10
338.772749771
 20
26.2468345907
 30
0.0
 10
338.5636469615
 20
25.9589583823
 30
0.0
 10
338.5636469615
 20
25.6433413757
 30
0.0
 10
338.5636469615
 20
25.3135922644
 30
0.0
 10
338.7607113114
 20
25.0204819432
 30
0.0
 10
339.1155841646
 20
25.0204819432
 30
0.0
 10
339.2778416638
 20
25.0204819432
 30
0.0
 10
339.4178541833
 20
25.1089384508
 30
0.0
 10
339.5070958079
 20
25.2397912728
 30
0.0
 10
339.5070958079
 20
25.2397912728
 30
0.0
 10
339.5118065095
 20
25.2397912728
 30
0.0
 10
339.5118065095
 20
25.2397912728
 30
0.0
 10
339.5118065095
 20
25.2397912728
 30
0.0
 10
339.5118065095
 20
25.0204819432
 30
0.0
 10
339.5118065095
 20
25.0204819432
 30
0.0
 10
339.5118065095
 20
24.7839000411
 30
0.0
 10
339.4552780904
 20
24.5970422113
 30
0.0
 10
339.1820573981
 20
24.5970422113
 30
0.0
 10
338.9797589354
 20
24.5970422113
 30
0.0
 10
338.8371293594
 20
24.7153331624
 30
0.0
 10
338.8371293594
 20
24.9215572098
 30
0.0
 10
338.8371293594
 20
24.9215572098
 30
0.0
 10
338.615464679
 20
24.9215572098
 30
0.0
 10
338.615464679
 20
24.9215572098
 30
0.0
 10
338.6204370862
 20
24.5970422113
 30
0.0
 10
338.8515231698
 20
24.4002395671
 30
0.0
 10
339.171850878
 20
24.4002395671
 30
0.0
 10
339.6198909404
 20
24.4002395671
 30
0.0
 10
339.7334711899
 20
24.6854987189
 30
0.0
 10
339.7334711899
 20
25.0822444751
 30
0.0
 10
339.7334711899
 20
25.0822444751
 30
0.0
 10
339.7334711899
 20
26.2128128569
 30
0.0
 10
339.7334711899
 20
26.2128128569
 30
0.0
  0
SPLINE
  5
255
330
228
100
AcDbEntity
  8
0
  6
Continuous
 62
     7
100
AcDbSpline
 70
     3
 71
     3
 72
    44
 73
    40
 74
     0
 42
0.000000001
 43
0.0000001
 40
0.0
 40
0.0
 40
0.0
 40
0.0
 40
1.0
 40
1.0
 40
1.0
 40
2.0
 40
2.0
 40
2.0
 40
3.0
 40
3.0
 40
3.0
 40
4.0
 40
4.0
 40
4.0
 40
5.0
 40
5.0
 40
5.0
 40
6.0
 40
6.0
 40
6.0
 40
7.0
 40
7.0
 40
7.0
 40
8.0
 40
8.0
 40
8.0
 40
9.0
 40
9.0
 40
9.0
 40
10.0
 40
10.0
 40
10.0
 40
11.0
 40
11.0
 40
11.0
 40
12.0
 40
12.0
 40
12.0
 40
13.0
 40
13.0
 40
13.0
 40
13.0
 10
341.3023965253
 20
27.1978729007
 30
0.0
 10
341.3023965253
 20
27.1978729007
 30
0.0
 10
341.3023965253
 20
25.0597377898
 30
0.0
 10
341.3023965253
 20
25.0597377898
 30
0.0
 10
341.3023965253
 20
25.0597377898
 30
0.0
 10
341.5237995001
 20
25.0597377898
 30
0.0
 10
341.5237995001
 20
25.0597377898
 30
0.0
 10
341.5237995001
 20
25.0597377898
 30
0.0
 10
341.5237995001
 20
25.5894300131
 30
0.0
 10
341.5237995001
 20
25.5894300131
 30
0.0
 10
341.5237995001
 20
25.7993179395
 30
0.0
 10
341.5237995001
 20
26.0500319464
 30
0.0
 10
341.8090586519
 20
26.0500319464
 30
0.0
 10
342.0359574452
 20
26.0500319464
 30
0.0
 10
342.0629131266
 20
25.9170854793
 30
0.0
 10
342.0629131266
 20
25.7208062464
 30
0.0
 10
342.0629131266
 20
25.7208062464
 30
0.0
 10
342.0629131266
 20
25.0597377898
 30
0.0
 10
342.0629131266
 20
25.0597377898
 30
0.0
 10
342.0629131266
 20
25.0597377898
 30
0.0
 10
342.2848395126
 20
25.0597377898
 30
0.0
 10
342.2848395126
 20
25.0597377898
 30
0.0
 10
342.2848395126
 20
25.0597377898
 30
0.0
 10
342.2848395126
 20
25.7469768107
 30
0.0
 10
342.2848395126
 20
25.7469768107
 30
0.0
 10
342.2848395126
 20
26.027525261
 30
0.0
 10
342.2008320009
 20
26.2473580019
 30
0.0
 10
341.8757935911
 20
26.2473580019
 30
0.0
 10
341.7360427773
 20
26.2473580019
 30
0.0
 10
341.5978621973
 20
26.1808847684
 30
0.0
 10
341.5285102016
 20
26.0578831157
 30
0.0
 10
341.5285102016
 20
26.0578831157
 30
0.0
 10
341.5237995001
 20
26.0578831157
 30
0.0
 10
341.5237995001
 20
26.0578831157
 30
0.0
 10
341.5237995001
 20
26.0578831157
 30
0.0
 10
341.5237995001
 20
27.1978729007
 30
0.0
 10
341.5237995001
 20
27.1978729007
 30
0.0
 10
341.5237995001
 20
27.1978729007
 30
0.0
 10
341.3023965253
 20
27.1978729007
 30
0.0
 10
341.3023965253
 20
27.1978729007
 30
0.0
  0
LWPOLYLINE
  5
256
330
228
100
AcDbEntity
  8
0
  6
Continuous
 62
     7
100
AcDbPolyline
 90
        2
 70
     0
 43
0.2
 10
344.1246301895
 20
26.005541987
 10
344.341060757
 20
26.005541987
  0
LWPOLYLINE
  5
257
330
228
100
AcDbEntity
  8
0
  6
Continuous
 62
     7
100
AcDbPolyline
 90
        2
 70
     0
 43
0.2
 10
344.341060757
 20
26.005541987
 10
344.341060757
 20
26.2122894457
  0
LWPOLYLINE
  5
258
330
228
100
AcDbEntity
  8
0
  6
Continuous
 62
     7
100
AcDbPolyline
 90
        2
 70
     0
 43
0.2
 10
344.341060757
 20
26.2122894457
 10
344.1246301895
 20
26.2122894457
  0
LWPOLYLINE
  5
259
330
228
100
AcDbEntity
  8
0
  6
Continuous
 62
     7
100
AcDbPolyline
 90
        2
 70
     0
 43
0.2
 10
344.1246301895
 20
26.2122894457
 10
344.1246301895
 20
26.65300175
  0
LWPOLYLINE
  5
25A
330
228
100
AcDbEntity
  8
0
  6
Continuous
 62
     7
100
AcDbPolyline
 90
        2
 70
     0
 43
0.2
 10
344.1246301895
 20
26.65300175
 10
343.9029655091
 20
26.65300175
  0
LWPOLYLINE
  5
25B
330
228
100
AcDbEntity
  8
0
  6
Continuous
 62
     7
100
AcDbPolyline
 90
        2
 70
     0
 43
0.2
 10
343.9029655091
 20
26.65300175
 10
343.9029655091
 20
26.2122894457
  0
LWPOLYLINE
  5
25C
330
228
100
AcDbEntity
  8
0
  6
Continuous
 62
     7
100
AcDbPolyline
 90
        2
 70
     0
 43
0.2
 10
343.9029655091
 20
26.2122894457
 10
343.7823192072
 20
26.2122894457
  0
LWPOLYLINE
  5
25D
330
228
100
AcDbEntity
  8
0
  6
Continuous
 62
     7
100
AcDbPolyline
 90
        2
 70
     0
 43
0.2
 10
343.7823192072
 20
26.2122894457
 10
343.7823192072
 20
26.005541987
  0
LWPOLYLINE
  5
25E
330
228
100
AcDbEntity
  8
0
  6
Continuous
 62
     7
100
AcDbPolyline
 90
        2
 70
     0
 43
0.2
 10
343.7823192072
 20
26.005541987
 10
343.9029655091
 20
26.005541987
  0
LWPOLYLINE
  5
25F
330
228
100
AcDbEntity
  8
0
  6
Continuous
 62
     7
100
AcDbPolyline
 90
        2
 70
     0
 43
0.2
 10
343.9029655091
 20
26.005541987
 10
343.9029655091
 20
25.0597377898
  0
LWPOLYLINE
  5
260
330
228
100
AcDbEntity
  8
0
  6
Continuous
 62
     7
100
AcDbPolyline
 90
        2
 70
     0
 43
0.2
 10
343.9029655091
 20
25.0597377898
 10
344.1246301895
 20
25.0597377898
  0
LWPOLYLINE
  5
261
330
228
100
AcDbEntity
  8
0
  6
Continuous
 62
     7
100
AcDbPolyline
 90
        2
 70
     0
 43
0.2
 10
344.1246301895
 20
25.0597377898
 10
344.1246301895
 20
26.005541987
  0
SPLINE
  5
262
330
228
100
AcDbEntity
  8
0
  6
Continuous
 62
     7
100
AcDbSpline
 70
     3
 71
     3
 72
    20
 73
    16
 74
     0
 42
0.000000001
 43
0.0000001
 40
0.0
 40
0.0
 40
0.0
 40
0.0
 40
1.0
 40
1.0
 40
1.0
 40
2.0
 40
2.0
 40
2.0
 40
3.0
 40
3.0
 40
3.0
 40
4.0
 40
4.0
 40
4.0
 40
5.0
 40
5.0
 40
5.0
 40
5.0
 10
331.9066404967
 20
35.4206642332
 30
0.0
 10
331.9066404967
 20
35.4206642332
 30
0.0
 10
334.2229971512
 20
32.5911028109
 30
0.0
 10
334.2229971512
 20
32.5911028109
 30
0.0
 10
333.5713500978
 20
31.9389323462
 30
0.0
 10
332.7944768938
 20
31.2030160755
 30
0.0
 10
331.8232872491
 20
31.2030160755
 30
0.0
 10
330.8247493647
 20
31.2030160755
 30
0.0
 10
329.8814313711
 20
32.1325945228
 30
0.0
 10
329.8814313711
 20
33.1317866713
 30
0.0
 10
329.8814313711
 20
34.1309788198
 30
0.0
 10
331.0602844442
 20
34.8375840585
 30
0.0
 10
331.7818069046
 20
35.3374418384
 30
0.0
 10
331.7818069046
 20
35.3374418384
 30
0.0
 10
331.9066404967
 20
35.4206642332
 30
0.0
 10
331.9066404967
 20
35.4206642332
 30
0.0
  0
SPLINE
  5
263
330
228
100
AcDbEntity
  8
0
  6
Continuous
 62
     7
100
AcDbSpline
 70
     3
 71
     3
 72
    23
 73
    19
 74
     0
 42
0.000000001
 43
0.0000001
 40
0.0
 40
0.0
 40
0.0
 40
0.0
 40
1.0
 40
1.0
 40
1.0
 40
2.0
 40
2.0
 40
2.0
 40
3.0
 40
3.0
 40
3.0
 40
4.0
 40
4.0
 40
4.0
 40
5.0
 40
5.0
 40
5.0
 40
6.0
 40
6.0
 40
6.0
 40
6.0
 10
332.1840484793
 20
37.0584181529
 30
0.0
 10
332.1840484793
 20
37.0584181529
 30
0.0
 10
331.8375502067
 20
37.5017475137
 30
0.0
 10
331.8375502067
 20
37.5017475137
 30
0.0
 10
331.5317471618
 20
37.8898569837
 30
0.0
 10
331.2128588347
 20
38.2783590121
 30
0.0
 10
331.2128588347
 20
38.8053033262
 30
0.0
 10
331.2128588347
 20
39.4714750428
 30
0.0
 10
331.7541969591
 20
39.9151969621
 30
0.0
 10
332.3781032143
 20
39.9151969621
 30
0.0
 10
333.0718848763
 20
39.9151969621
 30
0.0
 10
333.5990908961
 20
39.5129553874
 30
0.0
 10
333.5990908961
 20
38.7779550864
 30
0.0
 10
333.5990908961
 20
38.0146905758
 30
0.0
 10
332.8778301414
 20
37.58457735
 30
0.0
 10
332.3507549745
 20
37.1688579346
 30
0.0
 10
332.3507549745
 20
37.1688579346
 30
0.0
 10
332.1840484793
 20
37.0584181529
 30
0.0
 10
332.1840484793
 20
37.0584181529
 30
0.0
  0
SPLINE
  5
264
330
228
100
AcDbEntity
  8
0
  6
Continuous
 62
     7
100
AcDbSpline
 70
     3
 71
     3
 72
    50
 73
    46
 74
     0
 42
0.000000001
 43
0.0000001
 40
0.0
 40
0.0
 40
0.0
 40
0.0
 40
1.0
 40
1.0
 40
1.0
 40
2.0
 40
2.0
 40
2.0
 40
3.0
 40
3.0
 40
3.0
 40
4.0
 40
4.0
 40
4.0
 40
5.0
 40
5.0
 40
5.0
 40
6.0
 40
6.0
 40
6.0
 40
7.0
 40
7.0
 40
7.0
 40
8.0
 40
8.0
 40
8.0
 40
9.0
 40
9.0
 40
9.0
 40
10.0
 40
10.0
 40
10.0
 40
11.0
 40
11.0
 40
11.0
 40
12.0
 40
12.0
 40
12.0
 40
13.0
 40
13.0
 40
13.0
 40
14.0
 40
14.0
 40
14.0
 40
15.0
 40
15.0
 40
15.0
 40
15.0
 10
336.1376356422
 20
30.2598289348
 30
0.0
 10
336.1376356422
 20
30.2598289348
 30
0.0
 10
337.7468636468
 20
30.2598289348
 30
0.0
 10
337.7468636468
 20
30.2598289348
 30
0.0
 10
337.7468636468
 20
30.2598289348
 30
0.0
 10
335.8738363531
 20
32.5769707062
 30
0.0
 10
335.8738363531
 20
32.5769707062
 30
0.0
 10
335.8738363531
 20
32.5769707062
 30
0.0
 10
337.1501747786
 20
34.0744504008
 30
0.0
 10
337.1501747786
 20
34.0744504008
 30
0.0
 10
337.1501747786
 20
34.0744504008
 30
0.0
 10
336.3179508309
 20
34.9354619693
 30
0.0
 10
336.3179508309
 20
34.9354619693
 30
0.0
 10
336.3179508309
 20
34.9354619693
 30
0.0
 10
335.0973557076
 20
33.5201578469
 30
0.0
 10
335.0973557076
 20
33.5201578469
 30
0.0
 10
335.0973557076
 20
33.5201578469
 30
0.0
 10
332.9194413388
 20
36.1555336813
 30
0.0
 10
332.9194413388
 20
36.1555336813
 30
0.0
 10
333.7930147782
 20
36.7935720412
 30
0.0
 10
334.8196860194
 20
37.58457735
 30
0.0
 10
334.8196860194
 20
38.7634304231
 30
0.0
 10
334.8196860194
 20
40.1371233482
 30
0.0
 10
333.6817898795
 20
40.9416064976
 30
0.0
 10
332.4064982766
 20
40.9416064976
 30
0.0
 10
331.0330670573
 20
40.9416064976
 30
0.0
 10
329.9921328585
 20
40.0953812979
 30
0.0
 10
329.9921328585
 20
38.6527289358
 30
0.0
 10
329.9921328585
 20
37.7651542444
 30
0.0
 10
330.547472235
 20
36.9882810403
 30
0.0
 10
331.1436376918
 20
36.3638513739
 30
0.0
 10
331.1436376918
 20
36.3638513739
 30
0.0
 10
330.4917289328
 20
35.8922578035
 30
0.0
 10
330.4917289328
 20
35.8922578035
 30
0.0
 10
329.4931910484
 20
35.1709970488
 30
0.0
 10
328.6603128365
 20
34.4497362942
 30
0.0
 10
328.6603128365
 20
33.1181779778
 30
0.0
 10
328.6603128365
 20
31.3145026798
 30
0.0
 10
330.1173590091
 20
30.0379025487
 30
0.0
 10
331.8648984465
 20
30.0379025487
 30
0.0
 10
333.0997565274
 20
30.0379025487
 30
0.0
 10
334.2091267521
 20
30.7460780212
 30
0.0
 10
335.000001208
 20
31.6746096459
 30
0.0
 10
335.000001208
 20
31.6746096459
 30
0.0
 10
336.1376356422
 20
30.2598289348
 30
0.0
 10
336.1376356422
 20
30.2598289348
 30
0.0
  0
LINE
  5
265
330
228
100
AcDbEntity
  8
0
  6
Continuous
 62
     7
100
AcDbLine
 10
321.9404970172
 20
28.2337038394
 30
0.0
 11
344.3544077449
 21
28.2337038394
 31
0.0
  0
LINE
  5
266
330
228
100
AcDbEntity
  8
0
  6
Continuous
 62
     7
100
AcDbLine
 10
344.3544077449
 20
28.2337038394
 30
0.0
 11
344.3544077449
 21
50.6476145671
 31
0.0
  0
LINE
  5
267
330
228
100
AcDbEntity
  8
0
  6
Continuous
 62
     7
100
AcDbLine
 10
344.3544077449
 20
50.6476145671
 30
0.0
 11
321.9404970172
 21
50.6476145671
 31
0.0
  0
LINE
  5
268
330
228
100
AcDbEntity
  8
0
  6
Continuous
 62
     7
100
AcDbLine
 10
321.9404970172
 20
50.6476145671
 30
0.0
 11
321.9404970172
 21
28.2337038394
 31
0.0
  0
ENDBLK
  5
269
330
228
100
AcDbEntity
  8
0
  6
ByBlock
 62
     0
100
AcDbBlockEnd
  0
BLOCK
  5
290
330
229
100
AcDbEntity
  8
0
100
AcDbBlockBegin
  2
*T6
 70
     1
 10
0.0
 20
0.0
 30
0.0
  3
*T6
  1

  0
LINE
  5
291
330
229
100
AcDbEntity
  8
0
  6
Continuous
 62
     2
100
AcDbLine
 10
0.0
 20
0.0
 30
0.0
 11
90.0
 21
0.0
 31
0.0
  0
LINE
  5
292
330
229
100
AcDbEntity
  8
0
  6
Continuous
 62
     2
100
AcDbLine
 10
0.0
 20
0.0
 30
0.0
 11
0.0
 21
-40.0
 31
0.0
  0
LINE
  5
293
330
229
100
AcDbEntity
  8
0
  6
Continuous
 62
     2
100
AcDbLine
 10
30.0
 20
-6.0
 30
0.0
 11
90.0
 21
-6.0
 31
0.0
  0
LINE
  5
294
330
229
100
AcDbEntity
  8
0
  6
Continuous
 62
     2
100
AcDbLine
 10
30.0
 20
-12.0
 30
0.0
 11
90.0
 21
-12.0
 31
0.0
  0
LINE
  5
295
330
229
100
AcDbEntity
  8
0
  6
Continuous
 62
     2
100
AcDbLine
 10
30.0
 20
-22.0
 30
0.0
 11
90.0
 21
-22.0
 31
0.0
  0
LINE
  5
296
330
229
100
AcDbEntity
  8
0
  6
Continuous
 62
     2
100
AcDbLine
 10
0.0
 20
-27.0
 30
0.0
 11
90.0
 21
-27.0
 31
0.0
  0
LINE
  5
297
330
229
100
AcDbEntity
  8
0
  6
Continuous
 62
     2
100
AcDbLine
 10
0.0
 20
-40.0
 30
0.0
 11
90.0
 21
-40.0
 31
0.0
  0
LINE
  5
298
330
229
100
AcDbEntity
  8
0
  6
Continuous
 62
     2
100
AcDbLine
 10
30.0
 20
0.0
 30
0.0
 11
30.0
 21
-27.0
 31
0.0
  0
LINE
  5
299
330
229
100
AcDbEntity
  8
0
  6
Continuous
 62
     2
100
AcDbLine
 10
70.0
 20
0.0
 30
0.0
 11
70.0
 21
-12.0
 31
0.0
  0
LINE
  5
29A
330
229
100
AcDbEntity
  8
0
  6
Continuous
 62
     2
100
AcDbLine
 10
90.0
 20
0.0
 30
0.0
 11
90.0
 21
-40.0
 31
0.0
  0
ENDBLK
  5
29B
330
229
100
AcDbEntity
  8
0
100
AcDbBlockEnd
  0
ENDSEC
  0
SECTION
  2
ENTITIES
  0
INSERT
  5
2A0
330
221
100
AcDbEntity
  8
0
  6
Continuous
 62
     2
100
AcDbBlockReference
  2
LOGO2_BL0
 10
333.1473869546
 20
37.5239270671
 30
0.0
  0
LWPOLYLINE
  5
2A1
330
221
100
AcDbEntity
  8
0
  6
Continuous
 62
     2
100
AcDbPolyline
 90
        6
 70
     0
 43
0.0
 10
350.8088452148
 20
46.5239282227
 10
351.8802758789
 20
46.5239282227
 10
352.0945568848
 20
46.7382156372
 10
352.0945568848
 20
47.8096398926
 10
351.665994873
 20
48.2382147217
 10
351.2374072266
 20
48.2382147217
  0
LWPOLYLINE
  5
2A2
330
221
100
AcDbEntity
  8
0
  6
Continuous
 62
     2
100
AcDbPolyline
 90
        5
 70
     0
 43
0.0
 10
351.665994873
 20
48.2382147217
 10
352.0231384277
 20
48.4524957275
 10
352.0231384277
 20
49.0953579712
 10
351.665994873
 20
49.5239263916
 10
350.8088452148
 20
49.5239263916
  0
LINE
  5
2A3
330
221
100
AcDbEntity
  8
0
  6
Continuous
 62
     2
100
AcDbLine
 10
352.951706543
 20
46.5239282227
 30
0.0
 11
352.951706543
 21
49.5239263916
 31
0.0
  0
LINE
  5
2A4
330
221
100
AcDbEntity
  8
0
  6
Continuous
 62
     2
100
AcDbLine
 10
354.4516992187
 20
49.5239263916
 30
0.0
 11
354.4516992187
 21
46.5239282227
 31
0.0
  0
LINE
  5
2A5
330
221
100
AcDbEntity
  8
0
  6
Continuous
 62
     2
100
AcDbLine
 10
352.951706543
 20
48.2382147217
 30
0.0
 11
354.4516992187
 21
48.2382147217
 31
0.0
  0
LWPOLYLINE
  5
2A6
330
221
100
AcDbEntity
  8
0
  6
Continuous
 62
     2
100
AcDbPolyline
 90
       10
 70
     0
 43
0.0
 10
356.380279541
 20
49.5239263916
 10
355.7374108887
 20
48.8810705566
 10
355.308848877
 20
48.0239273071
 10
355.308848877
 20
46.9524966431
 10
355.7374108887
 20
46.5239282227
 10
356.380279541
 20
46.5239282227
 10
356.8088415527
 20
46.9524966431
 10
356.8088415527
 20
47.8096398926
 10
356.380279541
 20
48.2382147217
 10
355.451685791
 20
48.2382147217
  0
LINE
  5
2A7
330
221
100
AcDbEntity
  8
0
  6
Continuous
 62
     2
100
AcDbLine
 10
357.6659912109
 20
46.5239282227
 30
0.0
 11
359.3802648926
 21
46.5239282227
 31
0.0
  0
LWPOLYLINE
  5
2A8
330
221
100
AcDbEntity
  8
0
  6
Continuous
 62
     2
100
AcDbPolyline
 90
        6
 70
     0
 43
0.0
 10
361.3088452148
 20
46.5239282227
 10
360.4516955566
 20
46.5239282227
 10
360.0231335449
 20
46.9524966431
 10
360.0231335449
 20
49.0953579712
 10
360.4516955566
 20
49.5239263916
 10
361.3088452148
 20
49.5239263916
  0
LINE
  5
2A9
330
221
100
AcDbEntity
  8
0
  6
Continuous
 62
     2
100
AcDbLine
 10
362.5231384277
 20
46.5239282227
 30
0.0
 11
364.2374121094
 21
46.5239282227
 31
0.0
  0
LWPOLYLINE
  5
2AA
330
221
100
AcDbEntity
  8
0
  6
Continuous
 62
     2
100
AcDbPolyline
 90
       13
 70
     0
 43
0.0
 10
364.8802807617
 20
47.3810714722
 10
364.8802807617
 20
48.6667831421
 10
365.0945617676
 20
49.0953579712
 10
365.5231237793
 20
49.5239263916
 10
365.7374047852
 20
49.5239263916
 10
366.1659924316
 20
49.0953579712
 10
366.3802734375
 20
48.6667831421
 10
366.3802734375
 20
47.3810714722
 10
366.1659924316
 20
46.9524966431
 10
365.7374047852
 20
46.5239282227
 10
365.5231237793
 20
46.5239282227
 10
365.0945617676
 20
46.9524966431
 10
364.8802807617
 20
47.3810714722
  0
LWPOLYLINE
  5
2AB
330
221
100
AcDbEntity
  8
0
  6
Continuous
 62
     2
100
AcDbPolyline
 90
        3
 70
     0
 43
0.0
 10
367.2374230957
 20
48.6667831421
 10
368.0945471191
 20
49.5239263916
 10
368.0945471191
 20
46.5239282227
  0
LWPOLYLINE
  5
2AC
330
221
100
AcDbEntity
  8
0
  6
Continuous
 62
     2
100
AcDbPolyline
 90
       13
 70
     0
 43
0.0
 10
368.9516967773
 20
47.3810714722
 10
368.9516967773
 20
48.6667831421
 10
369.1659777832
 20
49.0953579712
 10
369.5945654297
 20
49.5239263916
 10
369.8088464355
 20
49.5239263916
 10
370.2374084473
 20
49.0953579712
 10
370.4516894531
 20
48.6667831421
 10
370.4516894531
 20
47.3810714722
 10
370.2374084473
 20
46.9524966431
 10
369.8088464355
 20
46.5239282227
 10
369.5945654297
 20
46.5239282227
 10
369.1659777832
 20
46.9524966431
 10
368.9516967773
 20
47.3810714722
  0
LWPOLYLINE
  5
2AD
330
221
100
AcDbEntity
  8
0
  6
Continuous
 62
     2
100
AcDbPolyline
 90
        9
 70
     0
 43
0.0
 10
391.5525878906
 20
45.7739254761
 10
391.5525878906
 20
49.2739297485
 10
392.4822839355
 20
49.2739297485
 10
392.8541418457
 20
48.9822573853
 10
393.0400964355
 20
48.6905914307
 10
393.0400964355
 20
48.1072595215
 10
392.8541418457
 20
47.8155935669
 10
392.4822839355
 20
47.5239276123
 10
391.5525878906
 20
47.5239276123
  0
LINE
  5
2AE
330
221
100
AcDbEntity
  8
0
  6
Continuous
 62
     2
100
AcDbLine
 10
392.4822839355
 20
47.5239276123
 30
0.0
 11
393.0400964355
 21
45.7739254761
 31
0.0
  0
LWPOLYLINE
  5
2AF
330
221
100
AcDbEntity
  8
0
  6
Continuous
 62
     2
100
AcDbPolyline
 90
       11
 70
     0
 43
0.0
 10
395.8291589355
 20
46.3572573853
 10
395.6432043457
 20
46.0655914307
 10
395.2713464355
 20
45.7739254761
 10
394.8994628906
 20
46.0655914307
 10
394.5275793457
 20
46.6489297485
 10
394.5275793457
 20
47.2322616577
 10
394.8994628906
 20
47.8155935669
 10
395.2713464355
 20
48.1072595215
 10
395.6432043457
 20
47.8155935669
 10
395.8291589355
 20
47.2322616577
 10
394.5275793457
 20
47.2322616577
  0
LWPOLYLINE
  5
2B0
330
221
100
AcDbEntity
  8
0
  6
Continuous
 62
     2
100
AcDbPolyline
 90
        3
 70
     0
 43
0.0
 10
397.6885253906
 20
48.1072595215
 10
398.2463378906
 20
45.7739254761
 10
398.8041503906
 20
48.1072595215
  0
LWPOLYLINE
  5
2B1
330
221
100
AcDbEntity
  8
0
  6
Continuous
 62
     2
100
AcDbPolyline
 90
        4
 70
     0
 43
0.0
 10
401.2213293457
 20
45.7739254761
 10
401.0354003906
 20
45.7739254761
 10
401.0354003906
 20
46.0655914307
 10
401.2213293457
 20
45.7739254761
  0
LWPOLYLINE
  5
2B2
330
221
100
AcDbEntity
  8
0
  6
Continuous
 62
     2
100
AcDbPolyline
 90
        4
 70
     0
 43
0.0
 10
401.2213293457
 20
48.1072595215
 10
401.2213293457
 20
47.8155935669
 10
401.0354003906
 20
48.1072595215
 10
401.2213293457
 20
48.1072595215
  0
LWPOLYLINE
  5
2B3
330
221
100
AcDbEntity
  8
0
  6
Continuous
 62
     2
100
AcDbPolyline
 90
       15
 70
     0
 43
0.0
 10
404.1963464355
 20
45.7739254761
 10
403.8244628906
 20
46.0655914307
 10
403.6385339355
 20
46.3572573853
 10
403.4525793457
 20
46.9405957031
 10
403.4525793457
 20
48.1072595215
 10
403.6385339355
 20
48.6905914307
 10
403.8244628906
 20
48.9822573853
 10
404.1963464355
 20
49.2739297485
 10
404.5682043457
 20
48.9822573853
 10
404.7541589355
 20
48.6905914307
 10
404.9400878906
 20
48.1072595215
 10
404.9400878906
 20
46.9405957031
 10
404.7541589355
 20
46.3572573853
 10
404.5682043457
 20
46.0655914307
 10
404.1963464355
 20
45.7739254761
  0
LWPOLYLINE
  5
2B4
330
221
100
AcDbEntity
  8
0
  6
Continuous
 62
     2
100
AcDbPolyline
 90
       15
 70
     0
 43
0.0
 10
407.1713378906
 20
45.7739254761
 10
406.7994543457
 20
46.0655914307
 10
406.6135253906
 20
46.3572573853
 10
406.4275964355
 20
46.9405957031
 10
406.4275964355
 20
48.1072595215
 10
406.6135253906
 20
48.6905914307
 10
406.7994543457
 20
48.9822573853
 10
407.1713378906
 20
49.2739297485
 10
407.5432214355
 20
48.9822573853
 10
407.7291503906
 20
48.6905914307
 10
407.9150793457
 20
48.1072595215
 10
407.9150793457
 20
46.9405957031
 10
407.7291503906
 20
46.3572573853
 10
407.5432214355
 20
46.0655914307
 10
407.1713378906
 20
45.7739254761
  0
LWPOLYLINE
  5
2B5
330
221
100
AcDbEntity
  8
0
  6
Continuous
 62
     2
100
AcDbPolyline
 90
       10
 70
     0
 43
0.0
 10
350.8088452148
 20
40.0239257812
 10
351.0588354492
 20
39.7739291382
 10
352.0588476563
 20
39.7739291382
 10
352.558828125
 20
40.273928833
 10
352.558828125
 20
40.7739285278
 10
350.8088452148
 20
42.2739276123
 10
350.8088452148
 20
42.7739273071
 10
351.3088513184
 20
43.273927002
 10
352.3088378906
 20
43.273927002
 10
352.558828125
 20
43.0239239502
  0
LWPOLYLINE
  5
2B6
330
221
100
AcDbEntity
  8
0
  6
Continuous
 62
     2
100
AcDbPolyline
 90
        6
 70
     0
 43
0.0
 10
354.8088427734
 20
39.7739291382
 10
353.8088305664
 20
39.7739291382
 10
353.558840332
 20
40.0239257812
 10
353.558840332
 20
42.0239245605
 10
353.8088305664
 20
42.2739276123
 10
354.8088427734
 20
42.2739276123
  0
LWPOLYLINE
  5
2B7
330
221
100
AcDbEntity
  8
0
  6
Continuous
 62
     2
100
AcDbPolyline
 90
        4
 70
     0
 43
0.0
 10
357.3088476563
 20
39.7739291382
 10
357.3088476563
 20
41.7739279175
 10
357.0588317871
 20
42.2739276123
 10
355.8088293457
 20
42.2739276123
  0
LWPOLYLINE
  5
2B8
330
221
100
AcDbEntity
  8
0
  6
Continuous
 62
     2
100
AcDbPolyline
 90
        6
 70
     0
 43
0.0
 10
357.3088476563
 20
39.7739291382
 10
356.3088354492
 20
39.7739291382
 10
355.8088293457
 20
40.0239257812
 10
355.8088293457
 20
40.7739285278
 10
356.3088354492
 20
41.0239251709
 10
357.3088476563
 20
41.0239251709
  0
LWPOLYLINE
  5
2B9
330
221
100
AcDbEntity
  8
0
  6
Continuous
 62
     2
100
AcDbPolyline
 90
        4
 70
     0
 43
0.0
 10
359.0588305664
 20
39.7739291382
 10
358.5588500977
 20
39.7739291382
 10
358.3088342285
 20
40.0239257812
 10
358.3088342285
 20
43.273927002
  0
LWPOLYLINE
  5
2BA
330
221
100
AcDbEntity
  8
0
  6
Continuous
 62
     2
100
AcDbPolyline
 90
        9
 70
     0
 43
0.0
 10
361.5588354492
 20
39.7739291382
 10
360.558848877
 20
39.7739291382
 10
360.0588427734
 20
40.273928833
 10
360.0588427734
 20
41.7739279175
 10
360.558848877
 20
42.2739276123
 10
361.0588293457
 20
42.2739276123
 10
361.5588354492
 20
41.7739279175
 10
361.5588354492
 20
41.0239251709
 10
360.0588427734
 20
41.0239251709
  0
LWPOLYLINE
  5
2BB
330
221
100
AcDbEntity
  8
0
  6
Continuous
 62
     2
100
AcDbPolyline
 90
        4
 70
     0
 43
0.0
 10
362.5588476563
 20
39.7739291382
 10
362.5588476563
 20
40.0239257812
 10
362.7254992676
 20
40.0239257812
 10
362.5588476563
 20
39.7739291382
  0
LWPOLYLINE
  5
2BC
330
221
100
AcDbEntity
  8
0
  6
Continuous
 62
     2
100
AcDbPolyline
 90
        4
 70
     0
 43
0.0
 10
362.5588476563
 20
41.2739282227
 10
362.5588476563
 20
41.5239248657
 10
362.7254992676
 20
41.5239248657
 10
362.5588476563
 20
41.2739282227
  0
LWPOLYLINE
  5
2BD
330
221
100
AcDbEntity
  8
0
  6
Continuous
 62
     2
100
AcDbPolyline
 90
        4
 70
     0
 43
0.0
 10
363.8088500977
 20
42.5239242554
 10
363.8088500977
 20
43.273927002
 10
365.5588330078
 20
43.273927002
 10
364.5588464355
 20
39.7739291382
  0
LWPOLYLINE
  5
2BE
330
221
100
AcDbEntity
  8
0
  6
Continuous
 62
     2
100
AcDbPolyline
 90
        4
 70
     0
 43
0.0
 10
366.5588452148
 20
39.7739291382
 10
366.5588452148
 20
40.0239257812
 10
366.7254968262
 20
40.0239257812
 10
366.5588452148
 20
39.7739291382
  0
LWPOLYLINE
  5
2BF
330
221
100
AcDbEntity
  8
0
  6
Continuous
 62
     2
100
AcDbPolyline
 90
        4
 70
     0
 43
0.0
 10
366.5588452148
 20
41.2739282227
 10
366.5588452148
 20
41.5239248657
 10
366.7254968262
 20
41.5239248657
 10
366.5588452148
 20
41.2739282227
  0
LWPOLYLINE
  5
2C0
330
221
100
AcDbEntity
  8
0
  6
Continuous
 62
     2
100
AcDbPolyline
 90
        7
 70
     0
 43
0.0
 10
369.5588305664
 20
39.7739291382
 10
367.8088476563
 20
39.7739291382
 10
369.5588305664
 20
42.2739276123
 10
369.5588305664
 20
42.7739273071
 10
369.0588500977
 20
43.273927002
 10
368.308828125
 20
43.273927002
 10
367.8088476563
 20
42.5239242554
  0
LWPOLYLINE
  5
2C1
330
221
100
AcDbEntity
  8
0
  6
Continuous
 62
     2
100
AcDbPolyline
 90
       13
 70
     0
 43
0.0
 10
370.5588427734
 20
40.7739285278
 10
370.5588427734
 20
42.2739276123
 10
370.8088330078
 20
42.7739273071
 10
371.3088391113
 20
43.273927002
 10
371.5588293457
 20
43.273927002
 10
372.0588354492
 20
42.7739273071
 10
372.3088513184
 20
42.2739276123
 10
372.3088513184
 20
40.7739285278
 10
372.0588354492
 20
40.273928833
 10
371.5588293457
 20
39.7739291382
 10
371.3088391113
 20
39.7739291382
 10
370.8088330078
 20
40.273928833
 10
370.5588427734
 20
40.7739285278
  0
LWPOLYLINE
  5
2C2
330
221
100
AcDbEntity
  8
0
  6
Continuous
 62
     2
100
AcDbPolyline
 90
        3
 70
     0
 43
0.0
 10
390.8088464355
 20
40.273928833
 10
391.8088330078
 20
43.7739266968
 10
392.8088452148
 20
40.273928833
  0
LINE
  5
2C3
330
221
100
AcDbEntity
  8
0
  6
Continuous
 62
     2
100
AcDbLine
 10
391.142175293
 20
41.2739282227
 30
0.0
 11
392.4755163574
 21
41.2739282227
 31
0.0
  0
LWPOLYLINE
  5
2C4
330
221
100
AcDbEntity
  8
0
  6
Continuous
 62
     2
100
AcDbPolyline
 90
        6
 70
     0
 43
0.0
 10
393.8088317871
 20
40.273928833
 10
395.0588342285
 20
40.273928833
 10
395.3088500977
 20
40.5239254761
 10
395.3088500977
 20
41.7739279175
 10
394.8088439941
 20
42.2739276123
 10
394.3088378906
 20
42.2739276123
  0
LWPOLYLINE
  5
2C5
330
221
100
AcDbEntity
  8
0
  6
Continuous
 62
     2
100
AcDbPolyline
 90
        5
 70
     0
 43
0.0
 10
394.8088439941
 20
42.2739276123
 10
395.2255114746
 20
42.5239242554
 10
395.2255114746
 20
43.273927002
 10
394.8088439941
 20
43.7739266968
 10
393.8088317871
 20
43.7739266968
  0
LWPOLYLINE
  5
2C6
330
221
100
AcDbEntity
  8
0
  6
Continuous
 62
     2
100
AcDbPolyline
 90
        3
 70
     0
 43
0.0
 10
350.8088452148
 20
32.2739273071
 10
350.8088452148
 20
35.7739251709
 10
352.3088378906
 20
35.7739251709
  0
LINE
  5
2C7
330
221
100
AcDbEntity
  8
0
  6
Continuous
 62
     2
100
AcDbLine
 10
351.8088317871
 20
34.2739260864
 30
0.0
 11
350.8088452148
 21
34.2739260864
 31
0.0
  0
LINE
  5
2C8
330
221
100
AcDbEntity
  8
0
  6
Continuous
 62
     2
100
AcDbLine
 10
350.8088452148
 20
32.2739273071
 30
0.0
 11
352.3088378906
 21
32.2739273071
 31
0.0
  0
LWPOLYLINE
  5
2C9
330
221
100
AcDbEntity
  8
0
  6
Continuous
 62
     2
100
AcDbPolyline
 90
        3
 70
     0
 43
0.0
 10
353.3088500977
 20
35.7739251709
 10
353.3088500977
 20
32.2739273071
 10
354.5588525391
 20
32.2739273071
  0
LWPOLYLINE
  5
2CA
330
221
100
AcDbEntity
  8
0
  6
Continuous
 62
     2
100
AcDbPolyline
 90
        3
 70
     0
 43
0.0
 10
355.5588391113
 20
35.7739251709
 10
355.5588391113
 20
32.2739273071
 10
356.8088415527
 20
32.2739273071
  0
LWPOLYLINE
  5
2CB
330
221
100
AcDbEntity
  8
0
  6
Continuous
 62
     2
100
AcDbPolyline
 90
        9
 70
     0
 43
0.0
 10
357.808828125
 20
32.773927002
 10
357.808828125
 20
35.2739254761
 10
358.3088342285
 20
35.7739251709
 10
359.0588305664
 20
35.7739251709
 10
359.5588366699
 20
35.2739254761
 10
359.5588366699
 20
32.773927002
 10
359.0588305664
 20
32.2739273071
 10
358.3088342285
 20
32.2739273071
 10
357.808828125
 20
32.773927002
  0
LWPOLYLINE
  5
2CC
330
221
100
AcDbEntity
  8
0
  6
Continuous
 62
     2
100
AcDbPolyline
 90
        9
 70
     0
 43
0.0
 10
363.3088439941
 20
32.773927002
 10
363.3088439941
 20
35.2739254761
 10
363.8088500977
 20
35.7739251709
 10
364.5588464355
 20
35.7739251709
 10
365.0588525391
 20
35.2739254761
 10
365.0588525391
 20
32.773927002
 10
364.5588464355
 20
32.2739273071
 10
363.8088500977
 20
32.2739273071
 10
363.3088439941
 20
32.773927002
  0
LWPOLYLINE
  5
2CD
330
221
100
AcDbEntity
  8
0
  6
Continuous
 62
     2
100
AcDbPolyline
 90
        6
 70
     0
 43
0.0
 10
366.0588391113
 20
35.7739251709
 10
366.0588391113
 20
32.773927002
 10
366.5588452148
 20
32.2739273071
 10
367.3088415527
 20
32.2739273071
 10
367.8088476563
 20
32.773927002
 10
367.8088476563
 20
35.7739251709
  0
LINE
  5
2CE
330
221
100
AcDbEntity
  8
0
  6
Continuous
 62
     2
100
AcDbLine
 10
369.8088464355
 20
32.2739273071
 30
0.0
 11
369.8088464355
 21
35.7739251709
 31
0.0
  0
LINE
  5
2CF
330
221
100
AcDbEntity
  8
0
  6
Continuous
 62
     2
100
AcDbLine
 10
368.8088342285
 20
35.7739251709
 30
0.0
 11
370.8088330078
 21
35.7739251709
 31
0.0
  0
LWPOLYLINE
  5
2D0
330
221
100
AcDbEntity
  8
0
  6
Continuous
 62
     2
100
AcDbPolyline
 90
        7
 70
     0
 43
0.0
 10
376.308848877
 20
32.2739273071
 10
374.558840332
 20
32.2739273071
 10
376.308848877
 20
34.7739257812
 10
376.308848877
 20
35.2739254761
 10
375.8088427734
 20
35.7739251709
 10
375.0588464355
 20
35.7739251709
 10
374.558840332
 20
35.023928833
  0
LWPOLYLINE
  5
2D1
330
221
100
AcDbEntity
  8
0
  6
Continuous
 62
     2
100
AcDbPolyline
 90
        9
 70
     0
 43
0.0
 10
378.0588317871
 20
32.8572592163
 10
378.1421704102
 20
32.6905947876
 10
378.1421704102
 20
32.6072625732
 10
378.0588317871
 20
32.4405917358
 10
377.8921801758
 20
32.4405917358
 10
377.8088415527
 20
32.6072625732
 10
377.8088415527
 20
32.6905947876
 10
377.8921801758
 20
32.8572592163
 10
378.0588317871
 20
32.8572592163
  0
LWPOLYLINE
  5
2D2
330
221
100
AcDbEntity
  8
0
  6
Continuous
 62
     2
100
AcDbPolyline
 90
       13
 70
     0
 43
0.0
 10
379.3088342285
 20
33.2739266968
 10
379.3088342285
 20
34.7739257812
 10
379.5588500977
 20
35.2739254761
 10
380.0588305664
 20
35.7739251709
 10
380.3088464355
 20
35.7739251709
 10
380.8088525391
 20
35.2739254761
 10
381.0588427734
 20
34.7739257812
 10
381.0588427734
 20
33.2739266968
 10
380.8088525391
 20
32.773927002
 10
380.3088464355
 20
32.2739273071
 10
380.0588305664
 20
32.2739273071
 10
379.5588500977
 20
32.773927002
 10
379.3088342285
 20
33.2739266968
  0
LWPOLYLINE
  5
2D3
330
221
100
AcDbEntity
  8
0
  6
Continuous
 62
     2
100
AcDbPolyline
 90
        7
 70
     0
 43
0.0
 10
351.2850366211
 20
25.2739251709
 10
351.2850366211
 20
27.7739300537
 10
352.1778955078
 20
27.7739300537
 10
352.5350390625
 20
27.416786499
 10
352.5350390625
 20
25.6310687256
 10
352.1778955078
 20
25.2739251709
 10
351.2850366211
 20
25.2739251709
  0
LWPOLYLINE
  5
2D4
330
221
100
AcDbEntity
  8
0
  6
Continuous
 62
     2
100
AcDbPolyline
 90
        3
 70
     0
 43
0.0
 10
353.5469458008
 20
25.2739251709
 10
354.2612329102
 20
27.7739300537
 10
354.9754943848
 20
25.2739251709
  0
LINE
  5
2D5
330
221
100
AcDbEntity
  8
0
  6
Continuous
 62
     2
100
AcDbLine
 10
353.7850415039
 20
25.9882122803
 30
0.0
 11
354.7373986816
 21
25.9882122803
 31
0.0
  0
LINE
  5
2D6
330
221
100
AcDbEntity
  8
0
  6
Continuous
 62
     2
100
AcDbLine
 10
356.4040686035
 20
25.2739251709
 30
0.0
 11
356.4040686035
 21
27.7739300537
 31
0.0
  0
LINE
  5
2D7
330
221
100
AcDbEntity
  8
0
  6
Continuous
 62
     2
100
AcDbLine
 10
355.6897814941
 20
27.7739300537
 30
0.0
 11
357.1183557129
 21
27.7739300537
 31
0.0
  0
LWPOLYLINE
  5
2D8
330
221
100
AcDbEntity
  8
0
  6
Continuous
 62
     2
100
AcDbPolyline
 90
        3
 70
     0
 43
0.0
 10
357.8326428223
 20
25.2739251709
 10
357.8326428223
 20
27.7739300537
 10
358.9040734863
 20
27.7739300537
  0
LINE
  5
2D9
330
221
100
AcDbEntity
  8
0
  6
Continuous
 62
     2
100
AcDbLine
 10
358.5469299316
 20
26.7024993896
 30
0.0
 11
357.8326428223
 21
26.7024993896
 31
0.0
  0
LINE
  5
2DA
330
221
100
AcDbEntity
  8
0
  6
Continuous
 62
     2
100
AcDbLine
 10
357.8326428223
 20
25.2739251709
 30
0.0
 11
358.9040734863
 21
25.2739251709
 31
0.0
  0
LWPOLYLINE
  5
2DB
330
221
100
AcDbEntity
  8
0
  6
Continuous
 62
     2
100
AcDbPolyline
 90
        4
 70
     0
 43
0.0
 10
359.6183605957
 20
25.2739251709
 10
359.6183605957
 20
25.4524969482
 10
359.7374084473
 20
25.4524969482
 10
359.6183605957
 20
25.2739251709
  0
LWPOLYLINE
  5
2DC
330
221
100
AcDbEntity
  8
0
  6
Continuous
 62
     2
100
AcDbPolyline
 90
        4
 70
     0
 43
0.0
 10
359.6183605957
 20
26.345355835
 10
359.6183605957
 20
26.5239276123
 10
359.7374084473
 20
26.5239276123
 10
359.6183605957
 20
26.345355835
  0
LWPOLYLINE
  5
2DD
330
221
100
AcDbEntity
  8
0
  6
Continuous
 62
     2
100
AcDbPolyline
 90
       13
 70
     0
 43
0.0
 10
360.5112194824
 20
25.9882122803
 10
360.5112194824
 20
27.0596429443
 10
360.6897912598
 20
27.416786499
 10
361.0469348145
 20
27.7739300537
 10
361.2255065918
 20
27.7739300537
 10
361.5826501465
 20
27.416786499
 10
361.7612219238
 20
27.0596429443
 10
361.7612219238
 20
25.9882122803
 10
361.5826501465
 20
25.6310687256
 10
361.2255065918
 20
25.2739251709
 10
361.0469348145
 20
25.2739251709
 10
360.6897912598
 20
25.6310687256
 10
360.5112194824
 20
25.9882122803
  0
LWPOLYLINE
  5
2DE
330
221
100
AcDbEntity
  8
0
  6
Continuous
 62
     2
100
AcDbPolyline
 90
        6
 70
     0
 43
0.0
 10
362.4755090332
 20
25.2739251709
 10
363.3683679199
 20
25.2739251709
 10
363.5469396973
 20
25.4524969482
 10
363.5469396973
 20
26.345355835
 10
363.1897961426
 20
26.7024993896
 10
362.8326525879
 20
26.7024993896
  0
LWPOLYLINE
  5
2DF
330
221
100
AcDbEntity
  8
0
  6
Continuous
 62
     2
100
AcDbPolyline
 90
        5
 70
     0
 43
0.0
 10
363.1897961426
 20
26.7024993896
 10
363.4874157715
 20
26.881071167
 10
363.4874157715
 20
27.416786499
 10
363.1897961426
 20
27.7739300537
 10
362.4755090332
 20
27.7739300537
  0
LINE
  5
2E0
330
221
100
AcDbEntity
  8
0
  6
Continuous
 62
     2
100
AcDbLine
 10
365.6898010254
 20
27.5358343506
 30
0.0
 11
364.2612268066
 21
25.3334490967
 31
0.0
  0
LWPOLYLINE
  5
2E1
330
221
100
AcDbEntity
  8
0
  6
Continuous
 62
     2
100
AcDbPolyline
 90
       13
 70
     0
 43
0.0
 10
366.1659924316
 20
25.9882122803
 10
366.1659924316
 20
27.0596429443
 10
366.344564209
 20
27.416786499
 10
366.7017077637
 20
27.7739300537
 10
366.880279541
 20
27.7739300537
 10
367.2374230957
 20
27.416786499
 10
367.415994873
 20
27.0596429443
 10
367.415994873
 20
25.9882122803
 10
367.2374230957
 20
25.6310687256
 10
366.880279541
 20
25.2739251709
 10
366.7017077637
 20
25.2739251709
 10
366.344564209
 20
25.6310687256
 10
366.1659924316
 20
25.9882122803
  0
LWPOLYLINE
  5
2E2
330
221
100
AcDbEntity
  8
0
  6
Continuous
 62
     2
100
AcDbPolyline
 90
        6
 70
     0
 43
0.0
 10
368.1302563477
 20
25.2739251709
 10
369.0231152344
 20
25.2739251709
 10
369.2016870117
 20
25.4524969482
 10
369.2016870117
 20
26.345355835
 10
368.844543457
 20
26.7024993896
 10
368.4873999023
 20
26.7024993896
  0
LWPOLYLINE
  5
2E3
330
221
100
AcDbEntity
  8
0
  6
Continuous
 62
     2
100
AcDbPolyline
 90
        5
 70
     0
 43
0.0
 10
368.844543457
 20
26.7024993896
 10
369.1421630859
 20
26.881071167
 10
369.1421630859
 20
27.416786499
 10
368.844543457
 20
27.7739300537
 10
368.1302563477
 20
27.7739300537
  0
LINE
  5
2E4
330
221
100
AcDbEntity
  8
0
  6
Continuous
 62
     2
100
AcDbLine
 10
371.3445483398
 20
27.5358343506
 30
0.0
 11
369.9159741211
 21
25.3334490967
 31
0.0
  0
LWPOLYLINE
  5
2E5
330
221
100
AcDbEntity
  8
0
  6
Continuous
 62
     2
100
AcDbPolyline
 90
        7
 70
     0
 43
0.0
 10
373.0707421875
 20
25.2739251709
 10
371.8207397461
 20
25.2739251709
 10
373.0707421875
 20
27.0596429443
 10
373.0707421875
 20
27.416786499
 10
372.7135986328
 20
27.7739300537
 10
372.1778833008
 20
27.7739300537
 10
371.8207397461
 20
27.2382147217
  0
LWPOLYLINE
  5
2E6
330
221
100
AcDbEntity
  8
0
  6
Continuous
 62
     2
100
AcDbPolyline
 90
       13
 70
     0
 43
0.0
 10
373.7850292969
 20
25.9882122803
 10
373.7850292969
 20
27.0596429443
 10
373.9636010742
 20
27.416786499
 10
374.3207446289
 20
27.7739300537
 10
374.4993164062
 20
27.7739300537
 10
374.8564599609
 20
27.416786499
 10
375.0350317383
 20
27.0596429443
 10
375.0350317383
 20
25.9882122803
 10
374.8564599609
 20
25.6310687256
 10
374.4993164062
 20
25.2739251709
 10
374.3207446289
 20
25.2739251709
 10
373.9636010742
 20
25.6310687256
 10
373.7850292969
 20
25.9882122803
  0
LWPOLYLINE
  5
2E7
330
221
100
AcDbEntity
  8
0
  6
Continuous
 62
     2
100
AcDbPolyline
 90
        3
 70
     0
 43
0.0
 10
375.7493188477
 20
27.0596429443
 10
376.463605957
 20
27.7739300537
 10
376.463605957
 20
25.2739251709
  0
LWPOLYLINE
  5
2E8
330
221
100
AcDbEntity
  8
0
  6
Continuous
 62
     2
100
AcDbPolyline
 90
        8
 70
     0
 43
0.0
 10
377.1778930664
 20
25.2739251709
 10
377.8921801758
 20
25.2739251709
 10
378.2493237305
 20
25.6310687256
 10
378.2493237305
 20
26.345355835
 10
377.8921801758
 20
26.7024993896
 10
377.1778930664
 20
26.7024993896
 10
377.1778930664
 20
27.7739300537
 10
378.2493237305
 20
27.7739300537
  0
LWPOLYLINE
  5
2E9
330
221
100
AcDbEntity
  8
0
  6
Continuous
 62
     2
100
AcDbPolyline
 90
        3
 70
     0
 43
0.0
 10
321.1036889648
 20
20.4239268494
 10
321.5950817871
 20
22.273927002
 10
322.0865002441
 20
20.4239268494
  0
LINE
  5
2EA
330
221
100
AcDbEntity
  8
0
  6
Continuous
 62
     2
100
AcDbLine
 10
321.3002563477
 20
21.0405935669
 30
0.0
 11
321.8899328613
 21
21.0405935669
 31
0.0
  0
LINE
  5
2EB
330
221
100
AcDbEntity
  8
0
  6
Continuous
 62
     2
100
AcDbLine
 10
322.8727441406
 20
20.4239268494
 30
0.0
 11
322.8727441406
 21
21.6572602844
 31
0.0
  0
LWPOLYLINE
  5
2EC
330
221
100
AcDbEntity
  8
0
  6
Continuous
 62
     2
100
AcDbPolyline
 90
        5
 70
     0
 43
0.0
 10
322.8727441406
 20
21.3489285278
 10
323.0693115234
 20
21.6572602844
 10
323.2658789063
 20
21.6572602844
 10
323.4624462891
 20
21.3489285278
 10
323.4624462891
 20
20.4239268494
  0
LWPOLYLINE
  5
2ED
330
221
100
AcDbEntity
  8
0
  6
Continuous
 62
     2
100
AcDbPolyline
 90
        5
 70
     0
 43
0.0
 10
324.346973877
 20
21.6572602844
 10
324.7400830078
 20
20.5780943298
 10
324.6417993164
 20
20.1155950928
 10
324.4452575684
 20
19.8072601318
 10
324.2486901855
 20
19.8072601318
  0
LINE
  5
2EE
330
221
100
AcDbEntity
  8
0
  6
Continuous
 62
     2
100
AcDbLine
 10
324.7400830078
 20
20.5780943298
 30
0.0
 11
325.1332177734
 21
21.6572602844
 31
0.0
  0
LINE
  5
2EF
330
221
100
AcDbEntity
  8
0
  6
Continuous
 62
     2
100
AcDbLine
 10
327.8850842285
 20
22.273927002
 30
0.0
 11
327.8850842285
 21
22.1197595215
 31
0.0
  0
LINE
  5
2F0
330
221
100
AcDbEntity
  8
0
  6
Continuous
 62
     2
100
AcDbLine
 10
327.8850842285
 20
21.6572602844
 30
0.0
 11
327.8850842285
 21
20.4239268494
 31
0.0
  0
LINE
  5
2F1
330
221
100
AcDbEntity
  8
0
  6
Continuous
 62
     2
100
AcDbLine
 10
329.162746582
 20
20.4239268494
 30
0.0
 11
329.162746582
 21
21.6572602844
 31
0.0
  0
LWPOLYLINE
  5
2F2
330
221
100
AcDbEntity
  8
0
  6
Continuous
 62
     2
100
AcDbPolyline
 90
        5
 70
     0
 43
0.0
 10
329.162746582
 20
21.3489285278
 10
329.3593139648
 20
21.6572602844
 10
329.5558813477
 20
21.6572602844
 10
329.7524230957
 20
21.3489285278
 10
329.7524230957
 20
20.4239268494
  0
LINE
  5
2F3
330
221
100
AcDbEntity
  8
0
  6
Continuous
 62
     2
100
AcDbLine
 10
331.0300854492
 20
20.4239268494
 30
0.0
 11
331.0300854492
 21
22.273927002
 31
0.0
  0
LINE
  5
2F4
330
221
100
AcDbEntity
  8
0
  6
Continuous
 62
     2
100
AcDbLine
 10
330.735234375
 20
21.503092804
 30
0.0
 11
331.3249365234
 21
21.503092804
 31
0.0
  0
LWPOLYLINE
  5
2F5
330
221
100
AcDbEntity
  8
0
  6
Continuous
 62
     2
100
AcDbPolyline
 90
       11
 70
     0
 43
0.0
 10
332.8974243164
 20
20.7322618103
 10
332.799140625
 20
20.5780943298
 10
332.602598877
 20
20.4239268494
 10
332.4060314941
 20
20.5780943298
 10
332.2094641113
 20
20.8864260864
 10
332.2094641113
 20
21.1947610474
 10
332.4060314941
 20
21.503092804
 10
332.602598877
 20
21.6572602844
 10
332.799140625
 20
21.503092804
 10
332.8974243164
 20
21.1947610474
 10
332.2094641113
 20
21.1947610474
  0
LWPOLYLINE
  5
2F6
330
221
100
AcDbEntity
  8
0
  6
Continuous
 62
     2
100
AcDbPolyline
 90
       10
 70
     0
 43
0.0
 10
334.5682214355
 20
20.8864260864
 10
334.3716540527
 20
20.5780943298
 10
334.1750866699
 20
20.4239268494
 10
333.9785192871
 20
20.5780943298
 10
333.7819775391
 20
20.8864260864
 10
333.7819775391
 20
21.1947610474
 10
333.9785192871
 20
21.503092804
 10
334.1750866699
 20
21.6572602844
 10
334.3716540527
 20
21.503092804
 10
334.5682214355
 20
21.1947610474
  0
LWPOLYLINE
  5
2F7
330
221
100
AcDbEntity
  8
0
  6
Continuous
 62
     2
100
AcDbPolyline
 90
        6
 70
     0
 43
0.0
 10
334.5682214355
 20
21.6572602844
 10
334.5682214355
 20
20.2697593689
 10
334.4699377441
 20
19.9614276123
 10
334.3716540527
 20
19.8072601318
 10
333.9785192871
 20
19.8072601318
 10
333.8802355957
 20
19.9614276123
  0
LINE
  5
2F8
330
221
100
AcDbEntity
  8
0
  6
Continuous
 62
     2
100
AcDbLine
 10
335.4527490234
 20
20.4239268494
 30
0.0
 11
335.4527490234
 21
21.6572602844
 31
0.0
  0
LWPOLYLINE
  5
2F9
330
221
100
AcDbEntity
  8
0
  6
Continuous
 62
     2
100
AcDbPolyline
 90
        4
 70
     0
 43
0.0
 10
335.4527490234
 20
21.3489285278
 10
335.6493164062
 20
21.6572602844
 10
335.8458837891
 20
21.6572602844
 10
335.9441418457
 20
21.503092804
  0
LWPOLYLINE
  5
2FA
330
221
100
AcDbEntity
  8
0
  6
Continuous
 62
     2
100
AcDbPolyline
 90
       10
 70
     0
 43
0.0
 10
337.7132226562
 20
20.8864260864
 10
337.5166552734
 20
20.5780943298
 10
337.3200878906
 20
20.4239268494
 10
337.1235205078
 20
20.5780943298
 10
336.926953125
 20
20.8864260864
 10
336.926953125
 20
21.1947610474
 10
337.1235205078
 20
21.503092804
 10
337.3200878906
 20
21.6572602844
 10
337.5166552734
 20
21.503092804
 10
337.7132226562
 20
21.1947610474
  0
LINE
  5
2FB
330
221
100
AcDbEntity
  8
0
  6
Continuous
 62
     2
100
AcDbLine
 10
337.7132226562
 20
21.6572602844
 30
0.0
 11
337.7132226562
 21
20.4239268494
 31
0.0
  0
LINE
  5
2FC
330
221
100
AcDbEntity
  8
0
  6
Continuous
 62
     2
100
AcDbLine
 10
338.8926013184
 20
20.4239268494
 30
0.0
 11
338.8926013184
 21
22.273927002
 31
0.0
  0
LWPOLYLINE
  5
2FD
330
221
100
AcDbEntity
  8
0
  6
Continuous
 62
     2
100
AcDbPolyline
 90
       11
 70
     0
 43
0.0
 10
342.4307116699
 20
20.8864260864
 10
342.2341442871
 20
20.5780943298
 10
342.0376025391
 20
20.4239268494
 10
341.8410351562
 20
20.5780943298
 10
341.6444677734
 20
20.8864260864
 10
341.6444677734
 20
21.1947610474
 10
341.8410351562
 20
21.503092804
 10
342.0376025391
 20
21.6572602844
 10
342.2341442871
 20
21.503092804
 10
342.4307116699
 20
21.1947610474
 10
342.4307116699
 20
20.8864260864
  0
LINE
  5
2FE
330
221
100
AcDbEntity
  8
0
  6
Continuous
 62
     2
100
AcDbLine
 10
343.3152392578
 20
20.4239268494
 30
0.0
 11
343.3152392578
 21
21.6572602844
 31
0.0
  0
LWPOLYLINE
  5
2FF
330
221
100
AcDbEntity
  8
0
  6
Continuous
 62
     2
100
AcDbPolyline
 90
        4
 70
     0
 43
0.0
 10
343.3152392578
 20
21.3489285278
 10
343.5118066406
 20
21.6572602844
 10
343.7083740234
 20
21.6572602844
 10
343.8066577148
 20
21.503092804
  0
LWPOLYLINE
  5
300
330
221
100
AcDbEntity
  8
0
  6
Continuous
 62
     2
100
AcDbPolyline
 90
       10
 70
     0
 43
0.0
 10
346.3619567871
 20
21.1947610474
 10
346.5585241699
 20
21.503092804
 10
346.7550915527
 20
21.6572602844
 10
346.9516589355
 20
21.503092804
 10
347.1482263184
 20
21.1947610474
 10
347.1482263184
 20
20.8864260864
 10
346.9516589355
 20
20.5780943298
 10
346.7550915527
 20
20.4239268494
 10
346.5585241699
 20
20.4239268494
 10
346.3619567871
 20
20.8864260864
  0
LINE
  5
301
330
221
100
AcDbEntity
  8
0
  6
Continuous
 62
     2
100
AcDbLine
 10
346.3619567871
 20
21.6572602844
 30
0.0
 11
346.3619567871
 21
19.8072601318
 31
0.0
  0
LWPOLYLINE
  5
302
330
221
100
AcDbEntity
  8
0
  6
Continuous
 62
     2
100
AcDbPolyline
 90
       10
 70
     0
 43
0.0
 10
348.7207141113
 20
20.8864260864
 10
348.5241467285
 20
20.5780943298
 10
348.3275793457
 20
20.4239268494
 10
348.1310375977
 20
20.5780943298
 10
347.9344702148
 20
20.8864260864
 10
347.9344702148
 20
21.1947610474
 10
348.1310375977
 20
21.503092804
 10
348.3275793457
 20
21.6572602844
 10
348.5241467285
 20
21.503092804
 10
348.7207141113
 20
21.1947610474
  0
LINE
  5
303
330
221
100
AcDbEntity
  8
0
  6
Continuous
 62
     2
100
AcDbLine
 10
348.7207141113
 20
21.6572602844
 30
0.0
 11
348.7207141113
 21
20.4239268494
 31
0.0
  0
LINE
  5
304
330
221
100
AcDbEntity
  8
0
  6
Continuous
 62
     2
100
AcDbLine
 10
349.6052416992
 20
20.4239268494
 30
0.0
 11
349.6052416992
 21
21.6572602844
 31
0.0
  0
LWPOLYLINE
  5
305
330
221
100
AcDbEntity
  8
0
  6
Continuous
 62
     2
100
AcDbPolyline
 90
        4
 70
     0
 43
0.0
 10
349.6052416992
 20
21.3489285278
 10
349.801809082
 20
21.6572602844
 10
349.9983764648
 20
21.6572602844
 10
350.0966601562
 20
21.503092804
  0
LINE
  5
306
330
221
100
AcDbEntity
  8
0
  6
Continuous
 62
     2
100
AcDbLine
 10
351.4725805664
 20
20.4239268494
 30
0.0
 11
351.4725805664
 21
22.273927002
 31
0.0
  0
LINE
  5
307
330
221
100
AcDbEntity
  8
0
  6
Continuous
 62
     2
100
AcDbLine
 10
351.177755127
 20
21.503092804
 30
0.0
 11
351.7674316406
 21
21.503092804
 31
0.0
  0
LINE
  5
308
330
221
100
AcDbEntity
  8
0
  6
Continuous
 62
     2
100
AcDbLine
 10
353.0450939941
 20
22.273927002
 30
0.0
 11
353.0450939941
 21
22.1197595215
 31
0.0
  0
LINE
  5
309
330
221
100
AcDbEntity
  8
0
  6
Continuous
 62
     2
100
AcDbLine
 10
353.0450939941
 20
21.6572602844
 30
0.0
 11
353.0450939941
 21
20.4239268494
 31
0.0
  0
LWPOLYLINE
  5
30A
330
221
100
AcDbEntity
  8
0
  6
Continuous
 62
     2
100
AcDbPolyline
 90
       10
 70
     0
 43
0.0
 10
355.0107165527
 20
20.8864260864
 10
354.8141491699
 20
20.5780943298
 10
354.6175817871
 20
20.4239268494
 10
354.4210400391
 20
20.5780943298
 10
354.2244726562
 20
20.8864260864
 10
354.2244726562
 20
21.1947610474
 10
354.4210400391
 20
21.503092804
 10
354.6175817871
 20
21.6572602844
 10
354.8141491699
 20
21.503092804
 10
355.0107165527
 20
21.1947610474
  0
LINE
  5
30B
330
221
100
AcDbEntity
  8
0
  6
Continuous
 62
     2
100
AcDbLine
 10
355.0107165527
 20
21.6572602844
 30
0.0
 11
355.0107165527
 21
20.4239268494
 31
0.0
  0
LINE
  5
30C
330
221
100
AcDbEntity
  8
0
  6
Continuous
 62
     2
100
AcDbLine
 10
356.1900952148
 20
20.4239268494
 30
0.0
 11
356.1900952148
 21
22.273927002
 31
0.0
  0
LINE
  5
30D
330
221
100
AcDbEntity
  8
0
  6
Continuous
 62
     2
100
AcDbLine
 10
359.0402453613
 20
20.4239268494
 30
0.0
 11
359.0402453613
 21
21.6572602844
 31
0.0
  0
LWPOLYLINE
  5
30E
330
221
100
AcDbEntity
  8
0
  6
Continuous
 62
     2
100
AcDbPolyline
 90
        4
 70
     0
 43
0.0
 10
359.0402453613
 20
21.3489285278
 10
359.2368127441
 20
21.6572602844
 10
359.433380127
 20
21.6572602844
 10
359.5316638184
 20
21.503092804
  0
LWPOLYLINE
  5
30F
330
221
100
AcDbEntity
  8
0
  6
Continuous
 62
     2
100
AcDbPolyline
 90
       11
 70
     0
 43
0.0
 10
361.2024353027
 20
20.7322618103
 10
361.1041516113
 20
20.5780943298
 10
360.9075842285
 20
20.4239268494
 10
360.7110168457
 20
20.5780943298
 10
360.5144750977
 20
20.8864260864
 10
360.5144750977
 20
21.1947610474
 10
360.7110168457
 20
21.503092804
 10
360.9075842285
 20
21.6572602844
 10
361.1041516113
 20
21.503092804
 10
361.2024353027
 20
21.1947610474
 10
360.5144750977
 20
21.1947610474
  0
LWPOLYLINE
  5
310
330
221
100
AcDbEntity
  8
0
  6
Continuous
 62
     2
100
AcDbPolyline
 90
       10
 70
     0
 43
0.0
 10
362.0869628906
 20
21.1947610474
 10
362.2835302734
 20
21.503092804
 10
362.4800976562
 20
21.6572602844
 10
362.6766650391
 20
21.503092804
 10
362.8732067871
 20
21.1947610474
 10
362.8732067871
 20
20.8864260864
 10
362.6766650391
 20
20.5780943298
 10
362.4800976562
 20
20.4239268494
 10
362.2835302734
 20
20.4239268494
 10
362.0869628906
 20
20.8864260864
  0
LINE
  5
311
330
221
100
AcDbEntity
  8
0
  6
Continuous
 62
     2
100
AcDbLine
 10
362.0869628906
 20
21.6572602844
 30
0.0
 11
362.0869628906
 21
19.8072601318
 31
0.0
  0
LINE
  5
312
330
221
100
AcDbEntity
  8
0
  6
Continuous
 62
     2
100
AcDbLine
 10
363.757734375
 20
20.4239268494
 30
0.0
 11
363.757734375
 21
21.6572602844
 31
0.0
  0
LWPOLYLINE
  5
313
330
221
100
AcDbEntity
  8
0
  6
Continuous
 62
     2
100
AcDbPolyline
 90
        4
 70
     0
 43
0.0
 10
363.757734375
 20
21.3489285278
 10
363.9543017578
 20
21.6572602844
 10
364.1508691406
 20
21.6572602844
 10
364.249152832
 20
21.503092804
  0
LWPOLYLINE
  5
314
330
221
100
AcDbEntity
  8
0
  6
Continuous
 62
     2
100
AcDbPolyline
 90
       11
 70
     0
 43
0.0
 10
366.0182080078
 20
20.8864260864
 10
365.821640625
 20
20.5780943298
 10
365.625098877
 20
20.4239268494
 10
365.4285314941
 20
20.5780943298
 10
365.2319641113
 20
20.8864260864
 10
365.2319641113
 20
21.1947610474
 10
365.4285314941
 20
21.503092804
 10
365.625098877
 20
21.6572602844
 10
365.821640625
 20
21.503092804
 10
366.0182080078
 20
21.1947610474
 10
366.0182080078
 20
20.8864260864
  0
LWPOLYLINE
  5
315
330
221
100
AcDbEntity
  8
0
  6
Continuous
 62
     2
100
AcDbPolyline
 90
       10
 70
     0
 43
0.0
 10
367.5907214355
 20
20.8864260864
 10
367.3941540527
 20
20.5780943298
 10
367.1975866699
 20
20.4239268494
 10
367.0010192871
 20
20.5780943298
 10
366.8044775391
 20
20.8864260864
 10
366.8044775391
 20
21.1947610474
 10
367.0010192871
 20
21.503092804
 10
367.1975866699
 20
21.6572602844
 10
367.3941540527
 20
21.503092804
 10
367.5907214355
 20
21.1947610474
  0
LINE
  5
316
330
221
100
AcDbEntity
  8
0
  6
Continuous
 62
     2
100
AcDbLine
 10
367.5907214355
 20
22.273927002
 30
0.0
 11
367.5907214355
 21
20.4239268494
 31
0.0
  0
LWPOLYLINE
  5
317
330
221
100
AcDbEntity
  8
0
  6
Continuous
 62
     2
100
AcDbPolyline
 90
        5
 70
     0
 43
0.0
 10
368.4752490234
 20
21.6572602844
 10
368.4752490234
 20
20.7322618103
 10
368.6718164063
 20
20.4239268494
 10
368.8683837891
 20
20.4239268494
 10
369.0649255371
 20
20.7322618103
  0
LINE
  5
318
330
221
100
AcDbEntity
  8
0
  6
Continuous
 62
     2
100
AcDbLine
 10
369.0649255371
 20
21.6572602844
 30
0.0
 11
369.0649255371
 21
20.4239268494
 31
0.0
  0
LWPOLYLINE
  5
319
330
221
100
AcDbEntity
  8
0
  6
Continuous
 62
     2
100
AcDbPolyline
 90
        8
 70
     0
 43
0.0
 10
370.5391552734
 20
20.5780943298
 10
370.3425878906
 20
20.4239268494
 10
370.1460205078
 20
20.5780943298
 10
369.949453125
 20
20.8864260864
 10
369.949453125
 20
21.1947610474
 10
370.1460205078
 20
21.503092804
 10
370.3425878906
 20
21.6572602844
 10
370.5391552734
 20
21.503092804
  0
LINE
  5
31A
330
221
100
AcDbEntity
  8
0
  6
Continuous
 62
     2
100
AcDbLine
 10
371.9151013184
 20
20.4239268494
 30
0.0
 11
371.9151013184
 21
22.273927002
 31
0.0
  0
LINE
  5
31B
330
221
100
AcDbEntity
  8
0
  6
Continuous
 62
     2
100
AcDbLine
 10
371.6202502441
 20
21.503092804
 30
0.0
 11
372.2099267578
 21
21.503092804
 31
0.0
  0
LINE
  5
31C
330
221
100
AcDbEntity
  8
0
  6
Continuous
 62
     2
100
AcDbLine
 10
373.4875891113
 20
22.273927002
 30
0.0
 11
373.4875891113
 21
22.1197595215
 31
0.0
  0
LINE
  5
31D
330
221
100
AcDbEntity
  8
0
  6
Continuous
 62
     2
100
AcDbLine
 10
373.4875891113
 20
21.6572602844
 30
0.0
 11
373.4875891113
 21
20.4239268494
 31
0.0
  0
LWPOLYLINE
  5
31E
330
221
100
AcDbEntity
  8
0
  6
Continuous
 62
     2
100
AcDbPolyline
 90
       11
 70
     0
 43
0.0
 10
375.4532116699
 20
20.8864260864
 10
375.2566442871
 20
20.5780943298
 10
375.0601025391
 20
20.4239268494
 10
374.8635351563
 20
20.5780943298
 10
374.6669677734
 20
20.8864260864
 10
374.6669677734
 20
21.1947610474
 10
374.8635351563
 20
21.503092804
 10
375.0601025391
 20
21.6572602844
 10
375.2566442871
 20
21.503092804
 10
375.4532116699
 20
21.1947610474
 10
375.4532116699
 20
20.8864260864
  0
LINE
  5
31F
330
221
100
AcDbEntity
  8
0
  6
Continuous
 62
     2
100
AcDbLine
 10
376.3377392578
 20
20.4239268494
 30
0.0
 11
376.3377392578
 21
21.6572602844
 31
0.0
  0
LWPOLYLINE
  5
320
330
221
100
AcDbEntity
  8
0
  6
Continuous
 62
     2
100
AcDbPolyline
 90
        5
 70
     0
 43
0.0
 10
376.3377392578
 20
21.3489285278
 10
376.5343066406
 20
21.6572602844
 10
376.7308740234
 20
21.6572602844
 10
376.9274414063
 20
21.3489285278
 10
376.9274414063
 20
20.4239268494
  0
LWPOLYLINE
  5
321
330
221
100
AcDbEntity
  8
0
  6
Continuous
 62
     2
100
AcDbPolyline
 90
       14
 70
     0
 43
0.0
 10
378.4016455078
 20
21.503092804
 10
378.3033618164
 20
21.6572602844
 10
378.1068200684
 20
21.6572602844
 10
378.008536377
 20
21.503092804
 10
378.008536377
 20
21.3489285278
 10
378.205078125
 20
21.1947610474
 10
378.4016455078
 20
21.0405935669
 10
378.4999291992
 20
20.8864260864
 10
378.4999291992
 20
20.7322618103
 10
378.4016455078
 20
20.5780943298
 10
378.3033618164
 20
20.4239268494
 10
378.1068200684
 20
20.4239268494
 10
378.008536377
 20
20.5780943298
 10
377.9102526855
 20
20.7322618103
  0
LWPOLYLINE
  5
322
330
221
100
AcDbEntity
  8
0
  6
Continuous
 62
     2
100
AcDbPolyline
 90
       10
 70
     0
 43
0.0
 10
381.7432141113
 20
20.8864260864
 10
381.5466467285
 20
20.5780943298
 10
381.3500793457
 20
20.4239268494
 10
381.1535375977
 20
20.5780943298
 10
380.9569702148
 20
20.8864260864
 10
380.9569702148
 20
21.1947610474
 10
381.1535375977
 20
21.503092804
 10
381.3500793457
 20
21.6572602844
 10
381.5466467285
 20
21.503092804
 10
381.7432141113
 20
21.1947610474
  0
LINE
  5
323
330
221
100
AcDbEntity
  8
0
  6
Continuous
 62
     2
100
AcDbLine
 10
381.7432141113
 20
21.6572602844
 30
0.0
 11
381.7432141113
 21
20.4239268494
 31
0.0
  0
LINE
  5
324
330
221
100
AcDbEntity
  8
0
  6
Continuous
 62
     2
100
AcDbLine
 10
382.6277416992
 20
20.4239268494
 30
0.0
 11
382.6277416992
 21
21.6572602844
 31
0.0
  0
LWPOLYLINE
  5
325
330
221
100
AcDbEntity
  8
0
  6
Continuous
 62
     2
100
AcDbPolyline
 90
        4
 70
     0
 43
0.0
 10
382.6277416992
 20
21.3489285278
 10
382.824309082
 20
21.6572602844
 10
383.0208764648
 20
21.6572602844
 10
383.1191601562
 20
21.503092804
  0
LWPOLYLINE
  5
326
330
221
100
AcDbEntity
  8
0
  6
Continuous
 62
     2
100
AcDbPolyline
 90
       11
 70
     0
 43
0.0
 10
384.7899316406
 20
20.7322618103
 10
384.6916479492
 20
20.5780943298
 10
384.4950805664
 20
20.4239268494
 10
384.2985388184
 20
20.5780943298
 10
384.1019714355
 20
20.8864260864
 10
384.1019714355
 20
21.1947610474
 10
384.2985388184
 20
21.503092804
 10
384.4950805664
 20
21.6572602844
 10
384.6916479492
 20
21.503092804
 10
384.7899316406
 20
21.1947610474
 10
384.1019714355
 20
21.1947610474
  0
LWPOLYLINE
  5
327
330
221
100
AcDbEntity
  8
0
  6
Continuous
 62
     2
100
AcDbPolyline
 90
       10
 70
     0
 43
0.0
 10
387.2469726562
 20
21.1947610474
 10
387.4435400391
 20
21.503092804
 10
387.6400817871
 20
21.6572602844
 10
387.8366491699
 20
21.503092804
 10
388.0332165527
 20
21.1947610474
 10
388.0332165527
 20
20.8864260864
 10
387.8366491699
 20
20.5780943298
 10
387.6400817871
 20
20.4239268494
 10
387.4435400391
 20
20.4239268494
 10
387.2469726562
 20
20.8864260864
  0
LINE
  5
328
330
221
100
AcDbEntity
  8
0
  6
Continuous
 62
     2
100
AcDbLine
 10
387.2469726562
 20
21.6572602844
 30
0.0
 11
387.2469726562
 21
19.8072601318
 31
0.0
  0
LINE
  5
329
330
221
100
AcDbEntity
  8
0
  6
Continuous
 62
     2
100
AcDbLine
 10
388.9177441406
 20
20.4239268494
 30
0.0
 11
388.9177441406
 21
21.6572602844
 31
0.0
  0
LWPOLYLINE
  5
32A
330
221
100
AcDbEntity
  8
0
  6
Continuous
 62
     2
100
AcDbPolyline
 90
        4
 70
     0
 43
0.0
 10
388.9177441406
 20
21.3489285278
 10
389.1143115234
 20
21.6572602844
 10
389.3108789062
 20
21.6572602844
 10
389.4091625977
 20
21.503092804
  0
LWPOLYLINE
  5
32B
330
221
100
AcDbEntity
  8
0
  6
Continuous
 62
     2
100
AcDbPolyline
 90
       11
 70
     0
 43
0.0
 10
391.1782177734
 20
20.8864260864
 10
390.9816503906
 20
20.5780943298
 10
390.7850830078
 20
20.4239268494
 10
390.588515625
 20
20.5780943298
 10
390.391973877
 20
20.8864260864
 10
390.391973877
 20
21.1947610474
 10
390.588515625
 20
21.503092804
 10
390.7850830078
 20
21.6572602844
 10
390.9816503906
 20
21.503092804
 10
391.1782177734
 20
21.1947610474
 10
391.1782177734
 20
20.8864260864
  0
LINE
  5
32C
330
221
100
AcDbEntity
  8
0
  6
Continuous
 62
     2
100
AcDbLine
 10
392.0627453613
 20
20.4239268494
 30
0.0
 11
392.0627453613
 21
22.273927002
 31
0.0
  0
LWPOLYLINE
  5
32D
330
221
100
AcDbEntity
  8
0
  6
Continuous
 62
     2
100
AcDbPolyline
 90
        7
 70
     0
 43
0.0
 10
392.0627453613
 20
21.3489285278
 10
392.0627453613
 20
21.503092804
 10
392.2593127441
 20
21.6572602844
 10
392.3575964355
 20
21.6572602844
 10
392.455880127
 20
21.6572602844
 10
392.652421875
 20
21.3489285278
 10
392.652421875
 20
20.4239268494
  0
LINE
  5
32E
330
221
100
AcDbEntity
  8
0
  6
Continuous
 62
     2
100
AcDbLine
 10
393.9300842285
 20
22.273927002
 30
0.0
 11
393.9300842285
 21
22.1197595215
 31
0.0
  0
LINE
  5
32F
330
221
100
AcDbEntity
  8
0
  6
Continuous
 62
     2
100
AcDbLine
 10
393.9300842285
 20
21.6572602844
 30
0.0
 11
393.9300842285
 21
20.4239268494
 31
0.0
  0
LWPOLYLINE
  5
330
330
221
100
AcDbEntity
  8
0
  6
Continuous
 62
     2
100
AcDbPolyline
 90
       10
 70
     0
 43
0.0
 10
395.1094628906
 20
21.1947610474
 10
395.3060302734
 20
21.503092804
 10
395.5025976562
 20
21.6572602844
 10
395.6991650391
 20
21.503092804
 10
395.8957067871
 20
21.1947610474
 10
395.8957067871
 20
20.8864260864
 10
395.6991650391
 20
20.5780943298
 10
395.5025976562
 20
20.4239268494
 10
395.3060302734
 20
20.5780943298
 10
395.1094628906
 20
20.8864260864
  0
LINE
  5
331
330
221
100
AcDbEntity
  8
0
  6
Continuous
 62
     2
100
AcDbLine
 10
395.1094628906
 20
22.273927002
 30
0.0
 11
395.1094628906
 21
20.4239268494
 31
0.0
  0
LINE
  5
332
330
221
100
AcDbEntity
  8
0
  6
Continuous
 62
     2
100
AcDbLine
 10
397.0750854492
 20
22.273927002
 30
0.0
 11
397.0750854492
 21
22.1197595215
 31
0.0
  0
LINE
  5
333
330
221
100
AcDbEntity
  8
0
  6
Continuous
 62
     2
100
AcDbLine
 10
397.0750854492
 20
21.6572602844
 30
0.0
 11
397.0750854492
 21
20.4239268494
 31
0.0
  0
LINE
  5
334
330
221
100
AcDbEntity
  8
0
  6
Continuous
 62
     2
100
AcDbLine
 10
398.647598877
 20
20.4239268494
 30
0.0
 11
398.647598877
 21
22.273927002
 31
0.0
  0
LINE
  5
335
330
221
100
AcDbEntity
  8
0
  6
Continuous
 62
     2
100
AcDbLine
 10
398.3527478027
 20
21.503092804
 30
0.0
 11
398.9424243164
 21
21.503092804
 31
0.0
  0
LWPOLYLINE
  5
336
330
221
100
AcDbEntity
  8
0
  6
Continuous
 62
     2
100
AcDbPolyline
 90
       11
 70
     0
 43
0.0
 10
400.5149377441
 20
20.7322618103
 10
400.4166540527
 20
20.5780943298
 10
400.2200866699
 20
20.4239268494
 10
400.0235192871
 20
20.5780943298
 10
399.8269775391
 20
20.8864260864
 10
399.8269775391
 20
21.1947610474
 10
400.0235192871
 20
21.503092804
 10
400.2200866699
 20
21.6572602844
 10
400.4166540527
 20
21.503092804
 10
400.5149377441
 20
21.1947610474
 10
399.8269775391
 20
21.1947610474
  0
LWPOLYLINE
  5
337
330
221
100
AcDbEntity
  8
0
  6
Continuous
 62
     2
100
AcDbPolyline
 90
       10
 70
     0
 43
0.0
 10
402.1857092285
 20
20.8864260864
 10
401.9891418457
 20
20.5780943298
 10
401.7926000977
 20
20.4239268494
 10
401.5960327148
 20
20.5780943298
 10
401.399465332
 20
20.8864260864
 10
401.399465332
 20
21.1947610474
 10
401.5960327148
 20
21.503092804
 10
401.7926000977
 20
21.6572602844
 10
401.9891418457
 20
21.503092804
 10
402.1857092285
 20
21.1947610474
  0
LINE
  5
338
330
221
100
AcDbEntity
  8
0
  6
Continuous
 62
     2
100
AcDbLine
 10
402.1857092285
 20
22.273927002
 30
0.0
 11
402.1857092285
 21
20.4239268494
 31
0.0
  0
LWPOLYLINE
  5
339
330
221
100
AcDbEntity
  8
0
  6
Continuous
 62
     2
100
AcDbPolyline
 90
        5
 70
     0
 43
0.0
 10
321.1036889648
 20
18.8822616577
 10
321.3002563477
 20
17.6489282227
 10
321.5950817871
 20
18.8822616577
 10
321.7916491699
 20
17.6489282227
 10
322.0865002441
 20
18.8822616577
  0
LINE
  5
33A
330
221
100
AcDbEntity
  8
0
  6
Continuous
 62
     2
100
AcDbLine
 10
323.1675952148
 20
19.4989283752
 30
0.0
 11
323.1675952148
 21
19.3447608948
 31
0.0
  0
LINE
  5
33B
330
221
100
AcDbEntity
  8
0
  6
Continuous
 62
     2
100
AcDbLine
 10
323.1675952148
 20
18.8822616577
 30
0.0
 11
323.1675952148
 21
17.6489282227
 31
0.0
  0
LINE
  5
33C
330
221
100
AcDbEntity
  8
0
  6
Continuous
 62
     2
100
AcDbLine
 10
324.7400830078
 20
17.6489282227
 30
0.0
 11
324.7400830078
 21
19.4989283752
 31
0.0
  0
LINE
  5
33D
330
221
100
AcDbEntity
  8
0
  6
Continuous
 62
     2
100
AcDbLine
 10
324.4452575684
 20
18.7280941772
 30
0.0
 11
325.034934082
 21
18.7280941772
 31
0.0
  0
LINE
  5
33E
330
221
100
AcDbEntity
  8
0
  6
Continuous
 62
     2
100
AcDbLine
 10
326.0177453613
 20
17.6489282227
 30
0.0
 11
326.0177453613
 21
19.4989283752
 31
0.0
  0
LWPOLYLINE
  5
33F
330
221
100
AcDbEntity
  8
0
  6
Continuous
 62
     2
100
AcDbPolyline
 90
        7
 70
     0
 43
0.0
 10
326.0177453613
 20
18.5739266968
 10
326.0177453613
 20
18.7280941772
 10
326.2143127441
 20
18.8822616577
 10
326.3125964355
 20
18.8822616577
 10
326.410880127
 20
18.8822616577
 10
326.607421875
 20
18.5739266968
 10
326.607421875
 20
17.6489282227
  0
LWPOLYLINE
  5
340
330
221
100
AcDbEntity
  8
0
  6
Continuous
 62
     2
100
AcDbPolyline
 90
       11
 70
     0
 43
0.0
 10
328.2782189941
 20
18.1114274597
 10
328.0816516113
 20
17.8030924988
 10
327.8850842285
 20
17.6489282227
 10
327.6885168457
 20
17.8030924988
 10
327.4919750977
 20
18.1114274597
 10
327.4919750977
 20
18.4197592163
 10
327.6885168457
 20
18.7280941772
 10
327.8850842285
 20
18.8822616577
 10
328.0816516113
 20
18.7280941772
 10
328.2782189941
 20
18.4197592163
 10
328.2782189941
 20
18.1114274597
  0
LWPOLYLINE
  5
341
330
221
100
AcDbEntity
  8
0
  6
Continuous
 62
     2
100
AcDbPolyline
 90
        5
 70
     0
 43
0.0
 10
329.162746582
 20
18.8822616577
 10
329.162746582
 20
17.9572599792
 10
329.3593139648
 20
17.6489282227
 10
329.5558813477
 20
17.6489282227
 10
329.7524230957
 20
17.9572599792
  0
LINE
  5
342
330
221
100
AcDbEntity
  8
0
  6
Continuous
 62
     2
100
AcDbLine
 10
329.7524230957
 20
18.8822616577
 30
0.0
 11
329.7524230957
 21
17.6489282227
 31
0.0
  0
LINE
  5
343
330
221
100
AcDbEntity
  8
0
  6
Continuous
 62
     2
100
AcDbLine
 10
331.0300854492
 20
17.6489282227
 30
0.0
 11
331.0300854492
 21
19.4989283752
 31
0.0
  0
LINE
  5
344
330
221
100
AcDbEntity
  8
0
  6
Continuous
 62
     2
100
AcDbLine
 10
330.735234375
 20
18.7280941772
 30
0.0
 11
331.3249365234
 21
18.7280941772
 31
0.0
  0
LWPOLYLINE
  5
345
330
221
100
AcDbEntity
  8
0
  6
Continuous
 62
     2
100
AcDbPolyline
 90
       10
 70
     0
 43
0.0
 10
333.7819775391
 20
18.4197592163
 10
333.9785192871
 20
18.7280941772
 10
334.1750866699
 20
18.8822616577
 10
334.3716540527
 20
18.7280941772
 10
334.5682214355
 20
18.4197592163
 10
334.5682214355
 20
18.1114274597
 10
334.3716540527
 20
17.8030924988
 10
334.1750866699
 20
17.6489282227
 10
333.9785192871
 20
17.6489282227
 10
333.7819775391
 20
18.1114274597
  0
LINE
  5
346
330
221
100
AcDbEntity
  8
0
  6
Continuous
 62
     2
100
AcDbLine
 10
333.7819775391
 20
18.8822616577
 30
0.0
 11
333.7819775391
 21
17.0322615051
 31
0.0
  0
LINE
  5
347
330
221
100
AcDbEntity
  8
0
  6
Continuous
 62
     2
100
AcDbLine
 10
335.4527490234
 20
17.6489282227
 30
0.0
 11
335.4527490234
 21
18.8822616577
 31
0.0
  0
LWPOLYLINE
  5
348
330
221
100
AcDbEntity
  8
0
  6
Continuous
 62
     2
100
AcDbPolyline
 90
        4
 70
     0
 43
0.0
 10
335.4527490234
 20
18.5739266968
 10
335.6493164062
 20
18.8822616577
 10
335.8458837891
 20
18.8822616577
 10
335.9441418457
 20
18.7280941772
  0
LINE
  5
349
330
221
100
AcDbEntity
  8
0
  6
Continuous
 62
     2
100
AcDbLine
 10
337.3200878906
 20
19.4989283752
 30
0.0
 11
337.3200878906
 21
19.3447608948
 31
0.0
  0
LINE
  5
34A
330
221
100
AcDbEntity
  8
0
  6
Continuous
 62
     2
100
AcDbLine
 10
337.3200878906
 20
18.8822616577
 30
0.0
 11
337.3200878906
 21
17.6489282227
 31
0.0
  0
LWPOLYLINE
  5
34B
330
221
100
AcDbEntity
  8
0
  6
Continuous
 62
     2
100
AcDbPolyline
 90
       11
 70
     0
 43
0.0
 10
339.2857104492
 20
18.1114274597
 10
339.0891430664
 20
17.8030924988
 10
338.8926013184
 20
17.6489282227
 10
338.6960339355
 20
17.8030924988
 10
338.4994665527
 20
18.1114274597
 10
338.4994665527
 20
18.4197592163
 10
338.6960339355
 20
18.7280941772
 10
338.8926013184
 20
18.8822616577
 10
339.0891430664
 20
18.7280941772
 10
339.2857104492
 20
18.4197592163
 10
339.2857104492
 20
18.1114274597
  0
LINE
  5
34C
330
221
100
AcDbEntity
  8
0
  6
Continuous
 62
     2
100
AcDbLine
 10
340.1702380371
 20
17.6489282227
 30
0.0
 11
340.1702380371
 21
18.8822616577
 31
0.0
  0
LWPOLYLINE
  5
34D
330
221
100
AcDbEntity
  8
0
  6
Continuous
 62
     2
100
AcDbPolyline
 90
        4
 70
     0
 43
0.0
 10
340.1702380371
 20
18.5739266968
 10
340.3668054199
 20
18.8822616577
 10
340.5633728027
 20
18.8822616577
 10
340.6616564941
 20
18.7280941772
  0
LWPOLYLINE
  5
34E
330
221
100
AcDbEntity
  8
0
  6
Continuous
 62
     2
100
AcDbPolyline
 90
       10
 70
     0
 43
0.0
 10
344.0032250977
 20
18.1114274597
 10
343.8066577148
 20
17.8030924988
 10
343.610090332
 20
17.6489282227
 10
343.4135229492
 20
17.8030924988
 10
343.2169555664
 20
18.1114274597
 10
343.2169555664
 20
18.4197592163
 10
343.4135229492
 20
18.7280941772
 10
343.610090332
 20
18.8822616577
 10
343.8066577148
 20
18.7280941772
 10
344.0032250977
 20
18.4197592163
  0
LINE
  5
34F
330
221
100
AcDbEntity
  8
0
  6
Continuous
 62
     2
100
AcDbLine
 10
344.0032250977
 20
18.8822616577
 30
0.0
 11
344.0032250977
 21
17.6489282227
 31
0.0
  0
LWPOLYLINE
  5
350
330
221
100
AcDbEntity
  8
0
  6
Continuous
 62
     2
100
AcDbPolyline
 90
        5
 70
     0
 43
0.0
 10
344.8877526855
 20
18.8822616577
 10
344.8877526855
 20
17.9572599792
 10
345.0843200684
 20
17.6489282227
 10
345.2808618164
 20
17.6489282227
 10
345.4774291992
 20
17.9572599792
  0
LINE
  5
351
330
221
100
AcDbEntity
  8
0
  6
Continuous
 62
     2
100
AcDbLine
 10
345.4774291992
 20
18.8822616577
 30
0.0
 11
345.4774291992
 21
17.6489282227
 31
0.0
  0
LINE
  5
352
330
221
100
AcDbEntity
  8
0
  6
Continuous
 62
     2
100
AcDbLine
 10
346.7550915527
 20
17.6489282227
 30
0.0
 11
346.7550915527
 21
19.4989283752
 31
0.0
  0
LINE
  5
353
330
221
100
AcDbEntity
  8
0
  6
Continuous
 62
     2
100
AcDbLine
 10
346.4602404785
 20
18.7280941772
 30
0.0
 11
347.049942627
 21
18.7280941772
 31
0.0
  0
LINE
  5
354
330
221
100
AcDbEntity
  8
0
  6
Continuous
 62
     2
100
AcDbLine
 10
348.0327539062
 20
17.6489282227
 30
0.0
 11
348.0327539062
 21
19.4989283752
 31
0.0
  0
LWPOLYLINE
  5
355
330
221
100
AcDbEntity
  8
0
  6
Continuous
 62
     2
100
AcDbPolyline
 90
        7
 70
     0
 43
0.0
 10
348.0327539062
 20
18.5739266968
 10
348.0327539062
 20
18.7280941772
 10
348.2293212891
 20
18.8822616577
 10
348.3275793457
 20
18.8822616577
 10
348.4258630371
 20
18.8822616577
 10
348.6224304199
 20
18.5739266968
 10
348.6224304199
 20
17.6489282227
  0
LWPOLYLINE
  5
356
330
221
100
AcDbEntity
  8
0
  6
Continuous
 62
     2
100
AcDbPolyline
 90
       11
 70
     0
 43
0.0
 10
350.2932275391
 20
18.1114274597
 10
350.0966601562
 20
17.8030924988
 10
349.9000927734
 20
17.6489282227
 10
349.7035253906
 20
17.8030924988
 10
349.5069580078
 20
18.1114274597
 10
349.5069580078
 20
18.4197592163
 10
349.7035253906
 20
18.7280941772
 10
349.9000927734
 20
18.8822616577
 10
350.0966601562
 20
18.7280941772
 10
350.2932275391
 20
18.4197592163
 10
350.2932275391
 20
18.1114274597
  0
LINE
  5
357
330
221
100
AcDbEntity
  8
0
  6
Continuous
 62
     2
100
AcDbLine
 10
351.177755127
 20
17.6489282227
 30
0.0
 11
351.177755127
 21
18.8822616577
 31
0.0
  0
LWPOLYLINE
  5
358
330
221
100
AcDbEntity
  8
0
  6
Continuous
 62
     2
100
AcDbPolyline
 90
        4
 70
     0
 43
0.0
 10
351.177755127
 20
18.5739266968
 10
351.374296875
 20
18.8822616577
 10
351.5708642578
 20
18.8822616577
 10
351.6691479492
 20
18.7280941772
  0
LINE
  5
359
330
221
100
AcDbEntity
  8
0
  6
Continuous
 62
     2
100
AcDbLine
 10
353.0450939941
 20
19.4989283752
 30
0.0
 11
353.0450939941
 21
19.3447608948
 31
0.0
  0
LINE
  5
35A
330
221
100
AcDbEntity
  8
0
  6
Continuous
 62
     2
100
AcDbLine
 10
353.0450939941
 20
18.8822616577
 30
0.0
 11
353.0450939941
 21
17.6489282227
 31
0.0
  0
LWPOLYLINE
  5
35B
330
221
100
AcDbEntity
  8
0
  6
Continuous
 62
     2
100
AcDbPolyline
 90
       14
 70
     0
 43
0.0
 10
354.8141491699
 20
18.7280941772
 10
354.7158654785
 20
18.8822616577
 10
354.5192980957
 20
18.8822616577
 10
354.4210400391
 20
18.7280941772
 10
354.4210400391
 20
18.5739266968
 10
354.6175817871
 20
18.4197592163
 10
354.8141491699
 20
18.2655949402
 10
354.9124328613
 20
18.1114274597
 10
354.9124328613
 20
17.9572599792
 10
354.8141491699
 20
17.8030924988
 10
354.7158654785
 20
17.6489282227
 10
354.5192980957
 20
17.6489282227
 10
354.4210400391
 20
17.8030924988
 10
354.3227563477
 20
17.9572599792
  0
LWPOLYLINE
  5
35C
330
221
100
AcDbEntity
  8
0
  6
Continuous
 62
     2
100
AcDbPolyline
 90
       10
 70
     0
 43
0.0
 10
356.5832043457
 20
18.1114274597
 10
356.3866625977
 20
17.8030924988
 10
356.1900952148
 20
17.6489282227
 10
355.993527832
 20
17.8030924988
 10
355.7969604492
 20
18.1114274597
 10
355.7969604492
 20
18.4197592163
 10
355.993527832
 20
18.7280941772
 10
356.1900952148
 20
18.8822616577
 10
356.3866625977
 20
18.7280941772
 10
356.5832043457
 20
18.4197592163
  0
LINE
  5
35D
330
221
100
AcDbEntity
  8
0
  6
Continuous
 62
     2
100
AcDbLine
 10
356.5832043457
 20
18.8822616577
 30
0.0
 11
356.5832043457
 21
17.6489282227
 31
0.0
  0
LINE
  5
35E
330
221
100
AcDbEntity
  8
0
  6
Continuous
 62
     2
100
AcDbLine
 10
357.7625830078
 20
17.6489282227
 30
0.0
 11
357.7625830078
 21
19.4989283752
 31
0.0
  0
LINE
  5
35F
330
221
100
AcDbEntity
  8
0
  6
Continuous
 62
     2
100
AcDbLine
 10
357.4677575684
 20
18.7280941772
 30
0.0
 11
358.057434082
 21
18.7280941772
 31
0.0
  0
LINE
  5
360
330
221
100
AcDbEntity
  8
0
  6
Continuous
 62
     2
100
AcDbLine
 10
359.3350964355
 20
19.4989283752
 30
0.0
 11
359.3350964355
 21
19.3447608948
 31
0.0
  0
LINE
  5
361
330
221
100
AcDbEntity
  8
0
  6
Continuous
 62
     2
100
AcDbLine
 10
359.3350964355
 20
18.8822616577
 30
0.0
 11
359.3350964355
 21
17.6489282227
 31
0.0
  0
LWPOLYLINE
  5
362
330
221
100
AcDbEntity
  8
0
  6
Continuous
 62
     2
100
AcDbPolyline
 90
       11
 70
     0
 43
0.0
 10
361.3007189941
 20
18.1114274597
 10
361.1041516113
 20
17.8030924988
 10
360.9075842285
 20
17.6489282227
 10
360.7110168457
 20
17.8030924988
 10
360.5144750977
 20
18.1114274597
 10
360.5144750977
 20
18.4197592163
 10
360.7110168457
 20
18.7280941772
 10
360.9075842285
 20
18.8822616577
 10
361.1041516113
 20
18.7280941772
 10
361.3007189941
 20
18.4197592163
 10
361.3007189941
 20
18.1114274597
  0
LINE
  5
363
330
221
100
AcDbEntity
  8
0
  6
Continuous
 62
     2
100
AcDbLine
 10
362.185246582
 20
17.6489282227
 30
0.0
 11
362.185246582
 21
18.8822616577
 31
0.0
  0
LWPOLYLINE
  5
364
330
221
100
AcDbEntity
  8
0
  6
Continuous
 62
     2
100
AcDbPolyline
 90
        5
 70
     0
 43
0.0
 10
362.185246582
 20
18.5739266968
 10
362.3818139648
 20
18.8822616577
 10
362.5783813477
 20
18.8822616577
 10
362.7749230957
 20
18.5739266968
 10
362.7749230957
 20
17.6489282227
  0
LWPOLYLINE
  5
365
330
221
100
AcDbEntity
  8
0
  6
Continuous
 62
     2
100
AcDbPolyline
 90
       11
 70
     0
 43
0.0
 10
366.0182080078
 20
18.1114274597
 10
365.821640625
 20
17.8030924988
 10
365.625098877
 20
17.6489282227
 10
365.4285314941
 20
17.8030924988
 10
365.2319641113
 20
18.1114274597
 10
365.2319641113
 20
18.4197592163
 10
365.4285314941
 20
18.7280941772
 10
365.625098877
 20
18.8822616577
 10
365.821640625
 20
18.7280941772
 10
366.0182080078
 20
18.4197592163
 10
366.0182080078
 20
18.1114274597
  0
LWPOLYLINE
  5
366
330
221
100
AcDbEntity
  8
0
  6
Continuous
 62
     2
100
AcDbPolyline
 90
        5
 70
     0
 43
0.0
 10
367.1975866699
 20
17.6489282227
 10
367.1975866699
 20
19.1905934143
 10
367.3941540527
 20
19.4989283752
 10
367.4924377441
 20
19.4989283752
 10
367.5907214355
 20
19.3447608948
  0
LINE
  5
367
330
221
100
AcDbEntity
  8
0
  6
Continuous
 62
     2
100
AcDbLine
 10
367.0010192871
 20
18.7280941772
 30
0.0
 11
367.3941540527
 21
18.7280941772
 31
0.0
  0
LWPOLYLINE
  5
368
330
221
100
AcDbEntity
  8
0
  6
Continuous
 62
     2
100
AcDbPolyline
 90
        3
 70
     0
 43
0.0
 10
369.949453125
 20
19.4989283752
 10
369.949453125
 20
17.6489282227
 10
370.7357226563
 20
17.6489282227
  0
LWPOLYLINE
  5
369
330
221
100
AcDbEntity
  8
0
  6
Continuous
 62
     2
100
AcDbPolyline
 90
       19
 70
     0
 43
0.0
 10
373.9790075684
 20
18.1114274597
 10
373.880723877
 20
17.9572599792
 10
373.7824401855
 20
17.8030924988
 10
373.5858728027
 20
17.6489282227
 10
373.3893054199
 20
17.6489282227
 10
373.1927380371
 20
17.8030924988
 10
373.0944543457
 20
17.9572599792
 10
373.0944543457
 20
18.2655949402
 10
373.4875891113
 20
18.7280941772
 10
373.6841564941
 20
19.0364259338
 10
373.6841564941
 20
19.3447608948
 10
373.5858728027
 20
19.4989283752
 10
373.3893054199
 20
19.4989283752
 10
373.2910217285
 20
19.3447608948
 10
373.2910217285
 20
19.0364259338
 10
373.4875891113
 20
18.7280941772
 10
373.880723877
 20
17.9572599792
 10
373.9790075684
 20
17.8030924988
 10
374.077265625
 20
17.8030924988
  0
LWPOLYLINE
  5
36A
330
221
100
AcDbEntity
  8
0
  6
Continuous
 62
     2
100
AcDbPolyline
 90
        3
 70
     0
 43
0.0
 10
376.2394555664
 20
19.4989283752
 10
376.2394555664
 20
17.6489282227
 10
377.0257250977
 20
17.6489282227
  0
LWPOLYLINE
  5
36B
330
221
100
AcDbEntity
  8
0
  6
Continuous
 62
     2
100
AcDbPolyline
 90
        3
 70
     0
 43
0.0
 10
379.3844567871
 20
19.4989283752
 10
379.3844567871
 20
17.6489282227
 10
380.1707263184
 20
17.6489282227
  0
LWPOLYLINE
  5
36C
330
221
100
AcDbEntity
  8
0
  6
Continuous
 62
     2
100
AcDbPolyline
 90
        5
 70
     0
 43
0.0
 10
381.0552539062
 20
18.8822616577
 10
381.0552539062
 20
17.9572599792
 10
381.2518212891
 20
17.6489282227
 10
381.4483630371
 20
17.6489282227
 10
381.6449304199
 20
17.9572599792
  0
LINE
  5
36D
330
221
100
AcDbEntity
  8
0
  6
Continuous
 62
     2
100
AcDbLine
 10
381.6449304199
 20
18.8822616577
 30
0.0
 11
381.6449304199
 21
17.6489282227
 31
0.0
  0
LWPOLYLINE
  5
36E
330
221
100
AcDbEntity
  8
0
  6
Continuous
 62
     2
100
AcDbPolyline
 90
        8
 70
     0
 43
0.0
 10
383.1191601562
 20
17.8030924988
 10
382.9225927734
 20
17.6489282227
 10
382.7260253906
 20
17.8030924988
 10
382.5294580078
 20
18.1114274597
 10
382.5294580078
 20
18.4197592163
 10
382.7260253906
 20
18.7280941772
 10
382.9225927734
 20
18.8822616577
 10
383.1191601562
 20
18.7280941772
  0
LWPOLYLINE
  5
36F
330
221
100
AcDbEntity
  8
0
  6
Continuous
 62
     2
100
AcDbPolyline
 90
       11
 70
     0
 43
0.0
 10
384.7899316406
 20
17.9572599792
 10
384.6916479492
 20
17.8030924988
 10
384.4950805664
 20
17.6489282227
 10
384.2985388184
 20
17.8030924988
 10
384.1019714355
 20
18.1114274597
 10
384.1019714355
 20
18.4197592163
 10
384.2985388184
 20
18.7280941772
 10
384.4950805664
 20
18.8822616577
 10
384.6916479492
 20
18.7280941772
 10
384.7899316406
 20
18.4197592163
 10
384.1019714355
 20
18.4197592163
  0
LWPOLYLINE
  5
370
330
221
100
AcDbEntity
  8
0
  6
Continuous
 62
     2
100
AcDbPolyline
 90
       19
 70
     0
 43
0.0
 10
388.1315002441
 20
18.1114274597
 10
388.0332165527
 20
17.9572599792
 10
387.9349328613
 20
17.8030924988
 10
387.7383654785
 20
17.6489282227
 10
387.5417980957
 20
17.6489282227
 10
387.3452563477
 20
17.8030924988
 10
387.2469726562
 20
17.9572599792
 10
387.2469726562
 20
18.2655949402
 10
387.6400817871
 20
18.7280941772
 10
387.8366491699
 20
19.0364259338
 10
387.8366491699
 20
19.3447608948
 10
387.7383654785
 20
19.4989283752
 10
387.5417980957
 20
19.4989283752
 10
387.4435400391
 20
19.3447608948
 10
387.4435400391
 20
19.0364259338
 10
387.6400817871
 20
18.7280941772
 10
388.0332165527
 20
17.9572599792
 10
388.1315002441
 20
17.8030924988
 10
388.2297839355
 20
17.8030924988
  0
LWPOLYLINE
  5
371
330
221
100
AcDbEntity
  8
0
  6
Continuous
 62
     2
100
AcDbPolyline
 90
        3
 70
     0
 43
0.0
 10
390.391973877
 20
19.4989283752
 10
390.391973877
 20
17.6489282227
 10
391.1782177734
 20
17.6489282227
  0
LINE
  5
372
330
221
100
AcDbEntity
  8
0
  6
Continuous
 62
     2
100
AcDbLine
 10
392.3575964355
 20
19.4989283752
 30
0.0
 11
392.3575964355
 21
19.3447608948
 31
0.0
  0
LINE
  5
373
330
221
100
AcDbEntity
  8
0
  6
Continuous
 62
     2
100
AcDbLine
 10
392.3575964355
 20
18.8822616577
 30
0.0
 11
392.3575964355
 21
17.6489282227
 31
0.0
  0
LWPOLYLINE
  5
374
330
221
100
AcDbEntity
  8
0
  6
Continuous
 62
     2
100
AcDbPolyline
 90
       10
 70
     0
 43
0.0
 10
394.3232189941
 20
18.1114274597
 10
394.1266516113
 20
17.8030924988
 10
393.9300842285
 20
17.6489282227
 10
393.7335168457
 20
17.8030924988
 10
393.5369750977
 20
18.1114274597
 10
393.5369750977
 20
18.4197592163
 10
393.7335168457
 20
18.7280941772
 10
393.9300842285
 20
18.8822616577
 10
394.1266516113
 20
18.7280941772
 10
394.3232189941
 20
18.4197592163
  0
LWPOLYLINE
  5
375
330
221
100
AcDbEntity
  8
0
  6
Continuous
 62
     2
100
AcDbPolyline
 90
        6
 70
     0
 43
0.0
 10
394.3232189941
 20
18.8822616577
 10
394.3232189941
 20
17.4947607422
 10
394.2249353027
 20
17.1864257812
 10
394.1266516113
 20
17.0322615051
 10
393.7335168457
 20
17.0322615051
 10
393.6352587891
 20
17.1864257812
  0
LINE
  5
376
330
221
100
AcDbEntity
  8
0
  6
Continuous
 62
     2
100
AcDbLine
 10
395.207746582
 20
17.6489282227
 30
0.0
 11
395.207746582
 21
19.4989283752
 31
0.0
  0
LWPOLYLINE
  5
377
330
221
100
AcDbEntity
  8
0
  6
Continuous
 62
     2
100
AcDbPolyline
 90
        7
 70
     0
 43
0.0
 10
395.207746582
 20
18.5739266968
 10
395.207746582
 20
18.7280941772
 10
395.4043139648
 20
18.8822616577
 10
395.5025976562
 20
18.8822616577
 10
395.6008813477
 20
18.8822616577
 10
395.7974230957
 20
18.5739266968
 10
395.7974230957
 20
17.6489282227
  0
LINE
  5
378
330
221
100
AcDbEntity
  8
0
  6
Continuous
 62
     2
100
AcDbLine
 10
397.0750854492
 20
17.6489282227
 30
0.0
 11
397.0750854492
 21
19.4989283752
 31
0.0
  0
LINE
  5
379
330
221
100
AcDbEntity
  8
0
  6
Continuous
 62
     2
100
AcDbLine
 10
396.780234375
 20
18.7280941772
 30
0.0
 11
397.3699365234
 21
18.7280941772
 31
0.0
  0
LWPOLYLINE
  5
37A
330
221
100
AcDbEntity
  8
0
  6
Continuous
 62
     2
100
AcDbPolyline
 90
       14
 70
     0
 43
0.0
 10
400.4166540527
 20
18.7280941772
 10
400.3183703613
 20
18.8822616577
 10
400.1218029785
 20
18.8822616577
 10
400.0235192871
 20
18.7280941772
 10
400.0235192871
 20
18.5739266968
 10
400.2200866699
 20
18.4197592163
 10
400.4166540527
 20
18.2655949402
 10
400.5149377441
 20
18.1114274597
 10
400.5149377441
 20
17.9572599792
 10
400.4166540527
 20
17.8030924988
 10
400.3183703613
 20
17.6489282227
 10
400.1218029785
 20
17.6489282227
 10
400.0235192871
 20
17.8030924988
 10
399.9252355957
 20
17.9572599792
  0
LWPOLYLINE
  5
37B
330
221
100
AcDbEntity
  8
0
  6
Continuous
 62
     2
100
AcDbPolyline
 90
        4
 70
     0
 43
0.0
 10
401.7926000977
 20
17.6489282227
 10
401.6943164062
 20
17.6489282227
 10
401.6943164062
 20
17.8030924988
 10
401.7926000977
 20
17.6489282227
  0
LINE
  5
37C
330
221
100
AcDbEntity
  8
0
  6
Continuous
 62
     2
100
AcDbLine
 10
403.0702368164
 20
17.6489282227
 30
0.0
 11
403.0702368164
 21
18.8822616577
 31
0.0
  0
LWPOLYLINE
  5
37D
330
221
100
AcDbEntity
  8
0
  6
Continuous
 62
     2
100
AcDbPolyline
 90
        4
 70
     0
 43
0.0
 10
403.0702368164
 20
18.5739266968
 10
403.2668041992
 20
18.8822616577
 10
403.463371582
 20
18.8822616577
 10
403.5616552734
 20
18.7280941772
  0
LWPOLYLINE
  5
37E
330
221
100
AcDbEntity
  8
0
  6
Continuous
 62
     2
100
AcDbPolyline
 90
        4
 70
     0
 43
0.0
 10
404.9376013184
 20
17.6489282227
 10
404.839317627
 20
17.6489282227
 10
404.839317627
 20
17.8030924988
 10
404.9376013184
 20
17.6489282227
  0
LINE
  5
37F
330
221
100
AcDbEntity
  8
0
  6
Continuous
 62
     2
100
AcDbLine
 10
406.5100891113
 20
17.6489282227
 30
0.0
 11
406.5100891113
 21
19.4989283752
 31
0.0
  0
LWPOLYLINE
  5
380
330
221
100
AcDbEntity
  8
0
  6
Continuous
 62
     2
100
AcDbPolyline
 90
        4
 70
     0
 43
0.0
 10
408.0826025391
 20
17.6489282227
 10
407.9843188477
 20
17.6489282227
 10
407.9843188477
 20
17.8030924988
 10
408.0826025391
 20
17.6489282227
  0
LWPOLYLINE
  5
381
330
221
100
AcDbEntity
  8
0
  6
Continuous
 62
     2
100
AcDbPolyline
 90
        5
 70
     0
 43
0.0
 10
409.655090332
 20
17.6489282227
 10
409.5568066406
 20
17.8030924988
 10
409.655090332
 20
17.8030924988
 10
409.655090332
 20
17.6489282227
 10
409.4585229492
 20
17.3405932617
  0
LINE
  5
382
330
221
100
AcDbEntity
  8
0
  6
Continuous
 62
     2
100
AcDbLine
 10
321.5950817871
 20
16.7239265442
 30
0.0
 11
321.5950817871
 21
16.5697590637
 31
0.0
  0
LINE
  5
383
330
221
100
AcDbEntity
  8
0
  6
Continuous
 62
     2
100
AcDbLine
 10
321.5950817871
 20
16.1072598267
 30
0.0
 11
321.5950817871
 21
14.8739263916
 31
0.0
  0
LINE
  5
384
330
221
100
AcDbEntity
  8
0
  6
Continuous
 62
     2
100
AcDbLine
 10
322.8727441406
 20
14.8739263916
 30
0.0
 11
322.8727441406
 21
16.1072598267
 31
0.0
  0
LWPOLYLINE
  5
385
330
221
100
AcDbEntity
  8
0
  6
Continuous
 62
     2
100
AcDbPolyline
 90
        5
 70
     0
 43
0.0
 10
322.8727441406
 20
15.7989280701
 10
323.0693115234
 20
16.1072598267
 10
323.2658789063
 20
16.1072598267
 10
323.4624462891
 20
15.7989280701
 10
323.4624462891
 20
14.8739263916
  0
LWPOLYLINE
  5
386
330
221
100
AcDbEntity
  8
0
  6
Continuous
 62
     2
100
AcDbPolyline
 90
       10
 70
     0
 43
0.0
 10
326.7057055664
 20
15.3364256287
 10
326.5091638184
 20
15.0280938721
 10
326.3125964355
 20
14.8739263916
 10
326.1160290527
 20
15.0280938721
 10
325.9194616699
 20
15.3364256287
 10
325.9194616699
 20
15.6447605896
 10
326.1160290527
 20
15.9530923462
 10
326.3125964355
 20
16.1072598267
 10
326.5091638184
 20
15.9530923462
 10
326.7057055664
 20
15.6447605896
  0
LINE
  5
387
330
221
100
AcDbEntity
  8
0
  6
Continuous
 62
     2
100
AcDbLine
 10
326.7057055664
 20
16.1072598267
 30
0.0
 11
326.7057055664
 21
14.8739263916
 31
0.0
  0
LWPOLYLINE
  5
388
330
221
100
AcDbEntity
  8
0
  6
Continuous
 62
     2
100
AcDbPolyline
 90
        8
 70
     0
 43
0.0
 10
328.0816516113
 20
15.0280938721
 10
327.8850842285
 20
14.8739263916
 10
327.6885168457
 20
15.0280938721
 10
327.4919750977
 20
15.3364256287
 10
327.4919750977
 20
15.6447605896
 10
327.6885168457
 20
15.9530923462
 10
327.8850842285
 20
16.1072598267
 10
328.0816516113
 20
15.9530923462
  0
LWPOLYLINE
  5
389
330
221
100
AcDbEntity
  8
0
  6
Continuous
 62
     2
100
AcDbPolyline
 90
        8
 70
     0
 43
0.0
 10
329.6541650391
 20
15.0280938721
 10
329.4575976563
 20
14.8739263916
 10
329.2610302734
 20
15.0280938721
 10
329.0644628906
 20
15.3364256287
 10
329.0644628906
 20
15.6447605896
 10
329.2610302734
 20
15.9530923462
 10
329.4575976563
 20
16.1072598267
 10
329.6541650391
 20
15.9530923462
  0
LWPOLYLINE
  5
38A
330
221
100
AcDbEntity
  8
0
  6
Continuous
 62
     2
100
AcDbPolyline
 90
       11
 70
     0
 43
0.0
 10
331.4232202148
 20
15.3364256287
 10
331.226652832
 20
15.0280938721
 10
331.0300854492
 20
14.8739263916
 10
330.8335180664
 20
15.0280938721
 10
330.6369763184
 20
15.3364256287
 10
330.6369763184
 20
15.6447605896
 10
330.8335180664
 20
15.9530923462
 10
331.0300854492
 20
16.1072598267
 10
331.226652832
 20
15.9530923462
 10
331.4232202148
 20
15.6447605896
 10
331.4232202148
 20
15.3364256287
  0
LINE
  5
38B
330
221
100
AcDbEntity
  8
0
  6
Continuous
 62
     2
100
AcDbLine
 10
332.3077478027
 20
14.8739263916
 30
0.0
 11
332.3077478027
 21
16.1072598267
 31
0.0
  0
LWPOLYLINE
  5
38C
330
221
100
AcDbEntity
  8
0
  6
Continuous
 62
     2
100
AcDbPolyline
 90
        4
 70
     0
 43
0.0
 10
332.3077478027
 20
15.7989280701
 10
332.5043151855
 20
16.1072598267
 10
332.7008825684
 20
16.1072598267
 10
332.799140625
 20
15.9530923462
  0
LWPOLYLINE
  5
38D
330
221
100
AcDbEntity
  8
0
  6
Continuous
 62
     2
100
AcDbPolyline
 90
       10
 70
     0
 43
0.0
 10
334.5682214355
 20
15.3364256287
 10
334.3716540527
 20
15.0280938721
 10
334.1750866699
 20
14.8739263916
 10
333.9785192871
 20
15.0280938721
 10
333.7819775391
 20
15.3364256287
 10
333.7819775391
 20
15.6447605896
 10
333.9785192871
 20
15.9530923462
 10
334.1750866699
 20
16.1072598267
 10
334.3716540527
 20
15.9530923462
 10
334.5682214355
 20
15.6447605896
  0
LINE
  5
38E
330
221
100
AcDbEntity
  8
0
  6
Continuous
 62
     2
100
AcDbLine
 10
334.5682214355
 20
16.7239265442
 30
0.0
 11
334.5682214355
 21
14.8739263916
 31
0.0
  0
LWPOLYLINE
  5
38F
330
221
100
AcDbEntity
  8
0
  6
Continuous
 62
     2
100
AcDbPolyline
 90
       10
 70
     0
 43
0.0
 10
336.1407092285
 20
15.3364256287
 10
335.9441418457
 20
15.0280938721
 10
335.7476000977
 20
14.8739263916
 10
335.5510327148
 20
15.0280938721
 10
335.354465332
 20
15.3364256287
 10
335.354465332
 20
15.6447605896
 10
335.5510327148
 20
15.9530923462
 10
335.7476000977
 20
16.1072598267
 10
335.9441418457
 20
15.9530923462
 10
336.1407092285
 20
15.6447605896
  0
LINE
  5
390
330
221
100
AcDbEntity
  8
0
  6
Continuous
 62
     2
100
AcDbLine
 10
336.1407092285
 20
16.1072598267
 30
0.0
 11
336.1407092285
 21
14.8739263916
 31
0.0
  0
LINE
  5
391
330
221
100
AcDbEntity
  8
0
  6
Continuous
 62
     2
100
AcDbLine
 10
337.0252368164
 20
14.8739263916
 30
0.0
 11
337.0252368164
 21
16.1072598267
 31
0.0
  0
LWPOLYLINE
  5
392
330
221
100
AcDbEntity
  8
0
  6
Continuous
 62
     2
100
AcDbPolyline
 90
        5
 70
     0
 43
0.0
 10
337.0252368164
 20
15.7989280701
 10
337.2218041992
 20
16.1072598267
 10
337.418371582
 20
16.1072598267
 10
337.6149389648
 20
15.7989280701
 10
337.6149389648
 20
14.8739263916
  0
LWPOLYLINE
  5
393
330
221
100
AcDbEntity
  8
0
  6
Continuous
 62
     2
100
AcDbPolyline
 90
        8
 70
     0
 43
0.0
 10
339.0891430664
 20
15.0280938721
 10
338.8926013184
 20
14.8739263916
 10
338.6960339355
 20
15.0280938721
 10
338.4994665527
 20
15.3364256287
 10
338.4994665527
 20
15.6447605896
 10
338.6960339355
 20
15.9530923462
 10
338.8926013184
 20
16.1072598267
 10
339.0891430664
 20
15.9530923462
  0
LWPOLYLINE
  5
394
330
221
100
AcDbEntity
  8
0
  6
Continuous
 62
     2
100
AcDbPolyline
 90
       11
 70
     0
 43
0.0
 10
340.7599401855
 20
15.1822613525
 10
340.6616564941
 20
15.0280938721
 10
340.4650891113
 20
14.8739263916
 10
340.2685217285
 20
15.0280938721
 10
340.0719543457
 20
15.3364256287
 10
340.0719543457
 20
15.6447605896
 10
340.2685217285
 20
15.9530923462
 10
340.4650891113
 20
16.1072598267
 10
340.6616564941
 20
15.9530923462
 10
340.7599401855
 20
15.6447605896
 10
340.0719543457
 20
15.6447605896
  0
LWPOLYLINE
  5
395
330
221
100
AcDbEntity
  8
0
  6
Continuous
 62
     2
100
AcDbPolyline
 90
        5
 70
     0
 43
0.0
 10
343.118671875
 20
16.1072598267
 10
343.3152392578
 20
14.8739263916
 10
343.610090332
 20
16.1072598267
 10
343.8066577148
 20
14.8739263916
 10
344.1015087891
 20
16.1072598267
  0
LINE
  5
396
330
221
100
AcDbEntity
  8
0
  6
Continuous
 62
     2
100
AcDbLine
 10
345.182578125
 20
16.7239265442
 30
0.0
 11
345.182578125
 21
16.5697590637
 31
0.0
  0
LINE
  5
397
330
221
100
AcDbEntity
  8
0
  6
Continuous
 62
     2
100
AcDbLine
 10
345.182578125
 20
16.1072598267
 30
0.0
 11
345.182578125
 21
14.8739263916
 31
0.0
  0
LINE
  5
398
330
221
100
AcDbEntity
  8
0
  6
Continuous
 62
     2
100
AcDbLine
 10
346.7550915527
 20
14.8739263916
 30
0.0
 11
346.7550915527
 21
16.7239265442
 31
0.0
  0
LINE
  5
399
330
221
100
AcDbEntity
  8
0
  6
Continuous
 62
     2
100
AcDbLine
 10
346.4602404785
 20
15.9530923462
 30
0.0
 11
347.049942627
 21
15.9530923462
 31
0.0
  0
LINE
  5
39A
330
221
100
AcDbEntity
  8
0
  6
Continuous
 62
     2
100
AcDbLine
 10
348.0327539062
 20
14.8739263916
 30
0.0
 11
348.0327539062
 21
16.7239265442
 31
0.0
  0
LWPOLYLINE
  5
39B
330
221
100
AcDbEntity
  8
0
  6
Continuous
 62
     2
100
AcDbPolyline
 90
        7
 70
     0
 43
0.0
 10
348.0327539062
 20
15.7989280701
 10
348.0327539062
 20
15.9530923462
 10
348.2293212891
 20
16.1072598267
 10
348.3275793457
 20
16.1072598267
 10
348.4258630371
 20
16.1072598267
 10
348.6224304199
 20
15.7989280701
 10
348.6224304199
 20
14.8739263916
  0
LINE
  5
39C
330
221
100
AcDbEntity
  8
0
  6
Continuous
 62
     2
100
AcDbLine
 10
351.4725805664
 20
14.8739263916
 30
0.0
 11
351.4725805664
 21
16.7239265442
 31
0.0
  0
LINE
  5
39D
330
221
100
AcDbEntity
  8
0
  6
Continuous
 62
     2
100
AcDbLine
 10
351.177755127
 20
15.9530923462
 30
0.0
 11
351.7674316406
 21
15.9530923462
 31
0.0
  0
LINE
  5
39E
330
221
100
AcDbEntity
  8
0
  6
Continuous
 62
     2
100
AcDbLine
 10
352.7502429199
 20
14.8739263916
 30
0.0
 11
352.7502429199
 21
16.7239265442
 31
0.0
  0
LWPOLYLINE
  5
39F
330
221
100
AcDbEntity
  8
0
  6
Continuous
 62
     2
100
AcDbPolyline
 90
        7
 70
     0
 43
0.0
 10
352.7502429199
 20
15.7989280701
 10
352.7502429199
 20
15.9530923462
 10
352.9468103027
 20
16.1072598267
 10
353.0450939941
 20
16.1072598267
 10
353.1433776855
 20
16.1072598267
 10
353.3399450684
 20
15.7989280701
 10
353.3399450684
 20
14.8739263916
  0
LWPOLYLINE
  5
3A0
330
221
100
AcDbEntity
  8
0
  6
Continuous
 62
     2
100
AcDbPolyline
 90
       11
 70
     0
 43
0.0
 10
354.9124328613
 20
15.1822613525
 10
354.8141491699
 20
15.0280938721
 10
354.6175817871
 20
14.8739263916
 10
354.4210400391
 20
15.0280938721
 10
354.2244726562
 20
15.3364256287
 10
354.2244726562
 20
15.6447605896
 10
354.4210400391
 20
15.9530923462
 10
354.6175817871
 20
16.1072598267
 10
354.8141491699
 20
15.9530923462
 10
354.9124328613
 20
15.6447605896
 10
354.2244726562
 20
15.6447605896
  0
LINE
  5
3A1
330
221
100
AcDbEntity
  8
0
  6
Continuous
 62
     2
100
AcDbLine
 10
357.7625830078
 20
14.8739263916
 30
0.0
 11
357.7625830078
 21
16.7239265442
 31
0.0
  0
LWPOLYLINE
  5
3A2
330
221
100
AcDbEntity
  8
0
  6
Continuous
 62
     2
100
AcDbPolyline
 90
       10
 70
     0
 43
0.0
 10
359.7282055664
 20
15.3364256287
 10
359.5316638184
 20
15.0280938721
 10
359.3350964355
 20
14.8739263916
 10
359.1385290527
 20
15.0280938721
 10
358.9419616699
 20
15.3364256287
 10
358.9419616699
 20
15.6447605896
 10
359.1385290527
 20
15.9530923462
 10
359.3350964355
 20
16.1072598267
 10
359.5316638184
 20
15.9530923462
 10
359.7282055664
 20
15.6447605896
  0
LINE
  5
3A3
330
221
100
AcDbEntity
  8
0
  6
Continuous
 62
     2
100
AcDbLine
 10
359.7282055664
 20
16.1072598267
 30
0.0
 11
359.7282055664
 21
14.8739263916
 31
0.0
  0
LWPOLYLINE
  5
3A4
330
221
100
AcDbEntity
  8
0
  6
Continuous
 62
     2
100
AcDbPolyline
 90
        5
 70
     0
 43
0.0
 10
360.4161914062
 20
16.1072598267
 10
360.6127587891
 20
14.8739263916
 10
360.9075842285
 20
16.1072598267
 10
361.1041516113
 20
14.8739263916
 10
361.3990026855
 20
16.1072598267
  0
LINE
  5
3A5
330
221
100
AcDbEntity
  8
0
  6
Continuous
 62
     2
100
AcDbLine
 10
364.0525854492
 20
16.7239265442
 30
0.0
 11
364.0525854492
 21
16.5697590637
 31
0.0
  0
LINE
  5
3A6
330
221
100
AcDbEntity
  8
0
  6
Continuous
 62
     2
100
AcDbLine
 10
364.0525854492
 20
16.1072598267
 30
0.0
 11
364.0525854492
 21
14.8739263916
 31
0.0
  0
LINE
  5
3A7
330
221
100
AcDbEntity
  8
0
  6
Continuous
 62
     2
100
AcDbLine
 10
365.3302478027
 20
14.8739263916
 30
0.0
 11
365.3302478027
 21
16.1072598267
 31
0.0
  0
LWPOLYLINE
  5
3A8
330
221
100
AcDbEntity
  8
0
  6
Continuous
 62
     2
100
AcDbPolyline
 90
        5
 70
     0
 43
0.0
 10
365.3302478027
 20
15.7989280701
 10
365.5268151855
 20
16.1072598267
 10
365.7233825684
 20
16.1072598267
 10
365.9199243164
 20
15.7989280701
 10
365.9199243164
 20
14.8739263916
  0
LWPOLYLINE
  5
3A9
330
221
100
AcDbEntity
  8
0
  6
Continuous
 62
     2
100
AcDbPolyline
 90
        5
 70
     0
 43
0.0
 10
368.7701000977
 20
14.8739263916
 10
368.7701000977
 20
16.4155947876
 10
368.9666418457
 20
16.7239265442
 10
369.0649255371
 20
16.7239265442
 10
369.1632092285
 20
16.5697590637
  0
LINE
  5
3AA
330
221
100
AcDbEntity
  8
0
  6
Continuous
 62
     2
100
AcDbLine
 10
368.5735327148
 20
15.9530923462
 30
0.0
 11
368.9666418457
 21
15.9530923462
 31
0.0
  0
LWPOLYLINE
  5
3AB
330
221
100
AcDbEntity
  8
0
  6
Continuous
 62
     2
100
AcDbPolyline
 90
       11
 70
     0
 43
0.0
 10
370.7357226563
 20
15.3364256287
 10
370.5391552734
 20
15.0280938721
 10
370.3425878906
 20
14.8739263916
 10
370.1460205078
 20
15.0280938721
 10
369.949453125
 20
15.3364256287
 10
369.949453125
 20
15.6447605896
 10
370.1460205078
 20
15.9530923462
 10
370.3425878906
 20
16.1072598267
 10
370.5391552734
 20
15.9530923462
 10
370.7357226563
 20
15.6447605896
 10
370.7357226563
 20
15.3364256287
  0
LINE
  5
3AC
330
221
100
AcDbEntity
  8
0
  6
Continuous
 62
     2
100
AcDbLine
 10
371.6202502441
 20
14.8739263916
 30
0.0
 11
371.6202502441
 21
16.1072598267
 31
0.0
  0
LWPOLYLINE
  5
3AD
330
221
100
AcDbEntity
  8
0
  6
Continuous
 62
     2
100
AcDbPolyline
 90
        4
 70
     0
 43
0.0
 10
371.6202502441
 20
15.7989280701
 10
371.816817627
 20
16.1072598267
 10
372.013359375
 20
16.1072598267
 10
372.1116430664
 20
15.9530923462
  0
LWPOLYLINE
  5
3AE
330
221
100
AcDbEntity
  8
0
  6
Continuous
 62
     2
100
AcDbPolyline
 90
        8
 70
     0
 43
0.0
 10
373.6841564941
 20
15.0280938721
 10
373.4875891113
 20
14.8739263916
 10
373.2910217285
 20
15.0280938721
 10
373.0944543457
 20
15.3364256287
 10
373.0944543457
 20
15.6447605896
 10
373.2910217285
 20
15.9530923462
 10
373.4875891113
 20
16.1072598267
 10
373.6841564941
 20
15.9530923462
  0
LWPOLYLINE
  5
3AF
330
221
100
AcDbEntity
  8
0
  6
Continuous
 62
     2
100
AcDbPolyline
 90
       11
 70
     0
 43
0.0
 10
375.3549279785
 20
15.1822613525
 10
375.2566442871
 20
15.0280938721
 10
375.0601025391
 20
14.8739263916
 10
374.8635351563
 20
15.0280938721
 10
374.6669677734
 20
15.3364256287
 10
374.6669677734
 20
15.6447605896
 10
374.8635351563
 20
15.9530923462
 10
375.0601025391
 20
16.1072598267
 10
375.2566442871
 20
15.9530923462
 10
375.3549279785
 20
15.6447605896
 10
374.6669677734
 20
15.6447605896
  0
LWPOLYLINE
  5
3B0
330
221
100
AcDbEntity
  8
0
  6
Continuous
 62
     2
100
AcDbPolyline
 90
        4
 70
     0
 43
0.0
 10
376.632590332
 20
14.8739263916
 10
376.5343066406
 20
14.8739263916
 10
376.5343066406
 20
15.0280938721
 10
376.632590332
 20
14.8739263916
  0
LWPOLYLINE
  5
3B1
330
221
100
AcDbEntity
  8
0
  6
Continuous
 62
     2
100
AcDbPolyline
 90
        3
 70
     0
 43
0.0
 10
321.1036889648
 20
12.0989277649
 10
321.5950817871
 20
13.9489279175
 10
322.0865002441
 20
12.0989277649
  0
LINE
  5
3B2
330
221
100
AcDbEntity
  8
0
  6
Continuous
 62
     2
100
AcDbLine
 10
321.3002563477
 20
12.7155944824
 30
0.0
 11
321.8899328613
 21
12.7155944824
 31
0.0
  0
LINE
  5
3B3
330
221
100
AcDbEntity
  8
0
  6
Continuous
 62
     2
100
AcDbLine
 10
323.1675952148
 20
12.0989277649
 30
0.0
 11
323.1675952148
 21
13.9489279175
 31
0.0
  0
LINE
  5
3B4
330
221
100
AcDbEntity
  8
0
  6
Continuous
 62
     2
100
AcDbLine
 10
324.7400830078
 20
12.0989277649
 30
0.0
 11
324.7400830078
 21
13.9489279175
 31
0.0
  0
LINE
  5
3B5
330
221
100
AcDbEntity
  8
0
  6
Continuous
 62
     2
100
AcDbLine
 10
327.5902587891
 20
12.0989277649
 30
0.0
 11
327.5902587891
 21
13.3322612
 31
0.0
  0
LWPOLYLINE
  5
3B6
330
221
100
AcDbEntity
  8
0
  6
Continuous
 62
     2
100
AcDbPolyline
 90
        4
 70
     0
 43
0.0
 10
327.5902587891
 20
13.023926239
 10
327.7868005371
 20
13.3322612
 10
327.9833679199
 20
13.3322612
 10
328.0816516113
 20
13.1780937195
  0
LINE
  5
3B7
330
221
100
AcDbEntity
  8
0
  6
Continuous
 62
     2
100
AcDbLine
 10
329.4575976563
 20
13.9489279175
 30
0.0
 11
329.4575976563
 21
13.794760437
 31
0.0
  0
LINE
  5
3B8
330
221
100
AcDbEntity
  8
0
  6
Continuous
 62
     2
100
AcDbLine
 10
329.4575976563
 20
13.3322612
 30
0.0
 11
329.4575976563
 21
12.0989277649
 31
0.0
  0
LWPOLYLINE
  5
3B9
330
221
100
AcDbEntity
  8
0
  6
Continuous
 62
     2
100
AcDbPolyline
 90
       10
 70
     0
 43
0.0
 10
331.4232202148
 20
12.561427002
 10
331.226652832
 20
12.2530952454
 10
331.0300854492
 20
12.0989277649
 10
330.8335180664
 20
12.2530952454
 10
330.6369763184
 20
12.561427002
 10
330.6369763184
 20
12.8697619629
 10
330.8335180664
 20
13.1780937195
 10
331.0300854492
 20
13.3322612
 10
331.226652832
 20
13.1780937195
 10
331.4232202148
 20
12.8697619629
  0
LWPOLYLINE
  5
3BA
330
221
100
AcDbEntity
  8
0
  6
Continuous
 62
     2
100
AcDbPolyline
 90
        6
 70
     0
 43
0.0
 10
331.4232202148
 20
13.3322612
 10
331.4232202148
 20
11.9447602844
 10
331.3249365234
 20
11.6364285278
 10
331.226652832
 20
11.4822610474
 10
330.8335180664
 20
11.4822610474
 10
330.735234375
 20
11.6364285278
  0
LINE
  5
3BB
330
221
100
AcDbEntity
  8
0
  6
Continuous
 62
     2
100
AcDbLine
 10
332.3077478027
 20
12.0989277649
 30
0.0
 11
332.3077478027
 21
13.9489279175
 31
0.0
  0
LWPOLYLINE
  5
3BC
330
221
100
AcDbEntity
  8
0
  6
Continuous
 62
     2
100
AcDbPolyline
 90
        7
 70
     0
 43
0.0
 10
332.3077478027
 20
13.023926239
 10
332.3077478027
 20
13.1780937195
 10
332.5043151855
 20
13.3322612
 10
332.602598877
 20
13.3322612
 10
332.7008825684
 20
13.3322612
 10
332.8974243164
 20
13.023926239
 10
332.8974243164
 20
12.0989277649
  0
LINE
  5
3BD
330
221
100
AcDbEntity
  8
0
  6
Continuous
 62
     2
100
AcDbLine
 10
334.1750866699
 20
12.0989277649
 30
0.0
 11
334.1750866699
 21
13.9489279175
 31
0.0
  0
LINE
  5
3BE
330
221
100
AcDbEntity
  8
0
  6
Continuous
 62
     2
100
AcDbLine
 10
333.8802355957
 20
13.1780937195
 30
0.0
 11
334.4699377441
 21
13.1780937195
 31
0.0
  0
LWPOLYLINE
  5
3BF
330
221
100
AcDbEntity
  8
0
  6
Continuous
 62
     2
100
AcDbPolyline
 90
       14
 70
     0
 43
0.0
 10
335.9441418457
 20
13.1780937195
 10
335.8458837891
 20
13.3322612
 10
335.6493164062
 20
13.3322612
 10
335.5510327148
 20
13.1780937195
 10
335.5510327148
 20
13.023926239
 10
335.7476000977
 20
12.8697619629
 10
335.9441418457
 20
12.7155944824
 10
336.0424255371
 20
12.561427002
 10
336.0424255371
 20
12.4072595215
 10
335.9441418457
 20
12.2530952454
 10
335.8458837891
 20
12.0989277649
 10
335.6493164062
 20
12.0989277649
 10
335.5510327148
 20
12.2530952454
 10
335.4527490234
 20
12.4072595215
  0
LINE
  5
3C0
330
221
100
AcDbEntity
  8
0
  6
Continuous
 62
     2
100
AcDbLine
 10
338.5977502441
 20
12.0989277649
 30
0.0
 11
338.5977502441
 21
13.3322612
 31
0.0
  0
LWPOLYLINE
  5
3C1
330
221
100
AcDbEntity
  8
0
  6
Continuous
 62
     2
100
AcDbPolyline
 90
        4
 70
     0
 43
0.0
 10
338.5977502441
 20
13.023926239
 10
338.794317627
 20
13.3322612
 10
338.990859375
 20
13.3322612
 10
339.0891430664
 20
13.1780937195
  0
LWPOLYLINE
  5
3C2
330
221
100
AcDbEntity
  8
0
  6
Continuous
 62
     2
100
AcDbPolyline
 90
       11
 70
     0
 43
0.0
 10
340.7599401855
 20
12.4072595215
 10
340.6616564941
 20
12.2530952454
 10
340.4650891113
 20
12.0989277649
 10
340.2685217285
 20
12.2530952454
 10
340.0719543457
 20
12.561427002
 10
340.0719543457
 20
12.8697619629
 10
340.2685217285
 20
13.1780937195
 10
340.4650891113
 20
13.3322612
 10
340.6616564941
 20
13.1780937195
 10
340.7599401855
 20
12.8697619629
 10
340.0719543457
 20
12.8697619629
  0
LWPOLYLINE
  5
3C3
330
221
100
AcDbEntity
  8
0
  6
Continuous
 62
     2
100
AcDbPolyline
 90
       14
 70
     0
 43
0.0
 10
342.2341442871
 20
13.1780937195
 10
342.1358605957
 20
13.3322612
 10
341.9393188477
 20
13.3322612
 10
341.8410351562
 20
13.1780937195
 10
341.8410351562
 20
13.023926239
 10
342.0376025391
 20
12.8697619629
 10
342.2341442871
 20
12.7155944824
 10
342.3324279785
 20
12.561427002
 10
342.3324279785
 20
12.4072595215
 10
342.2341442871
 20
12.2530952454
 10
342.1358605957
 20
12.0989277649
 10
341.9393188477
 20
12.0989277649
 10
341.8410351562
 20
12.2530952454
 10
341.7427514648
 20
12.4072595215
  0
LWPOLYLINE
  5
3C4
330
221
100
AcDbEntity
  8
0
  6
Continuous
 62
     2
100
AcDbPolyline
 90
       11
 70
     0
 43
0.0
 10
343.9049414062
 20
12.4072595215
 10
343.8066577148
 20
12.2530952454
 10
343.610090332
 20
12.0989277649
 10
343.4135229492
 20
12.2530952454
 10
343.2169555664
 20
12.561427002
 10
343.2169555664
 20
12.8697619629
 10
343.4135229492
 20
13.1780937195
 10
343.610090332
 20
13.3322612
 10
343.8066577148
 20
13.1780937195
 10
343.9049414062
 20
12.8697619629
 10
343.2169555664
 20
12.8697619629
  0
LINE
  5
3C5
330
221
100
AcDbEntity
  8
0
  6
Continuous
 62
     2
100
AcDbLine
 10
344.8877526855
 20
12.0989277649
 30
0.0
 11
344.8877526855
 21
13.3322612
 31
0.0
  0
LWPOLYLINE
  5
3C6
330
221
100
AcDbEntity
  8
0
  6
Continuous
 62
     2
100
AcDbPolyline
 90
        4
 70
     0
 43
0.0
 10
344.8877526855
 20
13.023926239
 10
345.0843200684
 20
13.3322612
 10
345.2808618164
 20
13.3322612
 10
345.3791455078
 20
13.1780937195
  0
LWPOLYLINE
  5
3C7
330
221
100
AcDbEntity
  8
0
  6
Continuous
 62
     2
100
AcDbPolyline
 90
        3
 70
     0
 43
0.0
 10
346.4602404785
 20
13.3322612
 10
346.7550915527
 20
12.0989277649
 10
347.049942627
 20
13.3322612
  0
LWPOLYLINE
  5
3C8
330
221
100
AcDbEntity
  8
0
  6
Continuous
 62
     2
100
AcDbPolyline
 90
       11
 70
     0
 43
0.0
 10
348.6224304199
 20
12.4072595215
 10
348.5241467285
 20
12.2530952454
 10
348.3275793457
 20
12.0989277649
 10
348.1310375977
 20
12.2530952454
 10
347.9344702148
 20
12.561427002
 10
347.9344702148
 20
12.8697619629
 10
348.1310375977
 20
13.1780937195
 10
348.3275793457
 20
13.3322612
 10
348.5241467285
 20
13.1780937195
 10
348.6224304199
 20
12.8697619629
 10
347.9344702148
 20
12.8697619629
  0
LWPOLYLINE
  5
3C9
330
221
100
AcDbEntity
  8
0
  6
Continuous
 62
     2
100
AcDbPolyline
 90
       10
 70
     0
 43
0.0
 10
350.2932275391
 20
12.561427002
 10
350.0966601562
 20
12.2530952454
 10
349.9000927734
 20
12.0989277649
 10
349.7035253906
 20
12.2530952454
 10
349.5069580078
 20
12.561427002
 10
349.5069580078
 20
12.8697619629
 10
349.7035253906
 20
13.1780937195
 10
349.9000927734
 20
13.3322612
 10
350.0966601562
 20
13.1780937195
 10
350.2932275391
 20
12.8697619629
  0
LINE
  5
3CA
330
221
100
AcDbEntity
  8
0
  6
Continuous
 62
     2
100
AcDbLine
 10
350.2932275391
 20
13.9489279175
 30
0.0
 11
350.2932275391
 21
12.0989277649
 31
0.0
  0
LWPOLYLINE
  5
3CB
330
221
100
AcDbEntity
  8
0
  6
Continuous
 62
     2
100
AcDbPolyline
 90
        4
 70
     0
 43
0.0
 10
351.4725805664
 20
12.0989277649
 10
351.374296875
 20
12.0989277649
 10
351.374296875
 20
12.2530952454
 10
351.4725805664
 20
12.0989277649
  0
ACAD_TABLE
  5
3CC
330
221
100
AcDbEntity
  8
0
  6
Continuous
 62
     2
 92
     1136
310
700400000E000000880000001D000000000000000000F03F00000000000000000000000000000000D937513524F573400000000000000000000000000000F03F00000000000000008357C90A1083494000000000000000000000000000000000000000000000F03F0000000000000000000000000000000000000000000000
310
000000000000000000000000000000F03F54000000200000000200000000000000000000000000000000000000000000000000000000000000008056400000000000000000000000000000000000000000000000000000000000000000000000000000F03F5400000020000000020000000000000000000000000000000000
310
00000000000000000000000000000000000000000000000044C0000000000000000000000000000000000000000000000000000000000000F03F5400000020000000020000000000000000003E4000000000000018C00000000000000000000000000080564000000000000018C00000000000000000000000000000000000
310
00000000000000000000000000F03F5400000020000000020000000000000000003E4000000000000028C00000000000000000000000000080564000000000000028C0000000000000000000000000000000000000000000000000000000000000F03F5400000020000000020000000000000000003E4000000000000036C0
310
0000000000000000000000000080564000000000000036C0000000000000000000000000000000000000000000000000000000000000F03F54000000200000000200000000000000000000000000000000003BC0000000000000000000000000008056400000000000003BC000000000000000000000000000000000000000
310
0000000000000000000000F03F540000002000000002000000000000000000000000000000000044C00000000000000000000000000080564000000000000044C0000000000000000000000000000000000000000000000000000000000000F03F5400000020000000020000000000000000003E4000000000000000000000
310
0000000000000000000000003E400000000000003BC0000000000000000000000000000000000000000000000000000000000000F03F540000002000000002000000000000000080514000000000000000000000000000000000000000000080514000000000000028C0000000000000000000000000000000000000000000
310
000000000000000000F03F540000002000000002000000000000000080564000000000000000000000000000000000000000000080564000000000000044C0000000000000000000000000000000000000000000000000000000000000F03F080000001F000000880000001D000000000000000000F03F0000000000000000
310
000000000000000000000000000000000000000000000000000000000000F03F0000000000000000000000000000000000000000000000000000000000000000000000000000F03F0000000000000000000000000000000000000000000000000000000000000000000000000000F03F080000001F000000
100
AcDbBlockReference
  2
*T6
 10
319.3213399098
 20
51.0239270671
 30
0.0
100
AcDbTable
342
562
343
229
 11
1.0
 21
0.0
 31
0.0
 90
       54
 91
        5
 92
        5
 93
        0
 94
        0
 95
        0
 96
        0
141
6.0
141
6.0
141
10.0
141
5.0
141
13.0
142
10.0
142
10.0
142
10.0
142
40.0
142
20.0
171
     1
172
     0
173
     0
174
     0
175
     3
176
     4
 91
        1
178
     0
145
0.0
170
     5
 92
        0
301
CELL_VALUE
 93
        3
 90
        0
 91
        0
 94
        0
300

302

304
ACVALUE_END
171
     1
172
     0
173
     1
174
     0
175
     1
176
     1
 91
        0
178
     0
145
0.0
 92
        0
301
CELL_VALUE
 93
        3
 90
        0
 91
        0
 94
        0
300

302

304
ACVALUE_END
171
     1
172
     0
173
     1
174
     0
175
     1
176
     1
 91
        0
178
     0
145
0.0
 92
        0
301
CELL_VALUE
 93
        3
 90
        0
 91
        0
 94
        0
300

302

304
ACVALUE_END
171
     1
172
     0
173
     0
174
     0
175
     1
176
     1
 91
       33
178
     0
145
0.0
170
     4
140
3.0
 92
        0
301
CELL_VALUE
 93
        4
 90
        4
  1
{\Ftxt.shx;\W6.833333;\H3.000000; }
 94
        0
300

302
{\Ftxt.shx;\W6.833333;\H3.000000; }
304
ACVALUE_END
171
     1
172
     0
173
     0
174
     0
175
     1
176
     1
 91
       32
178
     0
145
0.0
140
3.5
 92
        0
301
CELL_VALUE
 93
        4
 90
        4
  1
{\Ftxt.shx;\W5.100000;\H3.500000; }
 94
        0
300

302
{\Ftxt.shx;\W5.100000;\H3.500000; }
304
ACVALUE_END
171
     1
172
     0
173
     1
174
     0
175
     1
176
     1
 91
        0
178
     0
145
0.0
 92
        0
301
CELL_VALUE
 93
        3
 90
        0
 91
        0
 94
        0
300

302

304
ACVALUE_END
171
     1
172
     0
173
     1
174
     0
175
     1
176
     1
 91
        0
178
     0
145
0.0
 92
        0
301
CELL_VALUE
 93
        3
 90
        0
 91
        0
 94
        0
300

302

304
ACVALUE_END
171
     1
172
     0
173
     1
174
     0
175
     1
176
     1
 91
        0
178
     0
145
0.0
 92
        0
301
CELL_VALUE
 93
        3
 90
        0
 91
        0
 94
        0
300

302

304
ACVALUE_END
171
     1
172
     0
173
     0
174
     0
175
     1
176
     1
 91
       32
178
     0
145
0.0
140
3.5
 92
        0
301
CELL_VALUE
 93
        4
 90
        4
  1
{\Ftxt.shx;\W3.714286;\H3.500000; }{\Ftxt.shx;\W2.714286;\H3.500000; }
 94
        0
300

302
{\Ftxt.shx;\W3.714286;\H3.500000; }{\Ftxt.shx;\W2.714286;\H3.500000; }
304
ACVALUE_END
171
     1
172
     0
173
     0
174
     0
175
     1
176
     1
 91
       33
178
     0
145
0.0
170
     4
140
3.5
 92
        0
301
CELL_VALUE
 93
        4
 90
        4
  1
{\Ftxt.shx;\W1.571429;\H3.500000; }
 94
        0
300

302
{\Ftxt.shx;\W1.571429;\H3.500000; }
304
ACVALUE_END
171
     1
172
     0
173
     1
174
     0
175
     1
176
     1
 91
        0
178
     0
145
0.0
 92
        0
301
CELL_VALUE
 93
        3
 90
        0
 91
        0
 94
        0
300

302

304
ACVALUE_END
171
     1
172
     0
173
     1
174
     0
175
     1
176
     1
 91
        0
178
     0
145
0.0
 92
        0
301
CELL_VALUE
 93
        3
 90
        0
 91
        0
 94
        0
300

302

304
ACVALUE_END
171
     1
172
     0
173
     1
174
     0
175
     1
176
     1
 91
        0
178
     0
145
0.0
 92
        0
301
CELL_VALUE
 93
        3
 90
        0
 91
        0
 94
        0
300

302

304
ACVALUE_END
171
     1
172
     0
173
     0
174
     0
175
     2
176
     1
 91
       33
178
     0
145
0.0
170
     4
140
3.5
 92
        0
301
CELL_VALUE
 93
        4
 90
        4
  1
{\Ftxt.shx;\W8.928571;\H3.500000; }{\Ftxt.shx;\W0.785714;\H3.500000; }
 94
        0
300

302
{\Ftxt.shx;\W8.928571;\H3.500000; }{\Ftxt.shx;\W0.785714;\H3.500000; }
304
ACVALUE_END
171
     1
172
     0
173
     1
174
     0
175
     1
176
     1
 91
        0
178
     0
145
0.0
 92
        0
301
CELL_VALUE
 93
        3
 90
        0
 91
        0
 94
        0
300

302

304
ACVALUE_END
171
     1
172
     0
173
     1
174
     0
175
     1
176
     1
 91
        0
178
     0
145
0.0
 92
        0
301
CELL_VALUE
 93
        3
 90
        0
 91
        0
 94
        0
300

302

304
ACVALUE_END
171
     1
172
     0
173
     1
174
     0
175
     1
176
     1
 91
        0
178
     0
145
0.0
 92
        0
301
CELL_VALUE
 93
        3
 90
        0
 91
        0
 94
        0
300

302

304
ACVALUE_END
171
     1
172
     0
173
     1
174
     0
175
     1
176
     1
 91
        0
178
     0
145
0.0
 92
        0
301
CELL_VALUE
 93
        3
 90
        0
 91
        0
 94
        0
300

302

304
ACVALUE_END
171
     1
172
     0
173
     0
174
     0
175
     2
176
     1
 91
       33
178
     0
145
0.0
170
     4
140
2.5
 92
        0
301
CELL_VALUE
 93
        4
 90
        4
  1
{\Ftxt.shx;\W11.261905;\H2.500000; }
 94
        0
300

302
{\Ftxt.shx;\W11.261905;\H2.500000; }
304
ACVALUE_END
171
     1
172
     0
173
     1
174
     0
175
     1
176
     1
 91
        0
178
     0
145
0.0
 92
        0
301
CELL_VALUE
 93
        3
 90
        0
 91
        0
 94
        0
300

302

304
ACVALUE_END
171
     1
172
     0
173
     0
174
     0
175
     5
176
     1
 91
       32
178
     0
145
0.0
140
1.85
 92
        0
301
CELL_VALUE
 93
        4
 90
        4
  1
{\Ftxt.shx;\W45.050000;\H1.850000; }\P{\Ftxt.shx;\W28.050000;\H1.850000; }{\Ftxt.shx;\W7.650000;\H1.850000; }{\Ftxt.shx;\W13.600000;\H1.850000; }\P{\Ftxt.shx;\W31.450000;\H1.850000; }\P{\Ftxt.shx;\W17.000000;\H1.850000; }
 94
        0
300

302
{\Ftxt.shx;\W45.050000;\H1.850000; }\P{\Ftxt.shx;\W28.050000;\H1.850000; }{\Ftxt.shx;\W7.650000;\H1.850000; }{\Ftxt.shx;\W13.600000;\H1.850000; }\P{\Ftxt.shx;\W31.450000;\H1.850000; }\P{\Ftxt.shx;\W17.000000;\H1.850000; }
304
ACVALUE_END
171
     1
172
     0
173
     1
174
     0
175
     1
176
     1
 91
        0
178
     0
145
0.0
 92
        0
301
CELL_VALUE
 93
        3
 90
        0
 91
        0
 94
        0
300

302

304
ACVALUE_END
171
     1
172
     0
173
     1
174
     0
175
     1
176
     1
 91
        0
178
     0
145
0.0
 92
        0
301
CELL_VALUE
 93
        3
 90
        0
 91
        0
 94
        0
300

302

304
ACVALUE_END
171
     1
172
     0
173
     1
174
     0
175
     1
176
     1
 91
        0
178
     0
145
0.0
 92
        0
301
CELL_VALUE
 93
        3
 90
        0
 91
        0
 94
        0
300

302

304
ACVALUE_END
171
     1
172
     0
173
     1
174
     0
175
     1
176
     1
 91
        0
178
     0
145
0.0
 92
        0
301
CELL_VALUE
 93
        3
 90
        0
 91
        0
 94
        0
300

302

304
ACVALUE_END
  0
LINE
  5
3CD
330
221
100
AcDbEntity
  8
0
  6
Continuous
 62
     7
100
AcDbLine
 10
0.0
 20
0.0
 30
0.0
 11
0.0
 21
297.0
 31
0.0
  0
LWPOLYLINE
  5
3CE
330
221
100
AcDbEntity
  8
0
  6
Continuous
 62
     7
100
AcDbPolyline
 90
        2
 70
     0
 43
0.1000000003
 10
7.0536312849
 20
0.0
 10
7.0536312849
 20
297.0
  0
LWPOLYLINE
  5
3CF
330
221
100
AcDbEntity
  8
0
  6
Continuous
 62
     7
100
AcDbPolyline
 90
        2
 70
     0
 43
0.4999999952
 10
10.0536312849
 20
10.0318435754
 10
10.0536312849
 20
287.0
  0
LWPOLYLINE
  5
3D0
330
221
100
AcDbEntity
  8
0
  6
Continuous
 62
     2
100
AcDbPolyline
 90
        5
 70
     0
 43
0.0
 10
2.7895792007
 20
251.8807543945
 10
3.2657698059
 20
252.1664538574
 10
3.2657698059
 20
253.0236035156
 10
2.7895792007
 20
253.5950280762
 10
1.6467220688
 20
253.5950280762
  0
LINE
  5
3D1
330
221
100
AcDbEntity
  8
0
  6
Continuous
 62
     7
100
AcDbLine
 10
0.0
 20
0.0
 30
0.0
 11
420.0
 21
0.0
 31
0.0
  0
LINE
  5
3D2
330
221
100
AcDbEntity
  8
0
  6
Continuous
 62
     2
100
AcDbLine
 10
363.2799023437
 20
2.6920935059
 30
0.0
 11
364.6298803711
 21
2.6920935059
 31
0.0
  0
LINE
  5
3D3
330
221
100
AcDbEntity
  8
0
  6
Continuous
 62
     2
100
AcDbLine
 10
262.8298937988
 20
3.6920928955
 30
0.0
 11
264.4048937988
 21
3.6920928955
 31
0.0
  0
LWPOLYLINE
  5
3D4
330
221
100
AcDbEntity
  8
0
  6
Continuous
 62
     2
100
AcDbPolyline
 90
       12
 70
     0
 43
0.0
 10
56.6978659058
 20
5.535344696
 10
57.5978704834
 20
5.535344696
 10
58.0478695679
 20
5.2020094299
 10
58.2728659058
 20
4.8686773682
 10
58.4978686523
 20
4.5353453064
 10
58.7228713989
 20
3.5353427124
 10
58.4978686523
 20
2.5353433228
 10
58.2728659058
 20
2.202011261
 10
58.0478695679
 20
1.8686759949
 10
57.5978704834
 20
1.5353439331
 10
56.6978659058
 20
1.5353439331
 10
56.6978659058
 20
5.535344696
  0
LWPOLYLINE
  5
3D5
330
221
100
AcDbEntity
  8
0
  6
Continuous
 62
     7
100
AcDbPolyline
 90
        2
 70
     0
 43
0.1000000003
 10
0.0
 20
7.0318435754
 10
420.0
 20
7.0318435754
  0
LWPOLYLINE
  5
3D6
330
221
100
AcDbEntity
  8
0
  6
Continuous
 62
     7
100
AcDbPolyline
 90
        2
 70
     0
 43
0.4999999952
 10
10.0536312849
 20
10.0318435754
 10
410.0
 20
10.0318435754
  0
LWPOLYLINE
  5
3D7
330
221
100
AcDbEntity
  8
0
  6
Continuous
 62
     2
100
AcDbPolyline
 90
       15
 70
     0
 43
0.0
 10
164.8548962402
 20
292.0254382324
 10
164.629887085
 20
291.6920837402
 10
164.1798944092
 20
291.3587548828
 10
163.729888916
 20
291.3587548828
 10
163.2798962402
 20
291.6920837402
 10
163.054887085
 20
292.0254382324
 10
162.8298907471
 20
292.3587670898
 10
162.6048944092
 20
293.3587536621
 10
162.8298907471
 20
294.3587658691
 10
163.054887085
 20
294.6920947266
 10
163.2798962402
 20
295.025423584
 10
163.729888916
 20
295.3587524414
 10
164.1798944092
 20
295.3587524414
 10
164.629887085
 20
295.025423584
 10
164.8548962402
 20
294.6920947266
  0
LINE
  5
3D8
330
221
100
AcDbEntity
  8
0
  6
Continuous
 62
     7
100
AcDbLine
 10
113.0
 20
297.0
 30
0.0
 11
113.0
 21
290.0
 31
0.0
  0
LINE
  5
3D9
330
221
100
AcDbEntity
  8
0
  6
Continuous
 62
     7
100
AcDbLine
 10
113.0
 20
7.0
 30
0.0
 11
113.0
 21
0.0
 31
0.0
  0
LWPOLYLINE
  5
3DA
330
221
100
AcDbEntity
  8
0
  6
Continuous
 62
     7
100
AcDbPolyline
 90
        2
 70
     0
 43
0.1000000003
 10
123.0
 20
10.0
 10
123.0
 20
0.0
  0
LWPOLYLINE
  5
3DB
330
221
100
AcDbEntity
  8
0
  6
Continuous
 62
     7
100
AcDbPolyline
 90
        2
 70
     0
 43
0.1000000003
 10
123.0
 20
287.0
 10
123.0
 20
297.0
  0
LWPOLYLINE
  5
3DC
330
221
100
AcDbEntity
  8
0
  6
Continuous
 62
     2
100
AcDbPolyline
 90
        3
 70
     0
 43
0.0
 10
1.6467220688
 20
52.4521728516
 10
2.7895792007
 20
53.5950283813
 10
2.7895792007
 20
49.5950244141
  0
LINE
  5
3DD
330
221
100
AcDbEntity
  8
0
  6
Continuous
 62
     7
100
AcDbLine
 10
0.0
 20
99.9681564246
 30
0.0
 11
7.0
 21
99.9681564246
 31
0.0
  0
LWPOLYLINE
  5
3DE
330
221
100
AcDbEntity
  8
0
  6
Continuous
 62
     2
100
AcDbPolyline
 90
        9
 70
     0
 43
0.0
 10
56.2378820801
 20
295.2461645508
 10
56.6878811646
 20
294.5794812012
 10
56.9128839111
 20
293.5794946289
 10
56.6878811646
 20
292.5794824219
 10
56.4628848267
 20
292.2461535645
 10
56.2378820801
 20
291.912824707
 10
55.7878829956
 20
291.5794958496
 10
54.8878848267
 20
291.5794958496
 10
54.8878848267
 20
295.5794934082
  0
LINE
  5
3DF
330
221
100
AcDbEntity
  8
0
  6
Continuous
 62
     7
100
AcDbLine
 10
413.0
 20
107.0
 30
0.0
 11
420.0
 21
107.0
 31
0.0
  0
LWPOLYLINE
  5
3E0
330
221
100
AcDbEntity
  8
0
  6
Continuous
 62
     7
100
AcDbPolyline
 90
        2
 70
     0
 43
0.1000000003
 10
210.0
 20
10.0
 10
210.0
 20
0.0
  0
LWPOLYLINE
  5
3E1
330
221
100
AcDbEntity
  8
0
  6
Continuous
 62
     7
100
AcDbPolyline
 90
        2
 70
     0
 43
0.1000000003
 10
210.0
 20
287.0
 10
210.0
 20
297.0
  0
LWPOLYLINE
  5
3E2
330
221
100
AcDbEntity
  8
0
  6
Continuous
 62
     7
100
AcDbPolyline
 90
        2
 70
     0
 43
0.1000000003
 10
10.0
 20
148.5
 10
0.0
 20
148.5
  0
LWPOLYLINE
  5
3E3
330
221
100
AcDbEntity
  8
0
  6
Continuous
 62
     7
100
AcDbPolyline
 90
        2
 70
     0
 43
0.1000000003
 10
410.0
 20
148.5
 10
420.0
 20
148.5
  0
LWPOLYLINE
  5
3E4
330
221
100
AcDbEntity
  8
0
  6
Continuous
 62
     2
100
AcDbPolyline
 90
        7
 70
     0
 43
0.0
 10
3.6467220497
 20
149.5950274658
 10
1.6467220688
 20
149.5950274658
 10
3.6467220497
 20
152.4521759033
 10
3.6467220497
 20
153.0236004639
 10
3.0752934837
 20
153.5950250244
 10
2.2181506348
 20
153.5950250244
 10
1.6467220688
 20
152.7378881836
  0
LWPOLYLINE
  5
3E5
330
221
100
AcDbEntity
  8
0
  6
Continuous
 62
     2
100
AcDbPolyline
 90
        5
 70
     0
 43
0.0
 10
415.7895666504
 20
258.9125756836
 10
416.2657580566
 20
259.1983007812
 10
416.2657580566
 20
260.0554504395
 10
415.7895666504
 20
260.626875
 10
414.6467175293
 20
260.626875
  0
LWPOLYLINE
  5
3E6
330
221
100
AcDbEntity
  8
0
  6
Continuous
 62
     2
100
AcDbPolyline
 90
        7
 70
     0
 43
0.0
 10
416.6467163086
 20
156.6268743896
 10
414.6467175293
 20
156.6268743896
 10
416.6467163086
 20
159.4840100098
 10
416.6467163086
 20
160.0554473877
 10
416.075291748
 20
160.6268719482
 10
415.2181420898
 20
160.6268719482
 10
414.6467175293
 20
159.76972229
  0
LWPOLYLINE
  5
3E7
330
221
100
AcDbEntity
  8
0
  6
Continuous
 62
     2
100
AcDbPolyline
 90
       15
 70
     0
 43
0.0
 10
164.8548962402
 20
2.025426178
 10
164.629887085
 20
1.6920941162
 10
164.1798944092
 20
1.3587588501
 10
163.729888916
 20
1.3587588501
 10
163.2798962402
 20
1.6920941162
 10
163.054887085
 20
2.025426178
 10
162.8298907471
 20
2.3587614441
 10
162.6048944092
 20
3.3587608337
 10
162.8298907471
 20
4.3587602234
 10
163.054887085
 20
4.6920922852
 10
163.2798962402
 20
5.0254275513
 10
163.729888916
 20
5.358759613
 10
164.1798944092
 20
5.358759613
 10
164.629887085
 20
5.0254275513
 10
164.8548962402
 20
4.6920922852
  0
LWPOLYLINE
  5
3E8
330
221
100
AcDbEntity
  8
0
  6
Continuous
 62
     2
100
AcDbPolyline
 90
        6
 70
     0
 43
0.0
 10
262.8298937988
 20
295.3587524414
 10
262.8298937988
 20
291.3587548828
 10
264.4048937988
 20
291.3587548828
 10
264.6298901367
 20
291.6920837402
 10
264.8548864746
 20
292.0254382324
 10
264.8548864746
 20
293.0254248047
  0
LWPOLYLINE
  5
3E9
330
221
100
AcDbEntity
  8
0
  6
Continuous
 62
     2
100
AcDbPolyline
 90
       12
 70
     0
 43
0.0
 10
262.8298937988
 20
5.358759613
 10
262.8298937988
 20
1.3587588501
 10
264.4048937988
 20
1.3587588501
 10
264.6298901367
 20
1.6920941162
 10
264.8548864746
 20
2.025426178
 10
264.8548864746
 20
3.0254255676
 10
264.6298901367
 20
3.3587608337
 10
264.4048937988
 20
3.6920928955
 10
264.6298901367
 20
4.0254281616
 10
264.6298901367
 20
5.0254275513
 10
264.4048937988
 20
5.358759613
 10
262.8298937988
 20
5.358759613
  0
LINE
  5
3EA
330
221
100
AcDbEntity
  8
0
  6
Continuous
 62
     7
100
AcDbLine
 10
0.0
 20
199.9681564246
 30
0.0
 11
7.0
 21
199.9681564246
 31
0.0
  0
LWPOLYLINE
  5
3EB
330
221
100
AcDbEntity
  8
0
  6
Continuous
 62
     7
100
AcDbPolyline
 90
        2
 70
     0
 43
0.1000000003
 10
10.0
 20
202.9681564246
 10
0.0
 20
202.9681564246
  0
LWPOLYLINE
  5
3EC
330
221
100
AcDbEntity
  8
0
  6
Continuous
 62
     7
100
AcDbPolyline
 90
        2
 70
     0
 43
0.1000000003
 10
410.0
 20
210.0
 10
420.0
 20
210.0
  0
LINE
  5
3ED
330
221
100
AcDbEntity
  8
0
  6
Continuous
 62
     7
100
AcDbLine
 10
313.0
 20
297.0
 30
0.0
 11
313.0
 21
290.0
 31
0.0
  0
LINE
  5
3EE
330
221
100
AcDbEntity
  8
0
  6
Continuous
 62
     7
100
AcDbLine
 10
313.0
 20
7.0
 30
0.0
 11
313.0
 21
0.0
 31
0.0
  0
LWPOLYLINE
  5
3EF
330
221
100
AcDbEntity
  8
0
  6
Continuous
 62
     2
100
AcDbPolyline
 90
        6
 70
     0
 43
0.0
 10
1.6467220688
 20
249.5950305176
 10
3.0752934837
 20
249.5950305176
 10
3.3610077667
 20
249.8807299805
 10
3.3610077667
 20
251.3093041992
 10
2.7895792007
 20
251.8807543945
 10
2.2181506348
 20
251.8807543945
  0
LWPOLYLINE
  5
3F0
330
221
100
AcDbEntity
  8
0
  6
Continuous
 62
     2
100
AcDbPolyline
 90
        3
 70
     0
 43
0.0
 10
362.8298840332
 20
291.3587548828
 10
363.9548913574
 20
295.3587524414
 10
365.0798986816
 20
291.3587548828
  0
LWPOLYLINE
  5
3F1
330
221
100
AcDbEntity
  8
0
  6
Continuous
 62
     2
100
AcDbPolyline
 90
        6
 70
     0
 43
0.0
 10
414.6467175293
 20
256.6268774414
 10
416.075291748
 20
256.6268774414
 10
416.3610168457
 20
256.9125769043
 10
416.3610168457
 20
258.341151123
 10
415.7895666504
 20
258.9125756836
 10
415.2181420898
 20
258.9125756836
  0
LWPOLYLINE
  5
3F2
330
221
100
AcDbEntity
  8
0
  6
Continuous
 62
     2
100
AcDbPolyline
 90
        6
 70
     0
 43
0.0
 10
264.8548864746
 20
293.0254248047
 10
264.4048937988
 20
293.6920825195
 10
264.6298901367
 20
294.0254370117
 10
264.6298901367
 20
295.025423584
 10
264.4048937988
 20
295.3587524414
 10
262.8298937988
 20
295.3587524414
  0
LWPOLYLINE
  5
3F3
330
221
100
AcDbEntity
  8
0
  6
Continuous
 62
     7
100
AcDbPolyline
 90
        2
 70
     0
 43
0.4999999952
 10
10.0536312849
 20
287.0
 10
410.0
 20
287.0
  0
LWPOLYLINE
  5
3F4
330
221
100
AcDbEntity
  8
0
  6
Continuous
 62
     7
100
AcDbPolyline
 90
        2
 70
     0
 43
0.1000000003
 10
0.0
 20
290.0
 10
420.0
 20
290.0
  0
LINE
  5
3F5
330
221
100
AcDbEntity
  8
0
  6
Continuous
 62
     2
100
AcDbLine
 10
363.2799023437
 20
292.6920959473
 30
0.0
 11
364.6298803711
 21
292.6920959473
 31
0.0
  0
LINE
  5
3F6
330
221
100
AcDbEntity
  8
0
  6
Continuous
 62
     2
100
AcDbLine
 10
262.8298937988
 20
293.6920825195
 30
0.0
 11
264.4048937988
 21
293.6920825195
 31
0.0
  0
LWPOLYLINE
  5
3F7
330
221
100
AcDbEntity
  8
0
  6
Continuous
 62
     2
100
AcDbPolyline
 90
        3
 70
     0
 43
0.0
 10
54.8878848267
 20
295.5794934082
 10
55.7878829956
 20
295.5794934082
 10
56.2378820801
 20
295.2461645508
  0
LINE
  5
3F8
330
221
100
AcDbEntity
  8
0
  6
Continuous
 62
     7
100
AcDbLine
 10
0.0
 20
297.0
 30
0.0
 11
420.0
 21
297.0
 31
0.0
  0
LWPOLYLINE
  5
3F9
330
221
100
AcDbEntity
  8
0
  6
Continuous
 62
     2
100
AcDbPolyline
 90
        3
 70
     0
 43
0.0
 10
362.8298840332
 20
1.3587588501
 10
363.9548913574
 20
5.358759613
 10
365.0798986816
 20
1.3587588501
  0
LWPOLYLINE
  5
3FA
330
221
100
AcDbEntity
  8
0
  6
Continuous
 62
     7
100
AcDbPolyline
 90
        2
 70
     0
 43
0.4999999952
 10
410.0
 20
10.0318435754
 10
410.0
 20
287.0
  0
LWPOLYLINE
  5
3FB
330
221
100
AcDbEntity
  8
0
  6
Continuous
 62
     7
100
AcDbPolyline
 90
        2
 70
     0
 43
0.1000000003
 10
413.0
 20
0.0
 10
413.0
 20
297.0
  0
LINE
  5
3FC
330
221
100
AcDbEntity
  8
0
  6
Continuous
 62
     7
100
AcDbLine
 10
420.0
 20
0.0
 30
0.0
 11
420.0
 21
297.0
 31
0.0
  0
LWPOLYLINE
  5
3FD
330
221
100
AcDbEntity
  8
0
  6
Continuous
 62
     2
100
AcDbPolyline
 90
        3
 70
     0
 43
0.0
 10
414.6467175293
 20
59.4840133667
 10
415.7895666504
 20
60.6268688965
 10
415.7895666504
 20
56.6268713379
  0
LINE
  5
3FE
330
221
100
AcDbEntity
  8
7_ALL_FEATURES
  6
Continuous
 62
     7
100
AcDbLine
 10
293.0728436990093
 20
88.49973492949104
 30
0.0
 11
293.4989303877093
 21
123.721245121591
 31
0.0
  0
LINE
  5
3FF
330
221
100
AcDbEntity
  8
7_ALL_FEATURES
  6
Continuous
 62
     7
100
AcDbLine
 10
293.4989303877093
 20
123.721245121591
 30
0.0
 11
298.9031673890093
 21
129.366387126091
 31
0.0
  0
LINE
  5
400
330
221
100
AcDbEntity
  8
7_ALL_FEATURES
  6
Continuous
 62
     7
100
AcDbLine
 10
298.9031673890093
 20
129.366387126091
 30
0.0
 11
299.0680799466093
 21
129.506547868691
 31
0.0
  0
LINE
  5
401
330
221
100
AcDbEntity
  8
7_ALL_FEATURES
  6
Continuous
 62
     7
100
AcDbLine
 10
293.0728436990093
 20
88.49973492949104
 30
0.0
 11
293.1385380965093
 21
88.31474873559104
 31
0.0
  0
LINE
  5
402
330
221
100
AcDbEntity
  8
7_ALL_FEATURES
  6
Continuous
 62
     7
100
AcDbLine
 10
299.1364882721093
 20
129.545902504091
 30
0.0
 11
299.0680799466093
 21
129.506547868691
 31
0.0
  0
LINE
  5
403
330
221
100
AcDbEntity
  8
7_ALL_FEATURES
  6
Continuous
 62
     7
100
AcDbLine
 10
298.9031673890093
 20
129.366387126091
 30
0.0
 11
298.4770807003093
 21
94.14487693389104
 31
0.0
  0
LINE
  5
404
330
221
100
AcDbEntity
  8
7_ALL_FEATURES
  6
Continuous
 62
     7
100
AcDbLine
 10
299.2302785763093
 20
129.422367782091
 30
0.0
 11
298.8041918876093
 21
94.20085758989104
 31
0.0
  0
LINE
  5
405
330
221
100
AcDbEntity
  8
7_ALL_FEATURES
  6
Continuous
 62
     7
100
AcDbLine
 10
299.7522510957093
 20
87.87062293349103
 30
0.0
 11
299.7552155955093
 21
88.11567673579104
 31
0.0
  0
LINE
  5
406
330
221
100
AcDbEntity
  8
02___PRT_ALL_AXES
  6
Continuous
 62
     9
100
AcDbLine
 10
300.3679631794093
 20
87.15575056049104
 30
0.0
 11
300.3708174430093
 21
87.39169192649103
 31
0.0
  0
LINE
  5
407
330
221
100
AcDbEntity
  8
7_ALL_FEATURES
  6
Continuous
 62
     7
100
AcDbLine
 10
298.7049737275093
 20
93.87571065339104
 30
0.0
 11
298.6392793300093
 21
94.06069684729104
 31
0.0
  0
LINE
  5
408
330
221
100
AcDbEntity
  8
7_ALL_FEATURES
  6
Continuous
 62
     7
100
AcDbLine
 10
303.9019330788093
 20
92.20528554399104
 30
0.0
 11
303.9022604424093
 21
92.23234633059104
 31
0.0
  0
LINE
  5
409
330
221
100
AcDbEntity
  8
7_ALL_FEATURES
  6
Continuous
 62
     7
100
AcDbLine
 10
299.7522510957093
 20
87.87062293349103
 30
0.0
 11
300.1545592646093
 21
87.43372825809104
 31
0.0
  0
LINE
  5
40A
330
221
100
AcDbEntity
  8
7_ALL_FEATURES
  6
Continuous
 62
     7
100
AcDbLine
 10
382.5965457351093
 20
71.40862944199104
 30
0.0
 11
383.5778792971093
 21
71.57657140999103
 31
0.0
  0
LWPOLYLINE
  5
40B
330
221
100
AcDbEntity
  8
8_ALL_NOTES_BALLOONS_SYMBOLS_GT
  6
Continuous
 62
     2
100
AcDbPolyline
 90
        7
 70
     0
 43
0.1500000036
 10
351.7263649219092
 20
65.31686495169103
 10
350.2263722461093
 20
65.31686495169103
 10
351.7263649219092
 20
67.45972627979104
 10
351.7263649219092
 20
67.88828829149104
 10
351.2978029102093
 20
68.31686312059104
 10
350.6549342578093
 20
68.31686312059104
 10
350.2263722461093
 20
67.67400728569103
  0
LWPOLYLINE
  5
40C
330
221
100
AcDbEntity
  8
8_ALL_NOTES_BALLOONS_SYMBOLS_GT
  6
Continuous
 62
     2
100
AcDbPolyline
 90
        6
 70
     0
 43
0.1500000036
 10
336.7978053516093
 20
65.31686495169103
 10
335.9406556934093
 20
65.31686495169103
 10
335.5120936817093
 20
65.74543978079103
 10
335.5120936817093
 20
67.88828829149104
 10
335.9406556934093
 20
68.31686312059104
 10
336.7978053516093
 20
68.31686312059104
  0
LWPOLYLINE
  5
40D
330
221
100
AcDbEntity
  8
8_ALL_NOTES_BALLOONS_SYMBOLS_GT
  6
Continuous
 62
     2
100
AcDbPolyline
 90
        2
 70
     0
 43
0.1500000036
 10
338.2977980274093
 20
66.17401460989103
 10
339.4406471485093
 20
66.17401460989103
  0
LWPOLYLINE
  5
40E
330
221
100
AcDbEntity
  8
8_ALL_NOTES_BALLOONS_SYMBOLS_GT
  6
Continuous
 62
     2
100
AcDbPolyline
 90
        2
 70
     0
 43
0.1500000036
 10
342.7978016895093
 20
66.17401460989103
 10
343.9406508106093
 20
66.17401460989103
  0
LINE
  5
40F
330
221
100
AcDbEntity
  8
7_ALL_FEATURES
  6
Continuous
 62
     7
100
AcDbLine
 10
293.1385380965093
 20
88.31474873559104
 30
0.0
 11
293.3007367262093
 21
88.23056864899104
 31
0.0
  0
LWPOLYLINE
  5
410
330
221
100
AcDbEntity
  8
8_ALL_NOTES_BALLOONS_SYMBOLS_GT
  6
Continuous
 62
     2
100
AcDbPolyline
 90
       10
 70
     0
 43
0.1500000036
 10
333.1549513477093
 20
65.53114595749103
 10
333.3692323535093
 20
65.31686495169103
 10
334.2263820118093
 20
65.31686495169103
 10
334.6549440235093
 20
65.74543978079103
 10
334.6549440235093
 20
66.17401460989103
 10
333.1549513477093
 20
67.45972627979104
 10
333.1549513477093
 20
67.88828829149104
 10
333.5835133594093
 20
68.31686312059104
 10
334.4406630176093
 20
68.31686312059104
 10
334.6549440235093
 20
68.10258211479103
  0
LINE
  5
411
330
221
100
AcDbEntity
  8
7_ALL_FEATURES
  6
Continuous
 62
     7
100
AcDbLine
 10
293.0728436990093
 20
88.49973492949104
 30
0.0
 11
298.4770807003093
 21
94.14487693389104
 31
0.0
  0
LINE
  5
412
330
221
100
AcDbEntity
  8
7_ALL_FEATURES
  6
Continuous
 62
     7
100
AcDbLine
 10
293.3007367262093
 20
88.23056864899104
 30
0.0
 11
298.7049737275093
 21
93.87571065339104
 31
0.0
  0
LINE
  5
413
330
221
100
AcDbEntity
  8
7_ALL_FEATURES
  6
Continuous
 62
     7
100
AcDbLine
 10
303.4578563708093
 20
91.98337035529104
 30
0.0
 11
299.6169879306093
 21
87.97128728789104
 31
0.0
  0
LINE
  5
414
330
221
100
AcDbEntity
  8
7_ALL_FEATURES
  6
Continuous
 62
     7
100
AcDbLine
 10
303.9019330788093
 20
92.20528554399104
 30
0.0
 11
299.7522510957093
 21
87.87062293349103
 31
0.0
  0
LINE
  5
415
330
221
100
AcDbEntity
  8
7_ALL_FEATURES
  6
Continuous
 62
     7
100
AcDbLine
 10
298.6392793300093
 20
94.06069684729104
 30
0.0
 11
298.8041918876093
 21
94.20085758989104
 31
0.0
  0
LINE
  5
416
330
221
100
AcDbEntity
  8
7_ALL_FEATURES
  6
Continuous
 62
     7
100
AcDbLine
 10
298.4770807003093
 20
94.14487693389104
 30
0.0
 11
298.6392793300093
 21
94.06069684729104
 31
0.0
  0
LINE
  5
417
330
221
100
AcDbEntity
  8
7_ALL_FEATURES
  6
Continuous
 62
     7
100
AcDbLine
 10
388.7720161633093
 20
69.67283183819104
 30
0.0
 11
293.3007367262093
 21
88.23056864899104
 31
0.0
  0
LINE
  5
418
330
221
100
AcDbEntity
  8
7_ALL_FEATURES
  6
Continuous
 62
     7
100
AcDbLine
 10
300.3679631794093
 20
87.15575056049104
 30
0.0
 11
382.1873108709092
 21
71.25168046279104
 31
0.0
  0
LINE
  5
419
330
221
100
AcDbEntity
  8
7_ALL_FEATURES
  6
Continuous
 62
     7
100
AcDbLine
 10
300.1545592646093
 20
87.43372825809104
 30
0.0
 11
382.5965457351093
 21
71.40862944199104
 31
0.0
  0
LINE
  5
41A
330
221
100
AcDbEntity
  8
7_ALL_FEATURES
  6
Continuous
 62
     7
100
AcDbLine
 10
387.2207024287093
 20
76.36845128989104
 30
0.0
 11
305.1737528242093
 21
92.31676271789104
 31
0.0
  0
LINE
  5
41B
330
221
100
AcDbEntity
  8
7_ALL_FEATURES
  6
Continuous
 62
     7
100
AcDbLine
 10
387.1090267114093
 20
76.39279193109104
 30
0.0
 11
305.2896790199093
 21
92.29686202889104
 31
0.0
  0
LINE
  5
41C
330
221
100
AcDbEntity
  8
7_ALL_FEATURES
  6
Continuous
 62
     7
100
AcDbLine
 10
298.7049737275093
 20
93.87571065339104
 30
0.0
 11
394.1762531646094
 21
75.31797384269103
 31
0.0
  0
LINE
  5
41D
330
221
100
AcDbEntity
  8
7_ALL_FEATURES
  6
Continuous
 62
     7
100
AcDbLine
 10
298.8041918876093
 20
94.20085758989104
 30
0.0
 11
394.2754713247094
 21
75.64312077909103
 31
0.0
  0
LWPOLYLINE
  5
41E
330
221
100
AcDbEntity
  8
8_ALL_NOTES_BALLOONS_SYMBOLS_GT
  6
Continuous
 62
     2
100
AcDbPolyline
 90
        3
 70
     0
 43
0.1500000036
 10
340.5835219043093
 20
68.31686312059104
 10
340.5835219043093
 20
65.31686495169103
 10
341.6549525684093
 20
65.31686495169103
  0
LINE
  5
41F
330
221
100
AcDbEntity
  8
7_ALL_FEATURES
  6
Continuous
 62
     7
100
AcDbLine
 10
304.7444860539093
 20
92.34947709139104
 30
0.0
 11
303.9019330788093
 21
92.20528554399104
 31
0.0
  0
LWPOLYLINE
  5
420
330
221
100
AcDbEntity
  8
8_ALL_NOTES_BALLOONS_SYMBOLS_GT
  6
Continuous
 62
     2
100
AcDbPolyline
 90
        3
 70
     0
 43
0.1500000036
 10
338.0120729297093
 20
65.31686495169103
 10
338.8692225879093
 20
68.31686312059104
 10
339.7263722461093
 20
65.31686495169103
  0
LWPOLYLINE
  5
421
330
221
100
AcDbEntity
  8
8_ALL_NOTES_BALLOONS_SYMBOLS_GT
  6
Continuous
 62
     2
100
AcDbPolyline
 90
        4
 70
     0
 43
0.1500000036
 10
349.1549415821093
 20
65.31686495169103
 10
349.1549415821093
 20
65.53114595749103
 10
349.2978041309094
 20
65.53114595749103
 10
349.1549415821093
 20
65.31686495169103
  0
LWPOLYLINE
  5
422
330
221
100
AcDbEntity
  8
8_ALL_NOTES_BALLOONS_SYMBOLS_GT
  6
Continuous
 62
     2
100
AcDbPolyline
 90
        4
 70
     0
 43
0.1500000036
 10
349.1549415821093
 20
66.60257662159104
 10
349.1549415821093
 20
66.81687044489104
 10
349.2978041309094
 20
66.81687044489104
 10
349.1549415821093
 20
66.60257662159104
  0
LWPOLYLINE
  5
423
330
221
100
AcDbEntity
  8
8_ALL_NOTES_BALLOONS_SYMBOLS_GT
  6
Continuous
 62
     2
100
AcDbPolyline
 90
        3
 70
     0
 43
0.1500000036
 10
342.5120765918093
 20
65.31686495169103
 10
343.3692262500093
 20
68.31686312059104
 10
344.2263759082093
 20
65.31686495169103
  0
LINE
  5
424
330
221
100
AcDbEntity
  8
7_ALL_FEATURES
  6
Continuous
 62
     7
100
AcDbLine
 10
299.0680799466093
 20
129.506547868691
 30
0.0
 11
299.2302785763093
 21
129.422367782091
 31
0.0
  0
LINE
  5
425
330
221
100
AcDbEntity
  8
7_ALL_FEATURES
  6
Continuous
 62
     7
100
AcDbLine
 10
394.7699663389092
 20
110.903985606691
 30
0.0
 11
394.7015580134093
 21
110.864630971291
 31
0.0
  0
LINE
  5
426
330
221
100
AcDbEntity
  8
7_ALL_FEATURES
  6
Continuous
 62
     7
100
AcDbLine
 10
296.5391918691093
 20
122.343681014791
 30
0.0
 11
296.6252408988093
 21
122.326954777791
 31
0.0
  0
LINE
  5
427
330
221
100
AcDbEntity
  8
7_ALL_FEATURES
  6
Continuous
 62
     7
100
AcDbLine
 10
387.7275612802094
 20
75.91123402059104
 30
0.0
 11
387.3351405698093
 21
76.33739121069104
 31
0.0
  0
LINE
  5
428
330
221
100
AcDbEntity
  8
7_ALL_FEATURES
  6
Continuous
 62
     7
100
AcDbLine
 10
394.7015580134093
 20
110.864630971291
 30
0.0
 11
299.2302785763093
 21
129.422367782091
 31
0.0
  0
LINE
  5
429
330
221
100
AcDbEntity
  8
7_ALL_FEATURES
  6
Continuous
 62
     7
100
AcDbLine
 10
394.6077677092093
 20
110.9881656932911
 30
0.0
 11
299.1364882721093
 21
129.545902504091
 31
0.0
  0
LWPOLYLINE
  5
42A
330
221
100
AcDbEntity
  8
8_ALL_NOTES_BALLOONS_SYMBOLS_GT
  6
Continuous
 62
     2
100
AcDbPolyline
 90
        3
 70
     0
 43
0.1500000036
 10
347.4406679004093
 20
67.45972627979104
 10
348.2977919239093
 20
68.31686312059104
 10
348.2977919239093
 20
65.31686495169103
  0
LINE
  5
42B
330
221
100
AcDbEntity
  8
7_ALL_FEATURES
  6
Continuous
 62
     7
100
AcDbLine
 10
394.6077677092093
 20
110.9881656932911
 30
0.0
 11
394.7699663389092
 21
110.903985606691
 31
0.0
  0
LINE
  5
42C
330
221
100
AcDbEntity
  8
02___PRT_ALL_AXES
  6
Continuous
 62
     9
100
AcDbLine
 10
382.1873108709092
 20
71.25168046279104
 30
0.0
 11
382.1901651346093
 21
71.48762182879103
 31
0.0
  0
LINE
  5
42D
330
221
100
AcDbEntity
  8
7_ALL_FEATURES
  6
Continuous
 62
     7
100
AcDbLine
 10
394.2754713247094
 20
75.64312077909103
 30
0.0
 11
394.3411657223093
 21
75.45813458529103
 31
0.0
  0
LINE
  5
42E
330
221
100
AcDbEntity
  8
02___PRT_ALL_AXES
  6
Continuous
 62
     9
100
AcDbLine
 10
384.0191335200093
 20
71.56517213629104
 30
0.0
 11
384.0249205049093
 21
72.04354040109104
 31
0.0
  0
LINE
  5
42F
330
221
100
AcDbEntity
  8
7_ALL_FEATURES
  6
Continuous
 62
     7
100
AcDbLine
 10
387.7275612802094
 20
75.91123402059104
 30
0.0
 11
387.7305771948093
 21
76.16053790229104
 31
0.0
  0
LINE
  5
430
330
221
100
AcDbEntity
  8
02___PRT_ALL_AXES
  6
Continuous
 62
     9
100
AcDbLine
 10
387.8600019602093
 20
75.57725520379104
 30
0.0
 11
387.8656934554093
 21
76.04773002259104
 31
0.0
  0
LINE
  5
431
330
221
100
AcDbEntity
  8
7_ALL_FEATURES
  6
Continuous
 62
     7
100
AcDbLine
 10
394.4095740477093
 20
75.49748922069104
 30
0.0
 11
394.3411657223093
 21
75.45813458529103
 31
0.0
  0
LINE
  5
432
330
221
100
AcDbEntity
  8
7_ALL_FEATURES
  6
Continuous
 62
     7
100
AcDbLine
 10
394.2754713247094
 20
75.64312077909103
 30
0.0
 11
394.7015580134093
 21
110.864630971291
 31
0.0
  0
LINE
  5
433
330
221
100
AcDbEntity
  8
7_ALL_FEATURES
  6
Continuous
 62
     7
100
AcDbLine
 10
394.4095740477093
 20
75.49748922069104
 30
0.0
 11
394.8356607364092
 21
110.718999412791
 31
0.0
  0
LINE
  5
434
330
221
100
AcDbEntity
  8
7_ALL_FEATURES
  6
Continuous
 62
     7
100
AcDbLine
 10
383.5778792971093
 20
71.57657140999103
 30
0.0
 11
387.7275612802094
 21
75.91123402059104
 31
0.0
  0
LINE
  5
435
330
221
100
AcDbEntity
  8
7_ALL_FEATURES
  6
Continuous
 62
     7
100
AcDbLine
 10
384.0191335200093
 20
71.56517213629104
 30
0.0
 11
387.8600019602093
 21
75.57725520379104
 31
0.0
  0
LINE
  5
436
330
221
100
AcDbEntity
  8
7_ALL_FEATURES
  6
Continuous
 62
     7
100
AcDbLine
 10
394.3411657223093
 20
75.45813458529103
 30
0.0
 11
394.1762531646094
 21
75.31797384269103
 31
0.0
  0
LINE
  5
437
330
221
100
AcDbEntity
  8
7_ALL_FEATURES
  6
Continuous
 62
     7
100
AcDbLine
 10
388.7720161633093
 20
69.67283183819104
 30
0.0
 11
388.8404244888093
 21
69.71218647359103
 31
0.0
  0
LINE
  5
438
330
221
100
AcDbEntity
  8
7_ALL_FEATURES
  6
Continuous
 62
     7
100
AcDbLine
 10
394.8356607364092
 20
110.718999412791
 30
0.0
 11
394.7699663389092
 21
110.903985606691
 31
0.0
  0
LINE
  5
439
330
221
100
AcDbEntity
  8
7_ALL_FEATURES
  6
Continuous
 62
     7
100
AcDbLine
 10
388.7720161633093
 20
69.67283183819104
 30
0.0
 11
394.1762531646094
 21
75.31797384269103
 31
0.0
  0
LINE
  5
43A
330
221
100
AcDbEntity
  8
7_ALL_FEATURES
  6
Continuous
 62
     7
100
AcDbLine
 10
389.0053370464094
 20
69.85234721619103
 30
0.0
 11
394.4095740477093
 21
75.49748922069104
 31
0.0
  0
LINE
  5
43B
330
221
100
AcDbEntity
  8
7_ALL_FEATURES
  6
Continuous
 62
     7
100
AcDbLine
 10
389.0053370464094
 20
69.85234721619103
 30
0.0
 11
388.8404244888093
 21
69.71218647359103
 31
0.0
  0
LINE
  5
43C
330
221
100
AcDbEntity
  8
7_ALL_FEATURES
  6
Continuous
 62
     7
100
AcDbLine
 10
27.7189690010505
 20
160.6354852482211
 30
0.0
 11
27.7189690010505
 21
132.6354852482211
 31
0.0
  0
LINE
  5
43D
330
221
100
AcDbEntity
  8
7_ALL_FEATURES
  6
Continuous
 62
     7
100
AcDbLine
 10
28.2189690010505
 20
160.6354852482211
 30
0.0
 11
28.2189690010505
 21
132.6354852482211
 31
0.0
  0
LINE
  5
43E
330
221
100
AcDbEntity
  8
7_ALL_FEATURES
  6
Continuous
 62
     7
100
AcDbLine
 10
29.7189690010505
 20
153.1354852482211
 30
0.0
 11
29.7189690010505
 21
140.1354852482211
 31
0.0
  0
LINE
  5
43F
330
221
100
AcDbEntity
  8
7_ALL_FEATURES
  6
Continuous
 62
     7
100
AcDbLine
 10
30.2189690010505
 20
153.1354852482211
 30
0.0
 11
30.2189690010505
 21
140.1354852482211
 31
0.0
  0
LINE
  5
440
330
221
100
AcDbEntity
  8
7_ALL_FEATURES
  6
Continuous
 62
     7
100
AcDbLine
 10
30.7189690010505
 20
140.6354852482211
 30
0.0
 11
30.7189690010505
 21
152.6354852482211
 31
0.0
  0
LINE
  5
441
330
221
100
AcDbEntity
  8
7_ALL_FEATURES
  6
Continuous
 62
     9
100
AcDbLine
 10
36.2189690010505
 20
134.1354852482211
 30
0.0
 11
36.2189690010505
 21
133.6354852482211
 31
0.0
  0
LINE
  5
442
330
221
100
AcDbEntity
  8
7_ALL_FEATURES
  6
Continuous
 62
     9
100
AcDbLine
 10
36.2189690010505
 20
159.1354852482211
 30
0.0
 11
36.2189690010505
 21
159.6354852482211
 31
0.0
  0
LINE
  5
443
330
221
100
AcDbEntity
  8
7_ALL_FEATURES
  6
Continuous
 62
     7
100
AcDbLine
 10
27.7189690010505
 20
132.6354852482211
 30
0.0
 11
28.2189690010505
 21
132.1354852482211
 31
0.0
  0
LINE
  5
444
330
221
100
AcDbEntity
  8
7_ALL_FEATURES
  6
Continuous
 62
     7
100
AcDbLine
 10
35.77559332825049
 20
146.6354852482211
 30
0.0
 11
36.4972811646505
 21
145.3854852482211
 31
0.0
  0
LINE
  5
445
330
221
100
AcDbEntity
  8
02___PRT_ALL_AXES
  6
Continuous
 62
     7
100
AcDbLine
 10
49.2189690010505
 20
149.1354852482211
 30
0.0
 11
49.2189690010505
 21
144.1354852482211
 31
0.0
  0
LINE
  5
446
330
221
100
AcDbEntity
  8
02___PRT_ALL_AXES
  6
Continuous
 62
     7
100
AcDbLine
 10
54.2189690010505
 20
144.1354852482211
 30
0.0
 11
54.2189690010505
 21
149.1354852482211
 31
0.0
  0
LINE
  5
447
330
221
100
AcDbEntity
  8
7_ALL_FEATURES
  6
Continuous
 62
     7
100
AcDbLine
 10
36.4972811646505
 20
147.8854852482211
 30
0.0
 11
35.77559332825049
 21
146.6354852482211
 31
0.0
  0
LINE
  5
448
330
221
100
AcDbEntity
  8
7_ALL_FEATURES
  6
Continuous
 62
     7
100
AcDbLine
 10
37.94065683765049
 20
145.3854852482211
 30
0.0
 11
38.6623446740505
 21
146.6354852482211
 31
0.0
  0
LINE
  5
449
330
221
100
AcDbEntity
  8
7_ALL_FEATURES
  6
Continuous
 62
     7
100
AcDbLine
 10
28.2189690010505
 20
161.1354852482211
 30
0.0
 11
27.7189690010505
 21
160.6354852482211
 31
0.0
  0
LINE
  5
44A
330
221
100
AcDbEntity
  8
7_ALL_FEATURES
  6
Continuous
 62
     7
100
AcDbLine
 10
38.6623446740505
 20
146.6354852482211
 30
0.0
 11
37.94065683765049
 21
147.8854852482211
 31
0.0
  0
LINE
  5
44C
330
221
100
AcDbEntity
  8
7_ALL_FEATURES
  6
Continuous
 62
     7
100
AcDbLine
 10
68.7189690010505
 20
156.6354852482211
 30
0.0
 11
68.7189690010505
 21
149.6354852482211
 31
0.0
  0
LINE
  5
44D
330
221
100
AcDbEntity
  8
7_ALL_FEATURES
  6
Continuous
 62
     7
100
AcDbLine
 10
28.2189690010505
 20
160.6354852482211
 30
0.0
 11
27.9689690010505
 21
160.8854852482211
 31
0.0
  0
LINE
  5
44E
330
221
100
AcDbEntity
  8
7_ALL_FEATURES
  6
Continuous
 62
     7
100
AcDbLine
 10
28.2189690010505
 20
132.6354852482211
 30
0.0
 11
27.9689690010505
 21
132.3854852482211
 31
0.0
  0
LINE
  5
450
330
221
100
AcDbEntity
  8
7_ALL_FEATURES
  6
Continuous
 62
     7
100
AcDbLine
 10
87.83290330385049
 20
142.0869098242211
 30
0.0
 11
88.02992518605049
 21
141.815732467621
 31
0.0
  0
LINE
  5
451
330
221
100
AcDbEntity
  8
7_ALL_FEATURES
  6
Continuous
 62
     7
100
AcDbLine
 10
93.32509245065049
 20
134.5275599786211
 30
0.0
 11
93.2466801524505
 21
134.6354852482211
 31
0.0
  0
LINE
  5
452
330
221
100
AcDbEntity
  8
7_ALL_FEATURES
  6
Continuous
 62
     7
100
AcDbLine
 10
90.3098796498505
 20
143.8074099942211
 30
0.0
 11
90.3098796498505
 21
143.4722163474211
 31
0.0
  0
LINE
  5
453
330
221
100
AcDbEntity
  8
7_ALL_FEATURES
  6
Continuous
 62
     7
100
AcDbLine
 10
90.3098796498505
 20
134.4635397194211
 30
0.0
 11
90.3098796498505
 21
134.6354852482211
 31
0.0
  0
LINE
  5
454
330
221
100
AcDbEntity
  8
06___PRT_ALL_SURFS
  6
Continuous
 62
     7
100
AcDbLine
 10
90.60571243305051
 20
134.4635397194211
 30
0.0
 11
90.60571243305051
 21
134.6354852482211
 31
0.0
  0
LINE
  5
455
330
221
100
AcDbEntity
  8
06___PRT_ALL_SURFS
  6
Continuous
 62
     7
100
AcDbLine
 10
92.83222556925051
 20
143.807430777221
 30
0.0
 11
92.83222556925051
 21
141.9212813308211
 31
0.0
  0
LINE
  5
456
330
221
100
AcDbEntity
  8
7_ALL_FEATURES
  6
Continuous
 62
     7
100
AcDbLine
 10
93.1280583524505
 20
143.807430777221
 30
0.0
 11
93.1280583524505
 21
141.7839691920211
 31
0.0
  0
LINE
  5
457
330
221
100
AcDbEntity
  8
7_ALL_FEATURES
  6
Continuous
 62
     7
100
AcDbLine
 10
93.1280583524505
 20
134.4635605022211
 30
0.0
 11
93.1280583524505
 21
134.6354852482211
 31
0.0
  0
LINE
  5
459
330
221
100
AcDbEntity
  8
06___PRT_ALL_SURFS
  6
Continuous
 62
     7
100
AcDbLine
 10
87.61969996085051
 20
141.6379657270211
 30
0.0
 11
87.7111173182505
 21
141.9193194232211
 31
0.0
  0
LINE
  5
45A
330
221
100
AcDbEntity
  8
7_ALL_FEATURES
  6
Continuous
 62
     7
100
AcDbLine
 10
90.9972811646505
 20
155.0854852482211
 30
0.0
 11
90.2755933282505
 21
153.8354852482211
 31
0.0
  0
LINE
  5
45B
330
221
100
AcDbEntity
  8
06___PRT_ALL_SURFS
  6
Continuous
 62
     7
100
AcDbLine
 10
89.87351180245051
 20
143.5695243708211
 30
0.0
 11
90.98216263065049
 21
142.0435974146211
 31
0.0
  0
LINE
  5
45C
330
221
100
AcDbEntity
  8
7_ALL_FEATURES
  6
Continuous
 62
     7
100
AcDbLine
 10
90.11284555165051
 20
143.7434105178211
 30
0.0
 11
91.30220643005049
 21
142.1063957080211
 31
0.0
  0
LINE
  5
45D
330
221
100
AcDbEntity
  8
7_ALL_FEATURES
  6
Continuous
 62
     7
100
AcDbLine
 10
90.2755933282505
 20
153.8354852482211
 30
0.0
 11
90.9972811646505
 21
152.5854852482211
 31
0.0
  0
LINE
  5
45E
330
221
100
AcDbEntity
  8
7_ALL_FEATURES
  6
Continuous
 62
     7
100
AcDbLine
 10
92.4406568376505
 20
152.5854852482211
 30
0.0
 11
93.1623446740505
 21
153.8354852482211
 31
0.0
  0
LINE
  5
461
330
221
100
AcDbEntity
  8
06___PRT_ALL_SURFS
  6
Continuous
 62
     7
100
AcDbLine
 10
95.3657131652505
 20
142.2608127852211
 30
0.0
 11
95.6050469144505
 21
142.0869266380211
 31
0.0
  0
LINE
  5
462
330
221
100
AcDbEntity
  8
06___PRT_ALL_SURFS
  6
Continuous
 62
     7
100
AcDbLine
 10
94.65995720645049
 20
142.9318616538211
 30
0.0
 11
94.42062330445049
 21
143.1057479146211
 31
0.0
  0
LINE
  5
463
330
221
100
AcDbEntity
  8
7_ALL_FEATURES
  6
Continuous
 62
     7
100
AcDbLine
 10
93.1623446740505
 20
153.8354852482211
 30
0.0
 11
92.4406568376505
 21
155.0854852482211
 31
0.0
  0
LINE
  5
464
330
221
100
AcDbEntity
  8
02___PRT_ALL_AXES
  6
Continuous
 62
     7
100
AcDbLine
 10
104.7189690010505
 20
142.1354852482211
 30
0.0
 11
104.7189690010505
 21
141.6354852482211
 31
0.0
  0
LINE
  5
465
330
221
100
AcDbEntity
  8
02___PRT_ALL_AXES
  6
Continuous
 62
     7
100
AcDbLine
 10
110.1189690010505
 20
142.1354852482211
 30
0.0
 11
110.1189690010505
 21
141.6354852482211
 31
0.0
  0
LINE
  5
466
330
221
100
AcDbEntity
  8
7_ALL_FEATURES
  6
Continuous
 62
     7
100
AcDbLine
 10
93.3250802348505
 20
143.7433937040211
 30
0.0
 11
93.1280583524505
 21
143.4722163474211
 31
0.0
  0
LINE
  5
467
330
221
100
AcDbEntity
  8
06___PRT_ALL_SURFS
  6
Continuous
 62
     7
100
AcDbLine
 10
95.3657131652505
 20
142.2608127852211
 30
0.0
 11
94.91138611585049
 21
141.6354852482211
 31
0.0
  0
LINE
  5
468
330
221
100
AcDbEntity
  8
7_ALL_FEATURES
  6
Continuous
 62
     7
100
AcDbLine
 10
95.6050469144505
 20
142.0869266380211
 30
0.0
 11
95.27705554585049
 21
141.6354852482211
 31
0.0
  0
LINE
  5
469
330
221
100
AcDbEntity
  8
7_ALL_FEATURES
  6
Continuous
 62
     7
100
AcDbLine
 10
90.11285776745049
 20
134.5275767924211
 30
0.0
 11
90.1912578498505
 21
134.6354852482211
 31
0.0
  0
LINE
  5
46A
330
221
100
AcDbEntity
  8
7_ALL_FEATURES
  6
Continuous
 62
     7
100
AcDbLine
 10
235.2189690010505
 20
132.1354852482211
 30
0.0
 11
28.2189690010505
 21
132.1354852482211
 31
0.0
  0
LINE
  5
46B
330
221
100
AcDbEntity
  8
7_ALL_FEATURES
  6
Continuous
 62
     7
100
AcDbLine
 10
235.2189690010505
 20
132.6354852482211
 30
0.0
 11
28.2189690010505
 21
132.6354852482211
 31
0.0
  0
LINE
  5
46C
330
221
100
AcDbEntity
  8
7_ALL_FEATURES
  6
Continuous
 62
     7
100
AcDbLine
 10
87.7111173182505
 20
141.9193194232211
 30
0.0
 11
88.58466908565049
 21
141.6354852482211
 31
0.0
  0
LINE
  5
46D
330
221
100
AcDbEntity
  8
06___PRT_ALL_SURFS
  6
Continuous
 62
     7
100
AcDbLine
 10
89.01721581805049
 20
143.1056760716211
 30
0.0
 11
88.7778819136505
 21
142.9317898142211
 31
0.0
  0
LINE
  5
46E
330
221
100
AcDbEntity
  8
06___PRT_ALL_SURFS
  6
Continuous
 62
     7
100
AcDbLine
 10
89.87351180245051
 20
143.5695243708211
 30
0.0
 11
90.11284555165051
 21
143.7434105178211
 31
0.0
  0
LINE
  5
46F
330
221
100
AcDbEntity
  8
7_ALL_FEATURES
  6
Continuous
 62
     7
100
AcDbLine
 10
36.2189690010505
 20
133.6354852482211
 30
0.0
 11
227.2189690010505
 21
133.6354852482211
 31
0.0
  0
LINE
  5
470
330
221
100
AcDbEntity
  8
7_ALL_FEATURES
  6
Continuous
 62
     7
100
AcDbLine
 10
36.2189690010505
 20
134.1354852482211
 30
0.0
 11
227.2189690010505
 21
134.1354852482211
 31
0.0
  0
LINE
  5
471
330
221
100
AcDbEntity
  8
06___PRT_ALL_SURFS
  6
Continuous
 62
     7
100
AcDbLine
 10
91.5711136260505
 20
134.3354827248211
 30
0.0
 11
91.86694659985051
 21
134.3354827228211
 31
0.0
  0
LINE
  5
472
330
221
100
AcDbEntity
  8
06___PRT_ALL_SURFS
  6
Continuous
 62
     7
100
AcDbLine
 10
90.60571243305051
 20
134.4635397194211
 30
0.0
 11
90.3098796498505
 21
134.4635397194211
 31
0.0
  0
LINE
  5
473
330
221
100
AcDbEntity
  8
7_ALL_FEATURES
  6
Continuous
 62
     7
100
AcDbLine
 10
226.7189690010505
 20
134.6354852482211
 30
0.0
 11
135.2896832154505
 21
134.6354852482211
 31
0.0
  0
LINE
  5
474
330
221
100
AcDbEntity
  8
7_ALL_FEATURES
  6
Continuous
 62
     7
100
AcDbLine
 10
128.1482547868505
 20
134.6354852482211
 30
0.0
 11
36.7189690010505
 21
134.6354852482211
 31
0.0
  0
LINE
  5
475
330
221
100
AcDbEntity
  8
02___PRT_ALL_AXES
  6
Continuous
 62
     7
100
AcDbLine
 10
96.19422162945051
 20
141.6354852482211
 30
0.0
 11
95.41657710465049
 21
141.8275201994211
 31
0.0
  0
LINE
  5
477
330
221
100
AcDbEntity
  8
06___PRT_ALL_SURFS
  6
Continuous
 62
     7
100
AcDbLine
 10
93.47363884045049
 20
134.6354852482211
 30
0.0
 11
93.32509245065049
 21
134.5275599786211
 31
0.0
  0
LINE
  5
478
330
221
100
AcDbEntity
  8
7_ALL_FEATURES
  6
Continuous
 62
     9
100
AcDbLine
 10
30.2189690010505
 20
140.1354852482211
 30
0.0
 11
29.7189690010505
 21
140.1354852482211
 31
0.0
  0
LINE
  5
479
330
221
100
AcDbEntity
  8
7_ALL_FEATURES
  6
Continuous
 62
     9
100
AcDbLine
 10
233.2189690010505
 20
140.1354852482211
 30
0.0
 11
233.7189690010505
 21
140.1354852482211
 31
0.0
  0
LINE
  5
47A
330
221
100
AcDbEntity
  8
7_ALL_FEATURES
  6
Continuous
 62
     7
100
AcDbLine
 10
76.7189690010505
 20
141.6354852482211
 30
0.0
 11
186.7189690010505
 21
141.6354852482211
 31
0.0
  0
LINE
  5
47B
330
221
100
AcDbEntity
  8
02___PRT_ALL_AXES
  6
Continuous
 62
     7
100
AcDbLine
 10
122.4185906462505
 20
141.9854852482211
 30
0.0
 11
112.1431112188505
 21
141.9854852482211
 31
0.0
  0
LINE
  5
47C
330
221
100
AcDbEntity
  8
7_ALL_FEATURES
  6
Continuous
 62
     7
100
AcDbLine
 10
79.5226581318505
 20
142.1354852482211
 30
0.0
 11
74.0830989078505
 21
142.1354852482211
 31
0.0
  0
LINE
  5
47D
330
221
100
AcDbEntity
  8
02___PRT_ALL_AXES
  6
Continuous
 62
     7
100
AcDbLine
 10
104.7189690010505
 20
142.1354852482211
 30
0.0
 11
110.1189690010505
 21
142.1354852482211
 31
0.0
  0
LINE
  5
47E
330
221
100
AcDbEntity
  8
7_ALL_FEATURES
  6
Continuous
 62
     7
100
AcDbLine
 10
79.8762497188505
 20
142.6354852482211
 30
0.0
 11
72.91726535605049
 21
142.6354852482211
 31
0.0
  0
LINE
  5
47F
330
221
100
AcDbEntity
  8
02___PRT_ALL_AXES
  6
Continuous
 62
     7
100
AcDbLine
 10
122.4185906462505
 20
143.2854852482211
 30
0.0
 11
112.1431112188505
 21
143.2854852482211
 31
0.0
  0
LINE
  5
480
330
221
100
AcDbEntity
  8
06___PRT_ALL_SURFS
  6
Continuous
 62
     7
100
AcDbLine
 10
137.7189690010505
 20
143.3854852482211
 30
0.0
 11
117.7189690010505
 21
143.3854852482211
 31
0.0
  0
LINE
  5
481
330
221
100
AcDbEntity
  8
06___PRT_ALL_SURFS
  6
Continuous
 62
     7
100
AcDbLine
 10
92.83222556925051
 20
143.807430777221
 30
0.0
 11
93.1280583524505
 21
143.807430777221
 31
0.0
  0
LINE
  5
482
330
221
100
AcDbEntity
  8
06___PRT_ALL_SURFS
  6
Continuous
 62
     7
100
AcDbLine
 10
91.86682437625049
 20
143.9354877716211
 30
0.0
 11
91.57099140245049
 21
143.9354877738211
 31
0.0
  0
LINE
  5
483
330
221
100
AcDbEntity
  8
02___PRT_ALL_AXES
  6
Continuous
 62
     7
100
AcDbLine
 10
209.2189690010505
 20
144.1354852482211
 30
0.0
 11
214.2189690010505
 21
144.1354852482211
 31
0.0
  0
LINE
  5
484
330
221
100
AcDbEntity
  8
02___PRT_ALL_AXES
  6
Continuous
 62
     7
100
AcDbLine
 10
116.3829087502505
 20
144.8248250764211
 30
0.0
 11
99.86813083965049
 21
144.8248250764211
 31
0.0
  0
LINE
  5
485
330
221
100
AcDbEntity
  8
7_ALL_FEATURES
  6
Continuous
 62
     7
100
AcDbLine
 10
36.4972811646505
 20
145.3854852482211
 30
0.0
 11
37.94065683765049
 21
145.3854852482211
 31
0.0
  0
LINE
  5
486
330
221
100
AcDbEntity
  8
7_ALL_FEATURES
  6
Continuous
 62
     7
100
AcDbLine
 10
225.4972811646505
 20
145.3854852482211
 30
0.0
 11
226.9406568376505
 21
145.3854852482211
 31
0.0
  0
LINE
  5
487
330
221
100
AcDbEntity
  8
06___PRT_ALL_SURFS
  6
Continuous
 62
     7
100
AcDbLine
 10
137.7189690010505
 20
145.8854852482211
 30
0.0
 11
117.7189690010505
 21
145.8854852482211
 31
0.0
  0
LINE
  5
488
330
221
100
AcDbEntity
  8
02___PRT_ALL_AXES
  6
Continuous
 62
     7
100
AcDbLine
 10
117.4436710004505
 20
146.1354852482211
 30
0.0
 11
109.9247403670505
 21
146.1354852482211
 31
0.0
  0
LINE
  5
489
330
221
100
AcDbEntity
  8
02___PRT_ALL_AXES
  6
Continuous
 62
     7
100
AcDbLine
 10
109.7290213074505
 20
146.3248250764211
 30
0.0
 11
99.86813083965049
 21
146.3248250764211
 31
0.0
  0
LINE
  5
48A
330
221
100
AcDbEntity
  8
7_ALL_FEATURES
  6
Continuous
 62
     7
100
AcDbLine
 10
95.72680091825049
 20
141.9193130008211
 30
0.0
 11
95.4323238982505
 21
141.8236316170211
 31
0.0
  0
LINE
  5
48B
330
221
100
AcDbEntity
  8
02___PRT_ALL_AXES
  6
Continuous
 62
     7
100
AcDbLine
 10
117.4436710004505
 20
147.1354852482211
 30
0.0
 11
109.9247403670505
 21
147.1354852482211
 31
0.0
  0
LINE
  5
48C
330
221
100
AcDbEntity
  8
06___PRT_ALL_SURFS
  6
Continuous
 62
     7
100
AcDbLine
 10
137.7189690010505
 20
147.3854852482211
 30
0.0
 11
117.7189690010505
 21
147.3854852482211
 31
0.0
  0
LINE
  5
48D
330
221
100
AcDbEntity
  8
02___PRT_ALL_AXES
  6
Continuous
 62
     7
100
AcDbLine
 10
116.1433386876505
 20
147.3854852482211
 30
0.0
 11
100.3984609254505
 21
147.3854852482211
 31
0.0
  0
LINE
  5
48E
330
221
100
AcDbEntity
  8
7_ALL_FEATURES
  6
Continuous
 62
     7
100
AcDbLine
 10
226.9406568376505
 20
147.8854852482211
 30
0.0
 11
225.4972811646505
 21
147.8854852482211
 31
0.0
  0
LINE
  5
48F
330
221
100
AcDbEntity
  8
7_ALL_FEATURES
  6
Continuous
 62
     7
100
AcDbLine
 10
37.94065683765049
 20
147.8854852482211
 30
0.0
 11
36.4972811646505
 21
147.8854852482211
 31
0.0
  0
LINE
  5
490
330
221
100
AcDbEntity
  8
02___PRT_ALL_AXES
  6
Continuous
 62
     7
100
AcDbLine
 10
116.5514674036505
 20
148.8854852482211
 30
0.0
 11
100.3984609254505
 21
148.8854852482211
 31
0.0
  0
LINE
  5
491
330
221
100
AcDbEntity
  8
02___PRT_ALL_AXES
  6
Continuous
 62
     7
100
AcDbLine
 10
214.2189690010505
 20
149.1354852482211
 30
0.0
 11
209.2189690010505
 21
149.1354852482211
 31
0.0
  0
LINE
  5
492
330
221
100
AcDbEntity
  8
06___PRT_ALL_SURFS
  6
Continuous
 62
     7
100
AcDbLine
 10
137.7189690010505
 20
149.8854852482211
 30
0.0
 11
117.7189690010505
 21
149.8854852482211
 31
0.0
  0
LINE
  5
493
330
221
100
AcDbEntity
  8
7_ALL_FEATURES
  6
Continuous
 62
     7
100
AcDbLine
 10
68.7189690010505
 20
150.6354852482211
 30
0.0
 11
79.8762497188505
 21
150.6354852482211
 31
0.0
  0
LINE
  5
494
330
221
100
AcDbEntity
  8
7_ALL_FEATURES
  6
Continuous
 62
     7
100
AcDbLine
 10
68.9152798582505
 20
151.1354852482211
 30
0.0
 11
79.5226581262505
 21
151.1354852482211
 31
0.0
  0
LINE
  5
495
330
221
100
AcDbEntity
  8
7_ALL_FEATURES
  6
Continuous
 62
     7
100
AcDbLine
 10
90.9972811646505
 20
152.5854852482211
 30
0.0
 11
92.4406568376505
 21
152.5854852482211
 31
0.0
  0
LINE
  5
496
330
221
100
AcDbEntity
  8
7_ALL_FEATURES
  6
Continuous
 62
     9
100
AcDbLine
 10
30.2189690010505
 20
153.1354852482211
 30
0.0
 11
29.7189690010505
 21
153.1354852482211
 31
0.0
  0
LINE
  5
497
330
221
100
AcDbEntity
  8
7_ALL_FEATURES
  6
Continuous
 62
     9
100
AcDbLine
 10
233.2189690010505
 20
153.1354852482211
 30
0.0
 11
233.7189690010505
 21
153.1354852482211
 31
0.0
  0
LINE
  5
498
330
221
100
AcDbEntity
  8
06___PRT_ALL_SURFS
  6
Continuous
 62
     9
100
AcDbLine
 10
132.7189690010505
 20
143.3854852482211
 30
0.0
 11
132.7189690010505
 21
149.8854852482211
 31
0.0
  0
LINE
  5
49A
330
221
100
AcDbEntity
  8
7_ALL_FEATURES
  6
Continuous
 62
     7
100
AcDbLine
 10
137.7189690010505
 20
141.6354852482211
 30
0.0
 11
137.7189690010505
 21
157.1354852482211
 31
0.0
  0
LINE
  5
49D
330
221
100
AcDbEntity
  8
7_ALL_FEATURES
  6
Continuous
 62
     7
100
AcDbLine
 10
92.4406568376505
 20
155.0854852482211
 30
0.0
 11
90.9972811646505
 21
155.0854852482211
 31
0.0
  0
LINE
  5
49E
330
221
100
AcDbEntity
  8
7_ALL_FEATURES
  6
Continuous
 62
     9
100
AcDbLine
 10
137.7189690010505
 20
155.6354852482211
 30
0.0
 11
194.7189690010505
 21
155.6354852482211
 31
0.0
  0
LINE
  5
49F
330
221
100
AcDbEntity
  8
7_ALL_FEATURES
  6
Continuous
 62
     7
100
AcDbLine
 10
137.7189690010505
 20
157.1354852482211
 30
0.0
 11
194.7981612212505
 21
157.1354852482211
 31
0.0
  0
LINE
  5
4A0
330
221
100
AcDbEntity
  8
7_ALL_FEATURES
  6
Continuous
 62
     7
100
AcDbLine
 10
36.7189690010505
 20
158.6354852482211
 30
0.0
 11
66.7189690010505
 21
158.6354852482211
 31
0.0
  0
LINE
  5
4A1
330
221
100
AcDbEntity
  8
7_ALL_FEATURES
  6
Continuous
 62
     7
100
AcDbLine
 10
161.7189690010505
 20
158.6354852482211
 30
0.0
 11
191.7189690010505
 21
158.6354852482211
 31
0.0
  0
LINE
  5
4A2
330
221
100
AcDbEntity
  8
7_ALL_FEATURES
  6
Continuous
 62
     7
100
AcDbLine
 10
196.7189690010505
 20
158.6354852482211
 30
0.0
 11
226.7189690010505
 21
158.6354852482211
 31
0.0
  0
LINE
  5
4A3
330
221
100
AcDbEntity
  8
7_ALL_FEATURES
  6
Continuous
 62
     7
100
AcDbLine
 10
227.2189690010505
 20
159.1354852482211
 30
0.0
 11
36.2189690010505
 21
159.1354852482211
 31
0.0
  0
LINE
  5
4A4
330
221
100
AcDbEntity
  8
7_ALL_FEATURES
  6
Continuous
 62
     7
100
AcDbLine
 10
227.2189690010505
 20
159.6354852482211
 30
0.0
 11
36.2189690010505
 21
159.6354852482211
 31
0.0
  0
LINE
  5
4A5
330
221
100
AcDbEntity
  8
7_ALL_FEATURES
  6
Continuous
 62
     7
100
AcDbLine
 10
28.2189690010505
 20
160.6354852482211
 30
0.0
 11
235.2189690010505
 21
160.6354852482211
 31
0.0
  0
LINE
  5
4A6
330
221
100
AcDbEntity
  8
7_ALL_FEATURES
  6
Continuous
 62
     7
100
AcDbLine
 10
28.2189690010505
 20
161.1354852482211
 30
0.0
 11
235.2189690010505
 21
161.1354852482211
 31
0.0
  0
LINE
  5
4A7
330
221
100
AcDbEntity
  8
7_ALL_FEATURES
  6
Continuous
 62
     7
100
AcDbLine
 10
161.7189690010505
 20
157.1354852482211
 30
0.0
 11
161.7189690010505
 21
158.6354852482211
 31
0.0
  0
LINE
  5
4A8
330
221
100
AcDbEntity
  8
7_ALL_FEATURES
  6
Continuous
 62
     7
100
AcDbLine
 10
191.7189690010505
 20
158.6354852482211
 30
0.0
 11
191.7189690010505
 21
157.1354852482211
 31
0.0
  0
LINE
  5
4A9
330
221
100
AcDbEntity
  8
7_ALL_FEATURES
  6
Continuous
 62
     7
100
AcDbLine
 10
194.7189690010505
 20
156.6354852482211
 30
0.0
 11
194.7189690010505
 21
149.6354852482211
 31
0.0
  0
LINE
  5
4AA
330
221
100
AcDbEntity
  8
7_ALL_FEATURES
  6
Continuous
 62
     7
100
AcDbLine
 10
235.2189690010505
 20
132.6354852482211
 30
0.0
 11
235.4689690010505
 21
132.3854852482211
 31
0.0
  0
LINE
  5
4AC
330
221
100
AcDbEntity
  8
7_ALL_FEATURES
  6
Continuous
 62
     7
100
AcDbLine
 10
235.4689690010505
 20
160.8854852482211
 30
0.0
 11
235.2189690010505
 21
160.6354852482211
 31
0.0
  0
LINE
  5
4AD
330
221
100
AcDbEntity
  8
7_ALL_FEATURES
  6
Continuous
 62
     7
100
AcDbLine
 10
224.7755933282505
 20
146.6354852482211
 30
0.0
 11
225.4972811646505
 21
145.3854852482211
 31
0.0
  0
LINE
  5
4AE
330
221
100
AcDbEntity
  8
7_ALL_FEATURES
  6
Continuous
 62
     7
100
AcDbLine
 10
225.4972811646505
 20
147.8854852482211
 30
0.0
 11
224.7755933282505
 21
146.6354852482211
 31
0.0
  0
LINE
  5
4AF
330
221
100
AcDbEntity
  8
7_ALL_FEATURES
  6
Continuous
 62
     7
100
AcDbLine
 10
235.2189690010505
 20
161.1354852482211
 30
0.0
 11
235.7189690010505
 21
160.6354852482211
 31
0.0
  0
LINE
  5
4B0
330
221
100
AcDbEntity
  8
7_ALL_FEATURES
  6
Continuous
 62
     7
100
AcDbLine
 10
227.6623446740505
 20
146.6354852482211
 30
0.0
 11
226.9406568376505
 21
147.8854852482211
 31
0.0
  0
LINE
  5
4B1
330
221
100
AcDbEntity
  8
7_ALL_FEATURES
  6
Continuous
 62
     7
100
AcDbLine
 10
226.9406568376505
 20
145.3854852482211
 30
0.0
 11
227.6623446740505
 21
146.6354852482211
 31
0.0
  0
LINE
  5
4B2
330
221
100
AcDbEntity
  8
7_ALL_FEATURES
  6
Continuous
 62
     7
100
AcDbLine
 10
235.7189690010505
 20
132.6354852482211
 30
0.0
 11
235.2189690010505
 21
132.1354852482211
 31
0.0
  0
LINE
  5
4B3
330
221
100
AcDbEntity
  8
7_ALL_FEATURES
  6
Continuous
 62
     9
100
AcDbLine
 10
227.2189690010505
 20
134.1354852482211
 30
0.0
 11
227.2189690010505
 21
133.6354852482211
 31
0.0
  0
LINE
  5
4B4
330
221
100
AcDbEntity
  8
7_ALL_FEATURES
  6
Continuous
 62
     9
100
AcDbLine
 10
227.2189690010505
 20
159.1354852482211
 30
0.0
 11
227.2189690010505
 21
159.6354852482211
 31
0.0
  0
LINE
  5
4B5
330
221
100
AcDbEntity
  8
7_ALL_FEATURES
  6
Continuous
 62
     7
100
AcDbLine
 10
232.7189690010505
 20
152.6354852482211
 30
0.0
 11
232.7189690010505
 21
140.6354852482211
 31
0.0
  0
LINE
  5
4B6
330
221
100
AcDbEntity
  8
7_ALL_FEATURES
  6
Continuous
 62
     7
100
AcDbLine
 10
233.2189690010505
 20
140.1354852482211
 30
0.0
 11
233.2189690010505
 21
153.1354852482211
 31
0.0
  0
LINE
  5
4B7
330
221
100
AcDbEntity
  8
7_ALL_FEATURES
  6
Continuous
 62
     7
100
AcDbLine
 10
233.7189690010505
 20
140.1354852482211
 30
0.0
 11
233.7189690010505
 21
153.1354852482211
 31
0.0
  0
LINE
  5
4B8
330
221
100
AcDbEntity
  8
7_ALL_FEATURES
  6
Continuous
 62
     7
100
AcDbLine
 10
235.2189690010505
 20
160.6354852482211
 30
0.0
 11
235.2189690010505
 21
132.6354852482211
 31
0.0
  0
LINE
  5
4B9
330
221
100
AcDbEntity
  8
7_ALL_FEATURES
  6
Continuous
 62
     7
100
AcDbLine
 10
235.7189690010505
 20
160.6354852482211
 30
0.0
 11
235.7189690010505
 21
132.6354852482211
 31
0.0
  0
LINE
  5
4BE
330
221
100
AcDbEntity
  8
7_ALL_FEATURES
  6
Continuous
 62
     7
100
AcDbLine
 10
27.71896900105055
 20
263.5721077013152
 30
0.0
 11
27.71896900105055
 21
185.0721077013152
 31
0.0
  0
LINE
  5
4BF
330
221
100
AcDbEntity
  8
7_ALL_FEATURES
  6
Continuous
 62
     7
100
AcDbLine
 10
28.21896900105055
 20
263.5721077013152
 30
0.0
 11
28.21896900105055
 21
185.0721077013152
 31
0.0
  0
LINE
  5
4C0
330
221
100
AcDbEntity
  8
7_ALL_FEATURES
  6
Continuous
 62
     7
100
AcDbLine
 10
27.71896900105055
 20
263.5721077013152
 30
0.0
 11
28.21896900105055
 21
264.0721077013152
 31
0.0
  0
LINE
  5
4C1
330
221
100
AcDbEntity
  8
7_ALL_FEATURES
  6
Continuous
 62
     7
100
AcDbLine
 10
28.21896900105055
 20
184.5721077013152
 30
0.0
 11
27.71896900105055
 21
185.0721077013152
 31
0.0
  0
LINE
  5
4C2
330
221
100
AcDbEntity
  8
7_ALL_FEATURES
  6
Continuous
 62
     7
100
AcDbLine
 10
27.96896900105055
 20
184.8221077013152
 30
0.0
 11
28.21896900105055
 21
185.0721077013152
 31
0.0
  0
LINE
  5
4C3
330
221
100
AcDbEntity
  8
7_ALL_FEATURES
  6
Continuous
 62
     7
100
AcDbLine
 10
27.96896900105055
 20
263.8221077013152
 30
0.0
 11
28.21896900105055
 21
263.5721077013152
 31
0.0
  0
LINE
  5
4C4
330
221
100
AcDbEntity
  8
7_ALL_FEATURES
  6
Continuous
 62
     7
100
AcDbLine
 10
28.21896900105055
 20
184.5721077013152
 30
0.0
 11
235.2189690010505
 21
184.5721077013152
 31
0.0
  0
LINE
  5
4C5
330
221
100
AcDbEntity
  8
7_ALL_FEATURES
  6
Continuous
 62
     7
100
AcDbLine
 10
28.21896900105055
 20
185.0721077013152
 30
0.0
 11
235.2189690010505
 21
185.0721077013152
 31
0.0
  0
LINE
  5
4CA
330
221
100
AcDbEntity
  8
7_ALL_FEATURES
  6
Continuous
 62
     7
100
AcDbLine
 10
235.4689690010505
 20
263.8221077013152
 30
0.0
 11
235.2189690010505
 21
263.5721077013152
 31
0.0
  0
LINE
  5
4CB
330
221
100
AcDbEntity
  8
7_ALL_FEATURES
  6
Continuous
 62
     7
100
AcDbLine
 10
235.2189690010505
 20
263.5721077013152
 30
0.0
 11
28.21896900105055
 21
263.5721077013152
 31
0.0
  0
LINE
  5
4CC
330
221
100
AcDbEntity
  8
7_ALL_FEATURES
  6
Continuous
 62
     7
100
AcDbLine
 10
235.2189690010505
 20
264.0721077013152
 30
0.0
 11
28.21896900105055
 21
264.0721077013152
 31
0.0
  0
LINE
  5
4CD
330
221
100
AcDbEntity
  8
7_ALL_FEATURES
  6
Continuous
 62
     7
100
AcDbLine
 10
235.2189690010505
 20
185.0721077013152
 30
0.0
 11
235.4689690010505
 21
184.8221077013152
 31
0.0
  0
LINE
  5
4D0
330
221
100
AcDbEntity
  8
7_ALL_FEATURES
  6
Continuous
 62
     7
100
AcDbLine
 10
235.2189690010505
 20
185.0721077013152
 30
0.0
 11
235.2189690010505
 21
263.5721077013152
 31
0.0
  0
LINE
  5
4D1
330
221
100
AcDbEntity
  8
7_ALL_FEATURES
  6
Continuous
 62
     7
100
AcDbLine
 10
235.7189690010505
 20
185.0721077013152
 30
0.0
 11
235.7189690010505
 21
263.5721077013152
 31
0.0
  0
LINE
  5
4D3
330
221
100
AcDbEntity
  8
7_ALL_FEATURES
  6
Continuous
 62
     7
100
AcDbLine
 10
235.7189690010505
 20
185.0721077013152
 30
0.0
 11
235.2189690010505
 21
184.5721077013152
 31
0.0
  0
LINE
  5
4D4
330
221
100
AcDbEntity
  8
7_ALL_FEATURES
  6
Continuous
 62
     7
100
AcDbLine
 10
235.7189690010505
 20
263.5721077013152
 30
0.0
 11
235.2189690010505
 21
264.0721077013152
 31
0.0
  0
LINE
  5
4D5
330
221
100
AcDbEntity
  8
7_ALL_FEATURES
  6
Continuous
 62
     7
100
AcDbLine
 10
267.9487277085399
 20
184.5721077013152
 30
0.0
 11
295.9487277085399
 21
184.5721077013152
 31
0.0
  0
LINE
  5
4D6
330
221
100
AcDbEntity
  8
7_ALL_FEATURES
  6
Continuous
 62
     7
100
AcDbLine
 10
267.9487277085399
 20
185.0721077013152
 30
0.0
 11
295.9487277085399
 21
185.0721077013152
 31
0.0
  0
LINE
  5
4D8
330
221
100
AcDbEntity
  8
7_ALL_FEATURES
  6
Continuous
 62
     7
100
AcDbLine
 10
267.4487277085399
 20
263.5721077013152
 30
0.0
 11
267.9487277085399
 21
264.0721077013152
 31
0.0
  0
LINE
  5
4D9
330
221
100
AcDbEntity
  8
7_ALL_FEATURES
  6
Continuous
 62
     7
100
AcDbLine
 10
267.4487277085399
 20
185.0721077013152
 30
0.0
 11
267.9487277085399
 21
184.5721077013152
 31
0.0
  0
LINE
  5
4DA
330
221
100
AcDbEntity
  8
7_ALL_FEATURES
  6
Continuous
 62
     7
100
AcDbLine
 10
280.6987277085399
 20
255.0437955379152
 30
0.0
 11
281.9487277085399
 21
255.7654833743152
 31
0.0
  0
LINE
  5
4DB
330
221
100
AcDbEntity
  8
7_ALL_FEATURES
  6
Continuous
 62
     7
100
AcDbLine
 10
283.1987277085399
 20
253.6004198649152
 30
0.0
 11
281.9487277085399
 21
252.8787320285152
 31
0.0
  0
LINE
  5
4DC
330
221
100
AcDbEntity
  8
7_ALL_FEATURES
  6
Continuous
 62
     7
100
AcDbLine
 10
295.9487277085399
 20
263.5721077013152
 30
0.0
 11
296.1987277085399
 21
263.8221077013152
 31
0.0
  0
LINE
  5
4DD
330
221
100
AcDbEntity
  8
7_ALL_FEATURES
  6
Continuous
 62
     7
100
AcDbLine
 10
295.9487277085399
 20
185.0721077013152
 30
0.0
 11
296.1987277085399
 21
184.8221077013152
 31
0.0
  0
LINE
  5
4DE
330
221
100
AcDbEntity
  8
7_ALL_FEATURES
  6
Continuous
 62
     7
100
AcDbLine
 10
267.4487277085399
 20
185.0721077013152
 30
0.0
 11
267.4487277085399
 21
263.5721077013152
 31
0.0
  0
LINE
  5
4DF
330
221
100
AcDbEntity
  8
7_ALL_FEATURES
  6
Continuous
 62
     7
100
AcDbLine
 10
267.9487277085399
 20
185.0721077013152
 30
0.0
 11
267.9487277085399
 21
263.5721077013152
 31
0.0
  0
LINE
  5
4E0
330
221
100
AcDbEntity
  8
7_ALL_FEATURES
  6
Continuous
 62
     7
100
AcDbLine
 10
280.6987277085399
 20
255.0437955379152
 30
0.0
 11
280.6987277085399
 21
253.6004198649152
 31
0.0
  0
LINE
  5
4E1
330
221
100
AcDbEntity
  8
7_ALL_FEATURES
  6
Continuous
 62
     7
100
AcDbLine
 10
283.1987277085399
 20
253.6004198649152
 30
0.0
 11
283.1987277085399
 21
255.0437955379152
 31
0.0
  0
LINE
  5
4E2
330
221
100
AcDbEntity
  8
7_ALL_FEATURES
  6
Continuous
 62
     7
100
AcDbLine
 10
295.9487277085399
 20
263.5721077013152
 30
0.0
 11
295.9487277085399
 21
185.0721077013152
 31
0.0
  0
LINE
  5
4E3
330
221
100
AcDbEntity
  8
7_ALL_FEATURES
  6
Continuous
 62
     7
100
AcDbLine
 10
296.4487277085399
 20
263.5721077013152
 30
0.0
 11
296.4487277085399
 21
185.0721077013152
 31
0.0
  0
LINE
  5
4E4
330
221
100
AcDbEntity
  8
7_ALL_FEATURES
  6
Continuous
 62
     7
100
AcDbLine
 10
267.9487277085399
 20
185.0721077013152
 30
0.0
 11
267.6987277085399
 21
184.8221077013152
 31
0.0
  0
LINE
  5
4E5
330
221
100
AcDbEntity
  8
7_ALL_FEATURES
  6
Continuous
 62
     7
100
AcDbLine
 10
267.6987277085399
 20
263.8221077013152
 30
0.0
 11
267.9487277085399
 21
263.5721077013152
 31
0.0
  0
LINE
  5
4E6
330
221
100
AcDbEntity
  8
7_ALL_FEATURES
  6
Continuous
 62
     7
100
AcDbLine
 10
281.9487277085399
 20
252.8787320285152
 30
0.0
 11
280.6987277085399
 21
253.6004198649152
 31
0.0
  0
LINE
  5
4E7
330
221
100
AcDbEntity
  8
7_ALL_FEATURES
  6
Continuous
 62
     7
100
AcDbLine
 10
281.9487277085399
 20
255.7654833743152
 30
0.0
 11
283.1987277085399
 21
255.0437955379152
 31
0.0
  0
LINE
  5
4E8
330
221
100
AcDbEntity
  8
7_ALL_FEATURES
  6
Continuous
 62
     7
100
AcDbLine
 10
267.9487277085399
 20
263.5721077013152
 30
0.0
 11
295.9487277085399
 21
263.5721077013152
 31
0.0
  0
LINE
  5
4E9
330
221
100
AcDbEntity
  8
7_ALL_FEATURES
  6
Continuous
 62
     7
100
AcDbLine
 10
295.9487277085399
 20
184.5721077013152
 30
0.0
 11
296.4487277085399
 21
185.0721077013152
 31
0.0
  0
LINE
  5
4EA
330
221
100
AcDbEntity
  8
7_ALL_FEATURES
  6
Continuous
 62
     7
100
AcDbLine
 10
267.9487277085399
 20
264.0721077013152
 30
0.0
 11
295.9487277085399
 21
264.0721077013152
 31
0.0
  0
LINE
  5
4EC
330
221
100
AcDbEntity
  8
7_ALL_FEATURES
  6
Continuous
 62
     7
100
AcDbLine
 10
295.9487277085399
 20
264.0721077013152
 30
0.0
 11
296.4487277085399
 21
263.5721077013152
 31
0.0
  0
ARC
  5
4ED
330
221
100
AcDbEntity
  8
7_ALL_FEATURES
  6
Continuous
 62
     7
100
AcDbCircle
 10
296.0617144124093
 20
121.3630724371911
 30
0.0
 40
0.2286364656
100
AcDbArc
 50
291.1225606572978
 51
292.310799327704
  0
ARC
  5
4EE
330
221
100
AcDbEntity
  8
7_ALL_FEATURES
  6
Continuous
 62
     7
100
AcDbCircle
 10
296.0663089296093
 20
121.3509935757911
 30
0.0
 40
0.2157134733
100
AcDbArc
 50
287.9898492648037
 51
291.1403483462974
  0
ARC
  5
4EF
330
221
100
AcDbEntity
  8
7_ALL_FEATURES
  6
Continuous
 62
     7
100
AcDbCircle
 10
115.5783252672505
 20
117.0125476484211
 30
0.0
 40
43.94511497
100
AcDbArc
 50
144.3334645585001
 51
145.1319129223
  0
ARC
  5
4F0
330
221
100
AcDbEntity
  8
7_ALL_FEATURES
  6
Continuous
 62
     7
100
AcDbCircle
 10
56.7189684838505
 20
146.6354852180211
 30
0.0
 40
13.0000003418
100
AcDbArc
 50
285.9423592115
 51
292.5858603685
  0
ARC
  5
4F1
330
221
100
AcDbEntity
  8
7_ALL_FEATURES
  6
Continuous
 62
     7
100
AcDbCircle
 10
91.71896933225051
 20
146.6354852556211
 30
0.0
 40
13.0000002288
100
AcDbArc
 50
105.9423700179999
 51
159.7477537285
  0
ARC
  5
4F2
330
221
100
AcDbEntity
  8
7_ALL_FEATURES
  6
Continuous
 62
     7
100
AcDbCircle
 10
56.7189690010505
 20
146.6354852482211
 30
0.0
 40
13.0
100
AcDbArc
 50
247.4064672645
 51
254.0576727650999
  0
ARC
  5
4F3
330
221
100
AcDbEntity
  8
7_ALL_FEATURES
  6
Continuous
 62
     7
100
AcDbCircle
 10
56.7189690010505
 20
146.6354852482211
 30
0.0
 40
13.0
100
AcDbArc
 50
105.9423272338
 51
112.5935327350002
  0
ARC
  5
4F4
330
221
100
AcDbEntity
  8
7_ALL_FEATURES
  6
Continuous
 62
     7
100
AcDbCircle
 10
91.71896879565051
 20
146.6354850128211
 30
0.0
 40
12.9999996588
100
AcDbArc
 50
247.3837331466999
 51
254.0576319804
  0
ARC
  5
4F5
330
221
100
AcDbEntity
  8
7_ALL_FEATURES
  6
Continuous
 62
     7
100
AcDbCircle
 10
91.71896879565051
 20
146.6354850128211
 30
0.0
 40
12.9999996588
100
AcDbArc
 50
200.2522461559997
 51
202.6287442052999
  0
ARC
  5
4F6
330
221
100
AcDbEntity
  8
7_ALL_FEATURES
  6
Continuous
 62
     7
100
AcDbCircle
 10
56.71896925565049
 20
146.6354855300211
 30
0.0
 40
12.9999995848
100
AcDbArc
 50
67.41414498160003
 51
74.05764351950005
  0
ARC
  5
4F7
330
221
100
AcDbEntity
  8
7_ALL_FEATURES
  6
Continuous
 62
     7
100
AcDbCircle
 10
56.71896925565049
 20
146.6354855300211
 30
0.0
 40
12.9999995848
100
AcDbArc
 50
20.2522460581
 51
22.55845864219996
  0
ARC
  5
4F8
330
221
100
AcDbEntity
  8
7_ALL_FEATURES
  6
Continuous
 62
     7
100
AcDbCircle
 10
56.7189690010505
 20
146.6354852482211
 30
0.0
 40
12.5
100
AcDbArc
 50
253.8188881781
 51
286.1650891844999
  0
ARC
  5
4F9
330
221
100
AcDbEntity
  8
7_ALL_FEATURES
  6
Continuous
 62
     7
100
AcDbCircle
 10
56.7189690010505
 20
146.6354852482211
 30
0.0
 40
12.5
100
AcDbArc
 50
1.810884215799922
 51
16.21172478570019
  0
ARC
  5
4FA
330
221
100
AcDbEntity
  8
7_ALL_FEATURES
  6
Continuous
 62
     7
100
AcDbCircle
 10
91.71896879565051
 20
146.6354850128211
 30
0.0
 40
12.4999997066
100
AcDbArc
 50
90.00000151799996
 51
203.5897421104
  0
ARC
  5
4FB
330
221
100
AcDbEntity
  8
7_ALL_FEATURES
  6
Continuous
 62
     7
100
AcDbCircle
 10
91.71896879565051
 20
146.6354850128211
 30
0.0
 40
12.4999997066
100
AcDbArc
 50
253.8349139539
 51
270.0000009421
  0
ARC
  5
4FC
330
221
100
AcDbEntity
  8
7_ALL_FEATURES
  6
Continuous
 62
     7
100
AcDbCircle
 10
56.71896925565049
 20
146.6354855300211
 30
0.0
 40
12.4999996444
100
AcDbArc
 50
73.83491399500004
 51
106.1811171684
  0
ARC
  5
4FD
330
221
100
AcDbEntity
  8
7_ALL_FEATURES
  6
Continuous
 62
     7
100
AcDbCircle
 10
36.2189690010505
 20
140.1354852482211
 30
0.0
 40
6.5
100
AcDbArc
 50
180.0
 51
270.0
  0
ARC
  5
4FE
330
221
100
AcDbEntity
  8
7_ALL_FEATURES
  6
Continuous
 62
     7
100
AcDbCircle
 10
36.7189690010505
 20
140.6354852482211
 30
0.0
 40
6.0
100
AcDbArc
 50
180.0
 51
270.0
  0
ARC
  5
4FF
330
221
100
AcDbEntity
  8
7_ALL_FEATURES
  6
Continuous
 62
     7
100
AcDbCircle
 10
36.2189690010505
 20
140.1354852482211
 30
0.0
 40
6.0
100
AcDbArc
 50
180.0
 51
270.0
  0
CIRCLE
  5
500
330
221
100
AcDbEntity
  8
7_ALL_FEATURES
  6
Continuous
 62
     7
100
AcDbCircle
 10
37.2189690010505
 20
146.6354852482211
 30
0.0
 40
4.35
  0
CIRCLE
  5
501
330
221
100
AcDbEntity
  8
02___PRT_ALL_AXES
  6
Continuous
 62
     7
100
AcDbCircle
 10
37.2189690010505
 20
146.6354852482211
 30
0.0
 40
4.0
  0
ARC
  5
502
330
221
100
AcDbEntity
  8
7_ALL_FEATURES
  6
Continuous
 62
     7
100
AcDbCircle
 10
125.9525574382505
 20
142.6343211586211
 30
0.0
 40
3.598782342
100
AcDbArc
 50
167.9190329908004
 51
179.9814666690004
  0
ARC
  5
503
330
221
100
AcDbEntity
  8
7_ALL_FEATURES
  6
Continuous
 62
     7
100
AcDbCircle
 10
91.71896900105051
 20
139.1354852482211
 30
0.0
 40
3.0
100
AcDbArc
 50
56.51673840720061
 51
123.4117183752992
  0
ARC
  5
504
330
221
100
AcDbEntity
  8
02___PRT_ALL_AXES
  6
Continuous
 62
     7
100
AcDbCircle
 10
91.71896900105051
 20
139.1354852482211
 30
0.0
 40
2.8
100
AcDbArc
 50
63.54652590449979
 51
116.4534740955002
  0
ARC
  5
505
330
221
100
AcDbEntity
  8
02___PRT_ALL_AXES
  6
Continuous
 62
     7
100
AcDbCircle
 10
51.7189690010505
 20
144.1354852482211
 30
0.0
 40
2.5
100
AcDbArc
 50
180.0
 51
0.0
  0
ARC
  5
506
330
221
100
AcDbEntity
  8
06___PRT_ALL_SURFS
  6
Continuous
 62
     7
100
AcDbCircle
 10
118.1401032806505
 20
146.4482753074211
 30
0.0
 40
0.7672927692
100
AcDbArc
 50
204.402114272903
 51
206.5630798086036
  0
ARC
  5
507
330
221
100
AcDbEntity
  8
06___PRT_ALL_SURFS
  6
Continuous
 62
     7
100
AcDbCircle
 10
118.1401032804505
 20
146.8226951892211
 30
0.0
 40
0.7672927692
100
AcDbArc
 50
153.4369201913006
 51
155.5978857274048
  0
ARC
  5
508
330
221
100
AcDbEntity
  8
7_ALL_FEATURES
  6
Continuous
 62
     7
100
AcDbCircle
 10
32.21040729685051
 20
176.7151758830211
 30
0.0
 40
44.7388896504
100
AcDbArc
 50
324.6901989040999
 51
325.1272912800999
  0
ARC
  5
509
330
221
100
AcDbEntity
  8
7_ALL_FEATURES
  6
Continuous
 62
     7
100
AcDbCircle
 10
115.5781235340505
 20
176.2582801856211
 30
0.0
 40
43.944867895
100
AcDbArc
 50
214.8680848329999
 51
215.6665376861
  0
ARC
  5
50A
330
221
100
AcDbEntity
  8
7_ALL_FEATURES
  6
Continuous
 62
     7
100
AcDbCircle
 10
76.7189690010505
 20
149.6354852482211
 30
0.0
 40
8.0
100
AcDbArc
 50
180.0
 51
270.0
  0
ARC
  5
50B
330
221
100
AcDbEntity
  8
7_ALL_FEATURES
  6
Continuous
 62
     7
100
AcDbCircle
 10
36.2189690010505
 20
153.1354852482211
 30
0.0
 40
6.5
100
AcDbArc
 50
90.0
 51
180.0
  0
ARC
  5
50C
330
221
100
AcDbEntity
  8
7_ALL_FEATURES
  6
Continuous
 62
     7
100
AcDbCircle
 10
36.7189690010505
 20
152.6354852482211
 30
0.0
 40
6.0
100
AcDbArc
 50
90.0
 51
180.0
  0
ARC
  5
50D
330
221
100
AcDbEntity
  8
7_ALL_FEATURES
  6
Continuous
 62
     7
100
AcDbCircle
 10
36.2189690010505
 20
153.1354852482211
 30
0.0
 40
6.0
100
AcDbArc
 50
90.0
 51
180.0
  0
ARC
  5
50E
330
221
100
AcDbEntity
  8
7_ALL_FEATURES
  6
Continuous
 62
     7
100
AcDbCircle
 10
56.7189690010505
 20
153.8354852482211
 30
0.0
 40
5.25
100
AcDbArc
 50
205.2831817597998
 51
241.3518253214998
  0
ARC
  5
50F
330
221
100
AcDbEntity
  8
7_ALL_FEATURES
  6
Continuous
 62
     7
100
AcDbCircle
 10
56.7189690010505
 20
153.8354852482211
 30
0.0
 40
5.25
100
AcDbArc
 50
66.1870942067999
 51
113.8129057597999
  0
ARC
  5
510
330
221
100
AcDbEntity
  8
7_ALL_FEATURES
  6
Continuous
 62
     7
100
AcDbCircle
 10
56.7189690010505
 20
153.8354852482211
 30
0.0
 40
4.75
100
AcDbArc
 50
210.1626914907995
 51
236.5351514357001
  0
ARC
  5
511
330
221
100
AcDbEntity
  8
02___PRT_ALL_AXES
  6
Continuous
 62
     7
100
AcDbCircle
 10
56.7189690010505
 20
153.8354852482211
 30
0.0
 40
4.6
100
AcDbArc
 50
213.330384699099
 51
233.3229652788995
  0
CIRCLE
  5
512
330
221
100
AcDbEntity
  8
02___PRT_ALL_AXES
  6
Continuous
 62
     7
100
AcDbCircle
 10
91.71896900105051
 20
153.8354852482211
 30
0.0
 40
4.0
  0
CIRCLE
  5
513
330
221
100
AcDbEntity
  8
02___PRT_ALL_AXES
  6
Continuous
 62
     7
100
AcDbCircle
 10
91.71896900105051
 20
153.8354852482211
 30
0.0
 40
3.8
  0
ARC
  5
514
330
221
100
AcDbEntity
  8
02___PRT_ALL_AXES
  6
Continuous
 62
     7
100
AcDbCircle
 10
51.7189690010505
 20
149.1354852482211
 30
0.0
 40
2.5
100
AcDbArc
 50
0.0
 51
180.0
  0
ARC
  5
515
330
221
100
AcDbEntity
  8
7_ALL_FEATURES
  6
Continuous
 62
     7
100
AcDbCircle
 10
66.7189690010505
 20
156.6354852482211
 30
0.0
 40
2.0
100
AcDbArc
 50
0.0
 51
90.0
  0
CIRCLE
  5
516
330
221
100
AcDbEntity
  8
02___PRT_ALL_AXES
  6
Continuous
 62
     7
100
AcDbCircle
 10
91.71896900105051
 20
153.8354852482211
 30
0.0
 40
1.965
  0
ARC
  5
517
330
221
100
AcDbEntity
  8
7_ALL_FEATURES
  6
Continuous
 62
     7
100
AcDbCircle
 10
206.7189689996505
 20
146.6354852442211
 30
0.0
 40
13.000000003
100
AcDbArc
 50
67.40646231740001
 51
74.05763139310008
  0
ARC
  5
518
330
221
100
AcDbEntity
  8
7_ALL_FEATURES
  6
Continuous
 62
     7
100
AcDbCircle
 10
206.7189689996505
 20
146.6354852442211
 30
0.0
 40
13.000000003
100
AcDbArc
 50
285.9423686169999
 51
292.5935377825999
  0
ARC
  5
519
330
221
100
AcDbEntity
  8
7_ALL_FEATURES
  6
Continuous
 62
     7
100
AcDbCircle
 10
206.7189689996505
 20
146.6354852442211
 30
0.0
 40
12.500000001
100
AcDbArc
 50
270.0000000068
 51
286.1629942050998
  0
ARC
  5
51A
330
221
100
AcDbEntity
  8
7_ALL_FEATURES
  6
Continuous
 62
     7
100
AcDbCircle
 10
206.7189689996505
 20
146.6354852442211
 30
0.0
 40
12.500000001
100
AcDbArc
 50
73.83700580540005
 51
89.9999999932
  0
ARC
  5
51B
330
221
100
AcDbEntity
  8
7_ALL_FEATURES
  6
Continuous
 62
     7
100
AcDbCircle
 10
227.2189690010505
 20
140.1354852482211
 30
0.0
 40
6.5
100
AcDbArc
 50
270.0
 51
0.0
  0
ARC
  5
51C
330
221
100
AcDbEntity
  8
7_ALL_FEATURES
  6
Continuous
 62
     7
100
AcDbCircle
 10
226.7189690010505
 20
140.6354852482211
 30
0.0
 40
6.0
100
AcDbArc
 50
270.0
 51
0.0
  0
ARC
  5
51D
330
221
100
AcDbEntity
  8
7_ALL_FEATURES
  6
Continuous
 62
     7
100
AcDbCircle
 10
227.2189690010505
 20
140.1354852482211
 30
0.0
 40
6.0
100
AcDbArc
 50
270.0
 51
0.0
  0
ARC
  5
51E
330
221
100
AcDbEntity
  8
02___PRT_ALL_AXES
  6
Continuous
 62
     7
100
AcDbCircle
 10
131.7189690010505
 20
131.1354852482211
 30
0.0
 40
5.0
100
AcDbArc
 50
44.42700400079953
 51
135.5729959991998
  0
CIRCLE
  5
51F
330
221
100
AcDbEntity
  8
7_ALL_FEATURES
  6
Continuous
 62
     7
100
AcDbCircle
 10
226.2189690010505
 20
146.6354852482211
 30
0.0
 40
4.35
  0
CIRCLE
  5
520
330
221
100
AcDbEntity
  8
02___PRT_ALL_AXES
  6
Continuous
 62
     7
100
AcDbCircle
 10
226.2189690010505
 20
146.6354852482211
 30
0.0
 40
4.0
  0
ARC
  5
521
330
221
100
AcDbEntity
  8
02___PRT_ALL_AXES
  6
Continuous
 62
     7
100
AcDbCircle
 10
214.2189690010505
 20
146.6354852482211
 30
0.0
 40
2.5
100
AcDbArc
 50
270.0
 51
90.0
  0
ARC
  5
522
330
221
100
AcDbEntity
  8
02___PRT_ALL_AXES
  6
Continuous
 62
     7
100
AcDbCircle
 10
209.2189690010505
 20
146.6354852482211
 30
0.0
 40
2.5
100
AcDbArc
 50
90.0
 51
270.0
  0
ARC
  5
523
330
221
100
AcDbEntity
  8
7_ALL_FEATURES
  6
Continuous
 62
     7
100
AcDbCircle
 10
186.7189690010505
 20
149.6354852482211
 30
0.0
 40
8.0
100
AcDbArc
 50
270.0
 51
0.0
  0
ARC
  5
524
330
221
100
AcDbEntity
  8
7_ALL_FEATURES
  6
Continuous
 62
     7
100
AcDbCircle
 10
227.2189690010505
 20
153.1354852482211
 30
0.0
 40
6.5
100
AcDbArc
 50
0.0
 51
90.0
  0
ARC
  5
525
330
221
100
AcDbEntity
  8
7_ALL_FEATURES
  6
Continuous
 62
     7
100
AcDbCircle
 10
226.7189690010505
 20
152.6354852482211
 30
0.0
 40
6.0
100
AcDbArc
 50
0.0
 51
90.0
  0
ARC
  5
526
330
221
100
AcDbEntity
  8
7_ALL_FEATURES
  6
Continuous
 62
     7
100
AcDbCircle
 10
227.2189690010505
 20
153.1354852482211
 30
0.0
 40
6.0
100
AcDbArc
 50
0.0
 51
90.0
  0
ARC
  5
527
330
221
100
AcDbEntity
  8
7_ALL_FEATURES
  6
Continuous
 62
     7
100
AcDbCircle
 10
196.7189690010505
 20
156.6354852482211
 30
0.0
 40
2.0
100
AcDbArc
 50
90.0
 51
180.0
  0
CIRCLE
  5
528
330
221
100
AcDbEntity
  8
7_ALL_FEATURES
  6
Continuous
 62
     7
100
AcDbCircle
 10
281.9487277085399
 20
254.3221077013152
 30
0.0
 40
2.8
  0
CIRCLE
  5
529
330
221
100
AcDbEntity
  8
7_ALL_FEATURES
  6
Continuous
 62
     7
100
AcDbCircle
 10
281.9487277085399
 20
254.3221077013152
 30
0.0
 40
2.5
  0
CIRCLE
  5
52A
330
221
100
AcDbEntity
  8
7_ALL_FEATURES
  6
Continuous
 62
     7
100
AcDbCircle
 10
281.9487277085399
 20
254.3221077013152
 30
0.0
 40
2.2
  0
CIRCLE
  5
52B
330
221
100
AcDbEntity
  8
02___PRT_ALL_AXES
  6
Continuous
 62
     7
100
AcDbCircle
 10
281.9487277085399
 20
254.3221077013152
 30
0.0
 40
1.65
  0
CIRCLE
  5
52C
330
221
100
AcDbEntity
  8
7_ALL_FEATURES
  6
Continuous
 62
     7
100
AcDbCircle
 10
281.9487277085399
 20
254.3221077013152
 30
0.0
 40
1.55
  0
SPLINE
  5
52D
330
221
100
AcDbEntity
  8
7_ALL_FEATURES
  6
Continuous
 62
     7
100
AcDbSpline
210
0.0
220
0.0
230
1.0
 70
     8
 71
     3
 72
     9
 73
     5
 74
     0
 42
0.000000001
 43
0.0000001
 40
0.0
 40
0.0
 40
0.0
 40
0.0
 40
0.5385437959
 40
1.0
 40
1.0
 40
1.0
 40
1.0
 10
296.4281954894093
 20
121.968948222291
 30
0.0
 10
296.4276116993093
 20
121.920690512191
 30
0.0
 10
296.4303960244093
 20
121.830980950791
 30
0.0
 10
296.4435278772093
 20
121.741962309191
 30
0.0
 10
296.4532803047093
 20
121.701775643891
 30
0.0
  0
SPLINE
  5
52E
330
221
100
AcDbEntity
  8
7_ALL_FEATURES
  6
Continuous
 62
     7
100
AcDbSpline
210
0.0
220
0.0
230
1.0
 70
     8
 71
     3
 72
     9
 73
     5
 74
     0
 42
0.000000001
 43
0.0000001
 40
0.0
 40
0.0
 40
0.0
 40
0.0
 40
0.2522179771
 40
1.0
 40
1.0
 40
1.0
 40
1.0
 10
296.5391918691093
 20
122.343681014791
 30
0.0
 10
296.5449488145093
 20
122.331063975791
 30
0.0
 10
296.5670668592093
 20
122.280730247791
 30
0.0
 10
296.5860112398093
 20
122.228920618691
 30
0.0
 10
296.5973262361093
 20
122.189390815291
 30
0.0
  0
SPLINE
  5
52F
330
221
100
AcDbEntity
  8
7_ALL_FEATURES
  6
Continuous
 62
     7
100
AcDbSpline
210
0.0
220
0.0
230
1.0
 70
     8
 71
     3
 72
    15
 73
    11
 74
     0
 42
0.000000001
 43
0.0000001
 40
0.0
 40
0.0
 40
0.0
 40
0.0
 40
0.0979602536
 40
0.2098697202
 40
0.3331658626
 40
0.4646864095
 40
0.6008844716
 40
0.7380113081
 40
0.8722679468
 40
1.0
 40
1.0
 40
1.0
 40
1.0
 10
296.6902686372093
 20
122.921417089691
 30
0.0
 10
296.6712514514093
 20
122.894878712891
 30
0.0
 10
296.6346872946093
 20
122.835014727691
 30
0.0
 10
296.5865027817093
 20
122.734839877191
 30
0.0
 10
296.5424912905093
 20
122.620688360391
 30
0.0
 10
296.5040524738093
 20
122.496072511291
 30
0.0
 10
296.4723928620093
 20
122.364824379791
 30
0.0
 10
296.4485070086093
 20
122.231015006491
 30
0.0
 10
296.4331314108093
 20
122.098806659691
 30
0.0
 10
296.4287104504093
 20
122.011516330491
 30
0.0
 10
296.4281954894093
 20
121.968948222291
 30
0.0
  0
SPLINE
  5
530
330
221
100
AcDbEntity
  8
7_ALL_FEATURES
  6
Continuous
 62
     7
100
AcDbSpline
210
0.0
220
0.0
230
1.0
 70
     8
 71
     3
 72
     9
 73
     5
 74
     0
 42
0.000000001
 43
0.0000001
 40
0.0
 40
0.0
 40
0.0
 40
0.0
 40
0.2526169927
 40
1.0
 40
1.0
 40
1.0
 40
1.0
 10
296.5391918691093
 20
122.343681014791
 30
0.0
 10
296.5488607198093
 20
122.352230698291
 30
0.0
 10
296.5866851061093
 20
122.386570073391
 30
0.0
 10
296.6225227283093
 20
122.423184119491
 30
0.0
 10
296.6473713602093
 20
122.452178393091
 30
0.0
  0
SPLINE
  5
531
330
221
100
AcDbEntity
  8
7_ALL_FEATURES
  6
Continuous
 62
     7
100
AcDbSpline
210
0.0
220
0.0
230
1.0
 70
     8
 71
     3
 72
     9
 73
     5
 74
     0
 42
0.000000001
 43
0.0000001
 40
0.0
 40
0.0
 40
0.0
 40
0.0
 40
0.2635440966
 40
1.0
 40
1.0
 40
1.0
 40
1.0
 10
296.1356432247093
 20
121.137202138891
 30
0.0
 10
296.1305024173093
 20
121.131832169491
 30
0.0
 10
296.1106792224093
 20
121.111766460791
 30
0.0
 10
296.0895268399093
 20
121.092978302291
 30
0.0
 10
296.0731138520093
 20
121.080243874991
 30
0.0
  0
SPLINE
  5
532
330
221
100
AcDbEntity
  8
7_ALL_FEATURES
  6
Continuous
 62
     7
100
AcDbSpline
210
0.0
220
0.0
230
1.0
 70
     8
 71
     3
 72
    10
 73
     6
 74
     0
 42
0.000000001
 43
0.0000001
 40
0.0
 40
0.0
 40
0.0
 40
0.0
 40
0.2301950563
 40
0.4691655909
 40
1.0
 40
1.0
 40
1.0
 40
1.0
 10
299.5084895418093
 20
87.73720046549104
 30
0.0
 10
299.5087341011093
 20
87.75741408649104
 30
0.0
 10
299.5139094900093
 20
87.79869752479104
 30
0.0
 10
299.5434332328093
 20
87.88196112229103
 30
0.0
 10
299.5847514745093
 20
87.93761382529104
 30
0.0
 10
299.6169879306093
 20
87.97128728789104
 30
0.0
  0
SPLINE
  5
533
330
221
100
AcDbEntity
  8
7_ALL_FEATURES
  6
Continuous
 62
     7
100
AcDbSpline
210
0.0
220
0.0
230
1.0
 70
     8
 71
     3
 72
    19
 73
    15
 74
     0
 42
0.000000001
 43
0.0000001
 40
0.0
 40
0.0
 40
0.0
 40
0.0
 40
0.0400174099
 40
0.0871015948
 40
0.1410601099
 40
0.2013024284
 40
0.3369381508
 40
0.4851986657
 40
0.6356537891
 40
0.7776270192
 40
0.8423634022
 40
0.9015014956
 40
0.9542228637
 40
1.0
 40
1.0
 40
1.0
 40
1.0
 10
296.5707303675093
 20
123.640270442591
 30
0.0
 10
296.5884080045093
 20
123.609889258091
 30
0.0
 10
296.6195711075093
 20
123.539500610791
 30
0.0
 10
296.6531900919093
 20
123.419992109591
 30
0.0
 10
296.6769411639093
 20
123.280102427791
 30
0.0
 10
296.6954233896093
 20
123.061244401491
 30
0.0
 10
296.6889993602093
 20
122.758202011291
 30
0.0
 10
296.6414108251093
 20
122.379100415891
 30
0.0
 10
296.5568024934093
 20
122.000799141291
 30
0.0
 10
296.4583889039093
 20
121.702169571191
 30
0.0
 10
296.3649934791093
 20
121.4879844103911
 30
0.0
 10
296.2929136112093
 20
121.350440595691
 30
0.0
 10
296.2181353298093
 20
121.233690219591
 30
0.0
 10
296.1634488080093
 20
121.166247213491
 30
0.0
 10
296.1356432247093
 20
121.137202138891
 30
0.0
  0
SPLINE
  5
534
330
221
100
AcDbEntity
  8
7_ALL_FEATURES
  6
Continuous
 62
     7
100
AcDbSpline
210
0.0
220
0.0
230
1.0
 70
     8
 71
     3
 72
     9
 73
     5
 74
     0
 42
0.000000001
 43
0.0000001
 40
0.0
 40
0.0
 40
0.0
 40
0.0
 40
0.5151691241
 40
1.0
 40
1.0
 40
1.0
 40
1.0
 10
296.1329317115093
 20
121.145826064991
 30
0.0
 10
296.1193489841093
 20
121.141421135491
 30
0.0
 10
296.0919574016093
 20
121.135565414191
 30
0.0
 10
296.0638854857093
 20
121.137017329291
 30
0.0
 10
296.0506941818093
 20
121.139581685691
 30
0.0
  0
SPLINE
  5
535
330
221
100
AcDbEntity
  8
7_ALL_FEATURES
  6
Continuous
 62
     7
100
AcDbSpline
210
0.0
220
0.0
230
1.0
 70
     8
 71
     3
 72
     9
 73
     5
 74
     0
 42
0.000000001
 43
0.0000001
 40
0.0
 40
0.0
 40
0.0
 40
0.0
 40
0.479091598
 40
1.0
 40
1.0
 40
1.0
 40
1.0
 10
296.5277166068093
 20
123.593649338291
 30
0.0
 10
296.5435193059093
 20
123.590577333291
 30
0.0
 10
296.5755797127093
 20
123.578460275291
 30
0.0
 10
296.6023151040093
 20
123.557362079491
 30
0.0
 10
296.6147785272093
 20
123.5450721957911
 30
0.0
  0
SPLINE
  5
536
330
221
100
AcDbEntity
  8
7_ALL_FEATURES
  6
Continuous
 62
     7
100
AcDbSpline
210
0.0
220
0.0
230
1.0
 70
     8
 71
     3
 72
    15
 73
    11
 74
     0
 42
0.000000001
 43
0.0000001
 40
0.0
 40
0.0
 40
0.0
 40
0.0
 40
0.0874391462
 40
0.1904987768
 40
0.3081704031
 40
0.4379033991
 40
0.5761752014
 40
0.7188760088
 40
0.8616154409
 40
1.0
 40
1.0
 40
1.0
 40
1.0
 10
303.4578563708093
 20
91.98337035529104
 30
0.0
 10
303.4964646888093
 20
92.02369971869103
 30
0.0
 10
303.5936055283093
 20
92.09909751609104
 30
0.0
 10
303.7696502756093
 20
92.18853547249104
 30
0.0
 10
303.9819936645093
 20
92.26109875789103
 30
0.0
 10
304.2229346517093
 20
92.31401690479103
 30
0.0
 10
304.4836671959093
 20
92.34534801679104
 30
0.0
 10
304.7544184695093
 20
92.35385167709104
 30
0.0
 10
305.0249505316093
 20
92.33920078559103
 30
0.0
 10
305.2029427247093
 20
92.31372185669103
 30
0.0
 10
305.2896790199093
 20
92.29686202889104
 30
0.0
  0
SPLINE
  5
537
330
221
100
AcDbEntity
  8
7_ALL_FEATURES
  6
Continuous
 62
     7
100
AcDbSpline
210
0.0
220
0.0
230
1.0
 70
     8
 71
     3
 72
    14
 73
    10
 74
     0
 42
0.000000001
 43
0.0000001
 40
0.0
 40
0.0
 40
0.0
 40
0.0
 40
0.3300294873
 40
0.4765457328
 40
0.608360832
 40
0.7248714718
 40
0.8268214407
 40
0.9168607729
 40
1.0
 40
1.0
 40
1.0
 40
1.0
 10
387.1090267114093
 20
76.39279193109104
 30
0.0
 10
387.2285472844093
 20
76.36955948519103
 30
0.0
 10
387.3995950608093
 20
76.32434305679104
 30
0.0
 10
387.6063098555093
 20
76.23604557439104
 30
0.0
 10
387.7331873702092
 20
76.16366527569103
 30
0.0
 10
387.8355532250093
 20
76.08388054549104
 30
0.0
 10
387.9113305857093
 20
75.99779048279103
 30
0.0
 10
387.9584013993093
 20
75.90643476169103
 30
0.0
 10
387.9688714205093
 20
75.84201229219104
 30
0.0
 10
387.9685003490093
 20
75.81134202609104
 30
0.0
  0
SPLINE
  5
538
330
221
100
AcDbEntity
  8
7_ALL_FEATURES
  6
Continuous
 62
     7
100
AcDbSpline
210
0.0
220
0.0
230
1.0
 70
     8
 71
     3
 72
    10
 73
     6
 74
     0
 42
0.000000001
 43
0.0000001
 40
0.0
 40
0.0
 40
0.0
 40
0.0
 40
0.2301950563
 40
0.4691655909
 40
1.0
 40
1.0
 40
1.0
 40
1.0
 10
387.9685003490093
 20
75.81134202609104
 30
0.0
 10
387.9682557897093
 20
75.79112840519103
 30
0.0
 10
387.9630804008094
 20
75.74984496689103
 30
0.0
 10
387.9335566580093
 20
75.66658136929104
 30
0.0
 10
387.8922384163093
 20
75.61092866639103
 30
0.0
 10
387.8600019602093
 20
75.57725520379104
 30
0.0
  0
SPLINE
  5
539
330
221
100
AcDbEntity
  8
7_ALL_FEATURES
  6
Continuous
 62
     7
100
AcDbSpline
210
0.0
220
0.0
230
1.0
 70
     8
 71
     3
 72
    27
 73
    23
 74
     0
 42
0.000000001
 43
0.0000001
 40
0.0
 40
0.0
 40
0.0
 40
0.0
 40
0.0197781554
 40
0.03733126
 40
0.0531943083
 40
0.0681540469
 40
0.0831730238
 40
0.0992011875
 40
0.1169965152
 40
0.1370652448
 40
0.1849391509
 40
0.2435189283
 40
0.3119380384
 40
0.3885152335
 40
0.4710567079
 40
0.5570458928
 40
0.6437931536
 40
0.7285718757
 40
0.8087522469
 40
0.8819415042
 40
0.946146577
 40
1.0
 40
1.0
 40
1.0
 40
1.0
 10
296.0731138520093
 20
121.080243874991
 30
0.0
 10
296.0572543675093
 20
121.067938896991
 30
0.0
 10
296.0257550029093
 20
121.046574844391
 30
0.0
 10
295.9761807335093
 20
121.024356730691
 30
0.0
 10
295.9275764536093
 20
121.014513010991
 30
0.0
 10
295.8805482678093
 20
121.017646503591
 30
0.0
 10
295.8361383806093
 20
121.033904638891
 30
0.0
 10
295.7952016273093
 20
121.062689854691
 30
0.0
 10
295.7579972384093
 20
121.103236119591
 30
0.0
 10
295.7107092240093
 20
121.176662518891
 30
0.0
 10
295.6641805923093
 20
121.297558532591
 30
0.0
 10
295.6278967225093
 20
121.471696009791
 30
0.0
 10
295.6093815033093
 20
121.677870757991
 30
0.0
 10
295.6094076284093
 20
121.909041793991
 30
0.0
 10
295.6280841855093
 20
122.157314783491
 30
0.0
 10
295.6648260614093
 20
122.413966956691
 30
0.0
 10
295.7183660114093
 20
122.669963696891
 30
0.0
 10
295.7868117339093
 20
122.916286026491
 30
0.0
 10
295.8677064474093
 20
123.144274370091
 30
0.0
 10
295.9581752600093
 20
123.346061143691
 30
0.0
 10
296.0549344807093
 20
123.514688083591
 30
0.0
 10
296.1282425305093
 20
123.610337874091
 30
0.0
 10
296.1660392177093
 20
123.649819426491
 30
0.0
  0
SPLINE
  5
53A
330
221
100
AcDbEntity
  8
7_ALL_FEATURES
  6
Continuous
 62
     7
100
AcDbSpline
210
0.0
220
0.0
230
1.0
 70
     8
 71
     3
 72
    23
 73
    19
 74
     0
 42
0.000000001
 43
0.0000001
 40
0.0
 40
0.0
 40
0.0
 40
0.0
 40
0.0140645601
 40
0.0288279863
 40
0.044881031
 40
0.062655911
 40
0.1043040466
 40
0.1547951063
 40
0.2138882633
 40
0.2806701525
 40
0.3537957329
 40
0.4316280684
 40
0.5939162346
 40
0.7520790516
 40
0.8249094334
 40
0.891317104
 40
0.9499756068
 40
1.0
 40
1.0
 40
1.0
 40
1.0
 10
296.0506941818093
 20
121.139581685691
 30
0.0
 10
296.0390253114093
 20
121.141850084791
 30
0.0
 10
296.0155974692093
 20
121.1495015121911
 30
0.0
 10
295.9830204476093
 20
121.169491286491
 30
0.0
 10
295.9528554471093
 20
121.197705298591
 30
0.0
 10
295.9139797721093
 20
121.248572267091
 30
0.0
 10
295.8735125044093
 20
121.333142891691
 30
0.0
 10
295.8385598694093
 20
121.456436157491
 30
0.0
 10
295.8154868011093
 20
121.604006363091
 30
0.0
 10
295.8049718954093
 20
121.772052936691
 30
0.0
 10
295.8073372529093
 20
121.956224509791
 30
0.0
 10
295.8279862928093
 20
122.220323087991
 30
0.0
 10
295.8839370240093
 20
122.553014766191
 30
0.0
 10
295.9746098641093
 20
122.873695252191
 30
0.0
 10
296.0666435786093
 20
123.107800342491
 30
0.0
 10
296.1396265963093
 20
123.258536978291
 30
0.0
 10
296.2164029975093
 20
123.385306451691
 30
0.0
 10
296.2735370363093
 20
123.457778316391
 30
0.0
 10
296.3027750341093
 20
123.488319658191
 30
0.0
  0
SPLINE
  5
53B
330
221
100
AcDbEntity
  8
7_ALL_FEATURES
  6
Continuous
 62
     7
100
AcDbSpline
210
0.0
220
0.0
230
1.0
 70
     8
 71
     3
 72
     9
 73
     5
 74
     0
 42
0.000000001
 43
0.0000001
 40
0.0
 40
0.0
 40
0.0
 40
0.0
 40
0.2413922083
 40
1.0
 40
1.0
 40
1.0
 40
1.0
 10
296.6393080165093
 20
123.465205450591
 30
0.0
 10
296.6362182750093
 20
123.462521248491
 30
0.0
 10
296.6235607285093
 20
123.451238363891
 30
0.0
 10
296.6114587181093
 20
123.439337710891
 30
0.0
 10
296.6025640758093
 20
123.430046571591
 30
0.0
  0
SPLINE
  5
53C
330
221
100
AcDbEntity
  8
02___PRT_ALL_AXES
  6
Continuous
 62
     7
100
AcDbSpline
210
0.0
220
0.0
230
1.0
 70
     8
 71
     3
 72
    15
 73
    11
 74
     0
 42
0.000000001
 43
0.0000001
 40
0.0
 40
0.0
 40
0.0
 40
0.0
 40
0.1030923896
 40
0.2244101701
 40
0.3588057897
 40
0.5000043223
 40
0.641202306
 40
0.7755963243
 40
0.8969115391
 40
1.0
 40
1.0
 40
1.0
 40
1.0
 10
296.4367266354093
 20
121.659795005691
 30
0.0
 10
296.4253875302093
 20
121.705133578491
 30
0.0
 10
296.4105358516093
 20
121.806264273591
 30
0.0
 10
296.4064973639093
 20
121.969103103291
 30
0.0
 10
296.4191445401093
 20
122.148841726391
 30
0.0
 10
296.4479052592093
 20
122.335782788191
 30
0.0
 10
296.4912703035093
 20
122.519884215591
 30
0.0
 10
296.5468769851093
 20
122.691269918091
 30
0.0
 10
296.6116230532093
 20
122.840734085291
 30
0.0
 10
296.6632776694093
 20
122.928933863691
 30
0.0
 10
296.6907753566093
 20
122.966721060291
 30
0.0
  0
SPLINE
  5
53D
330
221
100
AcDbEntity
  8
7_ALL_FEATURES
  6
Continuous
 62
     7
100
AcDbSpline
210
0.0
220
0.0
230
1.0
 70
     8
 71
     3
 72
    15
 73
    11
 74
     0
 42
0.000000001
 43
0.0000001
 40
0.0
 40
0.0
 40
0.0
 40
0.0
 40
0.1595386133
 40
0.2986784227
 40
0.4202244951
 40
0.5293211564
 40
0.6336261994
 40
0.7420368433
 40
0.8623769551
 40
1.0
 40
1.0
 40
1.0
 40
1.0
 10
296.1660392177093
 20
123.649819426491
 30
0.0
 10
296.1842058193093
 20
123.668795841791
 30
0.0
 10
296.2202086207093
 20
123.702542207891
 30
0.0
 10
296.2775212056093
 20
123.741907644391
 30
0.0
 10
296.3340637514093
 20
123.765906544991
 30
0.0
 10
296.3894771805093
 20
123.773611134891
 30
0.0
 10
296.4425414467093
 20
123.7640127577911
 30
0.0
 10
296.4914203902093
 20
123.737395207691
 30
0.0
 10
296.5352506336093
 20
123.695159036191
 30
0.0
 10
296.5593333587093
 20
123.659857598291
 30
0.0
 10
296.5707303675093
 20
123.640270442591
 30
0.0
  0
SPLINE
  5
53E
330
221
100
AcDbEntity
  8
7_ALL_FEATURES
  6
Continuous
 62
     7
100
AcDbSpline
210
0.0
220
0.0
230
1.0
 70
     8
 71
     3
 72
    15
 73
    11
 74
     0
 42
0.000000001
 43
0.0000001
 40
0.0
 40
0.0
 40
0.0
 40
0.0
 40
0.1026140558
 40
0.2238294668
 40
0.3584186383
 40
0.4999730723
 40
0.6415312239
 40
0.7761312266
 40
0.8973637206
 40
1.0
 40
1.0
 40
1.0
 40
1.0
 10
296.6827442711093
 20
123.2008191668911
 30
0.0
 10
296.6455661815093
 20
123.150580433791
 30
0.0
 10
296.5757422350093
 20
123.032698454991
 30
0.0
 10
296.4883107915093
 20
122.832324779091
 30
0.0
 10
296.4132064097093
 20
122.601889228491
 30
0.0
 10
296.3547092630093
 20
122.354020415591
 30
0.0
 10
296.3160714112093
 20
122.102283784891
 30
0.0
 10
296.2993605088093
 20
121.860475472891
 30
0.0
 10
296.3053407705093
 20
121.641908763091
 30
0.0
 10
296.3259034856093
 20
121.506427505491
 30
0.0
 10
296.3415461194093
 20
121.445903619391
 30
0.0
  0
SPLINE
  5
53F
330
221
100
AcDbEntity
  8
7_ALL_FEATURES
  6
Continuous
 62
     7
100
AcDbSpline
210
0.0
220
0.0
230
1.0
 70
     8
 71
     3
 72
    11
 73
     7
 74
     0
 42
0.000000001
 43
0.0000001
 40
0.0
 40
0.0
 40
0.0
 40
0.0
 40
0.3065425137
 40
0.5688297748
 40
0.7949679203
 40
1.0
 40
1.0
 40
1.0
 40
1.0
 10
296.3027750341093
 20
123.488319658191
 30
0.0
 10
296.3210159807093
 20
123.507373732591
 30
0.0
 10
296.3570938029093
 20
123.540767944291
 30
0.0
 10
296.4151102592093
 20
123.577905147091
 30
0.0
 10
296.4723937724093
 20
123.597214251791
 30
0.0
 10
296.5103979049093
 20
123.597016050391
 30
0.0
 10
296.5277166068093
 20
123.593649338291
 30
0.0
  0
SPLINE
  5
540
330
221
100
AcDbEntity
  8
7_ALL_FEATURES
  6
Continuous
 62
     7
100
AcDbSpline
210
0.0
220
0.0
230
1.0
 70
     8
 71
     3
 72
    19
 73
    15
 74
     0
 42
0.000000001
 43
0.0000001
 40
0.0
 40
0.0
 40
0.0
 40
0.0
 40
0.0453919189
 40
0.0975643457
 40
0.156020527
 40
0.2199857179
 40
0.360366607
 40
0.5095558943
 40
0.6573396224
 40
0.7936558589
 40
0.8547320919
 40
0.9098492889
 40
0.9583711271
 40
1.0
 40
1.0
 40
1.0
 40
1.0
 10
296.6025640758093
 20
123.430046571591
 30
0.0
 10
296.5782049033093
 20
123.404601538891
 30
0.0
 10
296.5302665062093
 20
123.345658403291
 30
0.0
 10
296.4645952418093
 20
123.243753072291
 30
0.0
 10
296.4012083853093
 20
123.123840255091
 30
0.0
 10
296.3188692350093
 20
122.937117908391
 30
0.0
 10
296.2315550871093
 20
122.6763893361911
 30
0.0
 10
296.1554354633093
 20
122.345149344691
 30
0.0
 10
296.1109633549093
 20
122.011381047191
 30
0.0
 10
296.1024278812093
 20
121.742976651491
 30
0.0
 10
296.1158013080093
 20
121.547328915991
 30
0.0
 10
296.1345352655093
 20
121.420709595791
 30
0.0
 10
296.1619014742093
 20
121.311154738891
 30
0.0
 10
296.1875755915093
 20
121.245705921991
 30
0.0
 10
296.2022477051093
 20
121.216924940791
 30
0.0
  0
SPLINE
  5
541
330
221
100
AcDbEntity
  8
7_ALL_FEATURES
  6
Continuous
 62
     7
100
AcDbSpline
210
0.0
220
0.0
230
1.0
 70
     8
 71
     3
 72
    14
 73
    10
 74
     0
 42
0.000000001
 43
0.0000001
 40
0.0
 40
0.0
 40
0.0
 40
0.0
 40
0.3300294873
 40
0.4765457328
 40
0.608360832
 40
0.7248714718
 40
0.8268214407
 40
0.9168607729
 40
1.0
 40
1.0
 40
1.0
 40
1.0
 10
300.3679631794093
 20
87.15575056049104
 30
0.0
 10
300.2484426064093
 20
87.17898300639104
 30
0.0
 10
300.0773948300093
 20
87.22419943489103
 30
0.0
 10
299.8706800353093
 20
87.31249691719104
 30
0.0
 10
299.7438025206093
 20
87.38487721599104
 30
0.0
 10
299.6414366658093
 20
87.46466194619104
 30
0.0
 10
299.5656593051093
 20
87.55075200889104
 30
0.0
 10
299.5185884915093
 20
87.64210772999104
 30
0.0
 10
299.5081184704093
 20
87.70653019939104
 30
0.0
 10
299.5084895418093
 20
87.73720046549104
 30
0.0
  0
SPLINE
  5
542
330
221
100
AcDbEntity
  8
7_ALL_FEATURES
  6
Continuous
 62
     7
100
AcDbSpline
210
0.0
220
0.0
230
1.0
 70
     8
 71
     3
 72
    15
 73
    11
 74
     0
 42
0.000000001
 43
0.0000001
 40
0.0
 40
0.0
 40
0.0
 40
0.0
 40
0.0874391462
 40
0.1904987768
 40
0.3081704031
 40
0.4379033991
 40
0.5761752014
 40
0.7188760088
 40
0.8616154409
 40
1.0
 40
1.0
 40
1.0
 40
1.0
 10
384.0191335200093
 20
71.56517213629104
 30
0.0
 10
383.9805252020092
 20
71.52484277299104
 30
0.0
 10
383.8833843625094
 20
71.44944497559104
 30
0.0
 10
383.7073396152094
 20
71.36000701909104
 30
0.0
 10
383.4949962263093
 20
71.28744373369103
 30
0.0
 10
383.2540552391093
 20
71.23452558679104
 30
0.0
 10
382.9933226949093
 20
71.20319447479103
 30
0.0
 10
382.7225714213093
 20
71.19469081449104
 30
0.0
 10
382.4520393592093
 20
71.20934170599104
 30
0.0
 10
382.2740471661094
 20
71.23482063489104
 30
0.0
 10
382.1873108709092
 20
71.25168046279104
 30
0.0
  0
SPLINE
  5
543
330
221
100
AcDbEntity
  8
06___PRT_ALL_SURFS
  6
Continuous
 62
     7
100
AcDbSpline
210
0.0
220
0.0
230
1.0
 70
     8
 71
     3
 72
    14
 73
    10
 74
     0
 42
0.000000001
 43
0.0000001
 40
0.0
 40
0.0
 40
0.0
 40
0.0
 40
0.0627030669
 40
0.1253474812
 40
0.2505232117
 40
0.375576377
 40
0.5005365154
 40
0.75031542
 40
1.0
 40
1.0
 40
1.0
 40
1.0
 10
95.6050469144505
 20
142.0869266380211
 30
0.0
 10
95.58772456505051
 20
142.1070488082211
 30
0.0
 10
95.55312584025049
 20
142.1473032810211
 30
0.0
 10
95.48173737305049
 20
142.2257962672211
 30
0.0
 10
95.3883091070505
 20
142.3197928660211
 30
0.0
 10
95.2733789152505
 20
142.4294928942211
 30
0.0
 10
95.1165200150505
 20
142.5715960156211
 30
0.0
 10
94.9140281592505
 20
142.741801578221
 30
0.0
 10
94.74549233605049
 20
142.8697167436211
 30
0.0
 10
94.65995720645049
 20
142.9318616538211
 30
0.0
  0
SPLINE
  5
544
330
221
100
AcDbEntity
  8
06___PRT_ALL_SURFS
  6
Continuous
 62
     7
100
AcDbSpline
210
0.0
220
0.0
230
1.0
 70
     8
 71
     3
 72
    13
 73
     9
 74
     0
 42
0.000000001
 43
0.0000001
 40
0.0
 40
0.0
 40
0.0
 40
0.0
 40
0.1253389118
 40
0.2505157663
 40
0.3755689855
 40
0.5005323025
 40
0.7503134583
 40
1.0
 40
1.0
 40
1.0
 40
1.0
 10
93.3250802348505
 20
143.7433937040211
 30
0.0
 10
93.3740015546505
 20
143.7228278206211
 30
0.0
 10
93.4715413896505
 20
143.681030425021
 30
0.0
 10
93.61351901865049
 20
143.6092676906211
 30
0.0
 10
93.75337885145049
 20
143.5339236260211
 30
0.0
 10
93.93692668225049
 20
143.4285649066211
 30
0.0
 10
94.1613783650505
 20
143.288637217621
 30
0.0
 10
94.3350964414505
 20
143.1678868188211
 30
0.0
 10
94.42062330445049
 20
143.1057479146211
 30
0.0
  0
SPLINE
  5
545
330
221
100
AcDbEntity
  8
06___PRT_ALL_SURFS
  6
Continuous
 62
     7
100
AcDbSpline
210
0.0
220
0.0
230
1.0
 70
     8
 71
     3
 72
     9
 73
     5
 74
     0
 42
0.000000001
 43
0.0000001
 40
0.0
 40
0.0
 40
0.0
 40
0.0
 40
0.5002882278
 40
1.0
 40
1.0
 40
1.0
 40
1.0
 10
95.72680091825049
 20
141.9193130008211
 30
0.0
 10
95.7462436596505
 20
141.8872076404211
 30
0.0
 10
95.7850840930505
 20
141.8230050484211
 30
0.0
 10
95.8209557694505
 20
141.7570817080211
 30
0.0
 10
95.83837444885049
 20
141.7238835254211
 30
0.0
  0
SPLINE
  5
546
330
221
100
AcDbEntity
  8
06___PRT_ALL_SURFS
  6
Continuous
 62
     7
100
AcDbSpline
210
0.0
220
0.0
230
1.0
 70
     8
 71
     3
 72
     9
 73
     5
 74
     0
 42
0.000000001
 43
0.0000001
 40
0.0
 40
0.0
 40
0.0
 40
0.0
 40
0.5003130044
 40
1.0
 40
1.0
 40
1.0
 40
1.0
 10
93.32509245065049
 20
134.5275599786211
 30
0.0
 10
93.36478038145049
 20
134.5441811804211
 30
0.0
 10
93.44405130005049
 20
134.5775989316211
 30
0.0
 10
93.5213544054505
 20
134.6153804706211
 30
0.0
 10
93.5596912792505
 20
134.6347982494211
 30
0.0
  0
SPLINE
  5
547
330
221
100
AcDbEntity
  8
06___PRT_ALL_SURFS
  6
Continuous
 62
     7
100
AcDbSpline
210
0.0
220
0.0
230
1.0
 70
     8
 71
     3
 72
    14
 73
    10
 74
     0
 42
0.000000001
 43
0.0000001
 40
0.0
 40
0.0
 40
0.0
 40
0.0
 40
0.0627030669
 40
0.1253474812
 40
0.2505232117
 40
0.375576377
 40
0.5005365154
 40
0.75031542
 40
1.0
 40
1.0
 40
1.0
 40
1.0
 10
90.3098796498505
 20
134.4635397194211
 30
0.0
 10
90.3357212396505
 20
134.457442363221
 30
0.0
 10
90.3873731814505
 20
134.4452124308211
 30
0.0
 10
90.4912646842505
 20
134.4236713592211
 30
0.0
 10
90.62209955385049
 20
134.4025422704211
 30
0.0
 10
90.77956009085051
 20
134.3813473550211
 30
0.0
 10
90.98998772585051
 20
134.3585828630211
 30
0.0
 10
91.2538513980505
 20
134.3399053968211
 30
0.0
 10
91.46538639085051
 20
134.3354827256211
 30
0.0
 10
91.5711136260505
 20
134.3354827248211
 30
0.0
  0
SPLINE
  5
548
330
221
100
AcDbEntity
  8
06___PRT_ALL_SURFS
  6
Continuous
 62
     7
100
AcDbSpline
210
0.0
220
0.0
230
1.0
 70
     8
 71
     3
 72
    13
 73
     9
 74
     0
 42
0.000000001
 43
0.0000001
 40
0.0
 40
0.0
 40
0.0
 40
0.0
 40
0.1253389118
 40
0.2505157663
 40
0.3755689855
 40
0.5005323025
 40
0.7503134583
 40
1.0
 40
1.0
 40
1.0
 40
1.0
 10
93.1280583524505
 20
134.4635605022211
 30
0.0
 10
93.0763918504505
 20
134.4514434212211
 30
0.0
 10
92.97291257345049
 20
134.4279257482211
 30
0.0
 10
92.8158691818505
 20
134.4025306632211
 30
0.0
 10
92.65843407025051
 20
134.3812777448211
 30
0.0
 10
92.44801245445049
 20
134.3586280312211
 30
0.0
 10
92.18417979665051
 20
134.3399025208211
 30
0.0
 10
91.9726636168505
 20
134.3354827220211
 30
0.0
 10
91.86694659985051
 20
134.3354827228211
 30
0.0
  0
SPLINE
  5
549
330
221
100
AcDbEntity
  8
06___PRT_ALL_SURFS
  6
Continuous
 62
     7
100
AcDbSpline
210
0.0
220
0.0
230
1.0
 70
     8
 71
     3
 72
     9
 73
     5
 74
     0
 42
0.000000001
 43
0.0000001
 40
0.0
 40
0.0
 40
0.0
 40
0.0
 40
0.5003042771
 40
1.0
 40
1.0
 40
1.0
 40
1.0
 10
90.11285776745049
 20
134.5275767924211
 30
0.0
 10
90.0732046910505
 20
134.5442464274211
 30
0.0
 10
89.99399963125049
 20
134.5777488462211
 30
0.0
 10
89.91667611065049
 20
134.6154251808211
 30
0.0
 10
89.87832918465051
 20
134.6347967596211
 30
0.0
  0
SPLINE
  5
54A
330
221
100
AcDbEntity
  8
06___PRT_ALL_SURFS
  6
Continuous
 62
     7
100
AcDbSpline
210
0.0
220
0.0
230
1.0
 70
     8
 71
     3
 72
    13
 73
     9
 74
     0
 42
0.000000001
 43
0.0000001
 40
0.0
 40
0.0
 40
0.0
 40
0.0
 40
0.1253389118
 40
0.2505157663
 40
0.3755689855
 40
0.5005323025
 40
0.7503134583
 40
1.0
 40
1.0
 40
1.0
 40
1.0
 10
90.3098796498505
 20
143.8074099942211
 30
0.0
 10
90.36154615185049
 20
143.8195270754211
 30
0.0
 10
90.46502542885051
 20
143.8430447484211
 30
0.0
 10
90.6220688204505
 20
143.8684398332211
 30
0.0
 10
90.77950393205049
 20
143.8896927516211
 30
0.0
 10
90.9899255478505
 20
143.9123424654211
 30
0.0
 10
91.25375820565051
 20
143.9310679758211
 30
0.0
 10
91.4652743854505
 20
143.9354877746211
 30
0.0
 10
91.57099140245049
 20
143.9354877738211
 30
0.0
  0
SPLINE
  5
54B
330
221
100
AcDbEntity
  8
06___PRT_ALL_SURFS
  6
Continuous
 62
     7
100
AcDbSpline
210
0.0
220
0.0
230
1.0
 70
     8
 71
     3
 72
    14
 73
    10
 74
     0
 42
0.000000001
 43
0.0000001
 40
0.0
 40
0.0
 40
0.0
 40
0.0
 40
0.0627030669
 40
0.1253474812
 40
0.2505232117
 40
0.375576377
 40
0.5005365154
 40
0.75031542
 40
1.0
 40
1.0
 40
1.0
 40
1.0
 10
93.1280583524505
 20
143.807430777221
 30
0.0
 10
93.1022167626505
 20
143.8135281332211
 30
0.0
 10
93.0505648208505
 20
143.8257580656211
 30
0.0
 10
92.9466733180505
 20
143.8472991374211
 30
0.0
 10
92.8158384484505
 20
143.8684282262211
 30
0.0
 10
92.65837791145049
 20
143.8896231414211
 30
0.0
 10
92.44795027645051
 20
143.9123876336211
 30
0.0
 10
92.1840866042505
 20
143.9310650996211
 30
0.0
 10
91.97255161145051
 20
143.9354877708211
 30
0.0
 10
91.86682437625049
 20
143.9354877716211
 30
0.0
  0
SPLINE
  5
54C
330
221
100
AcDbEntity
  8
06___PRT_ALL_SURFS
  6
Continuous
 62
     7
100
AcDbSpline
210
0.0
220
0.0
230
1.0
 70
     8
 71
     3
 72
    13
 73
     9
 74
     0
 42
0.000000001
 43
0.0000001
 40
0.0
 40
0.0
 40
0.0
 40
0.0
 40
0.1253389118
 40
0.2505157663
 40
0.3755689855
 40
0.5005323025
 40
0.7503134583
 40
1.0
 40
1.0
 40
1.0
 40
1.0
 10
87.83290330385049
 20
142.0869098242211
 30
0.0
 10
87.86758014045049
 20
142.1270815568211
 30
0.0
 10
87.93747329265051
 20
142.2069313468211
 30
0.0
 10
88.04959720885049
 20
142.3197841916211
 30
0.0
 10
88.1644727376505
 20
142.4295162006211
 30
0.0
 10
88.32139423325049
 20
142.571522926421
 30
0.0
 10
88.5238327582505
 20
142.7417491278211
 30
0.0
 10
88.6923550496505
 20
142.8696509114211
 30
0.0
 10
88.7778819136505
 20
142.9317898142211
 30
0.0
  0
SPLINE
  5
54D
330
221
100
AcDbEntity
  8
06___PRT_ALL_SURFS
  6
Continuous
 62
     7
100
AcDbSpline
210
0.0
220
0.0
230
1.0
 70
     8
 71
     3
 72
    14
 73
    10
 74
     0
 42
0.000000001
 43
0.0000001
 40
0.0
 40
0.0
 40
0.0
 40
0.0
 40
0.0627030669
 40
0.1253474812
 40
0.2505232117
 40
0.375576377
 40
0.5005365154
 40
0.75031542
 40
1.0
 40
1.0
 40
1.0
 40
1.0
 10
90.11284555165051
 20
143.7434105178211
 30
0.0
 10
90.0883553302505
 20
143.7331540772211
 30
0.0
 10
90.03937945765051
 20
143.7126880506211
 30
0.0
 10
89.94266794205049
 20
143.669049250421
 30
0.0
 10
89.82440094225049
 20
143.6092402356211
 30
0.0
 10
89.68455463325049
 20
143.5338343008211
 30
0.0
 10
89.5009344676505
 20
143.4285649012211
 30
0.0
 10
89.27648593345049
 20
143.2885801136211
 30
0.0
 10
89.10275094865051
 20
143.1678209806211
 30
0.0
 10
89.01721581805049
 20
143.1056760716211
 30
0.0
  0
SPLINE
  5
54E
330
221
100
AcDbEntity
  8
06___PRT_ALL_SURFS
  6
Continuous
 62
     7
100
AcDbSpline
210
0.0
220
0.0
230
1.0
 70
     8
 71
     3
 72
    10
 73
     6
 74
     0
 42
0.000000001
 43
0.0000001
 40
0.0
 40
0.0
 40
0.0
 40
0.0
 40
0.2502919358
 40
0.5003451739
 40
1.0
 40
1.0
 40
1.0
 40
1.0
 10
87.7111173182505
 20
141.9193194232211
 30
0.0
 10
87.69707185605048
 20
141.8961970572211
 30
0.0
 10
87.66895631245049
 20
141.8499938360211
 30
0.0
 10
87.6154618940505
 20
141.7560484282211
 30
0.0
 10
87.5785404630505
 20
141.6838725646211
 30
0.0
 10
87.5545506350505
 20
141.6354855168211
 30
0.0
  0
SPLINE
  5
54F
330
221
100
AcDbEntity
  8
06___PRT_ALL_SURFS
  6
Continuous
 62
     7
100
AcDbSpline
210
0.0
220
0.0
230
1.0
 70
     8
 71
     3
 72
    14
 73
    10
 74
     0
 42
0.000000001
 43
0.0000001
 40
0.0
 40
0.0
 40
0.0
 40
0.0
 40
0.2496845872
 40
0.4994634955
 40
0.6244236517
 40
0.7494768099
 40
0.8746525338
 40
0.9372969513
 40
1.0
 40
1.0
 40
1.0
 40
1.0
 10
88.7778819136505
 20
142.9317898142211
 30
0.0
 10
88.8634170568505
 20
142.9939347326211
 30
0.0
 10
89.03715202505049
 20
143.1146939534211
 30
0.0
 10
89.26160074525049
 20
143.2546785088211
 30
0.0
 10
89.44522063085049
 20
143.3599484510211
 30
0.0
 10
89.58506699385049
 20
143.4353543638211
 30
0.0
 10
89.7033345772505
 20
143.4951622328211
 30
0.0
 10
89.8000460308505
 20
143.538801148421
 30
0.0
 10
89.84902168885051
 20
143.5592676846211
 30
0.0
 10
89.87351180245051
 20
143.5695243708211
 30
0.0
  0
SPLINE
  5
550
330
221
100
AcDbEntity
  8
06___PRT_ALL_SURFS
  6
Continuous
 62
     7
100
AcDbSpline
210
0.0
220
0.0
230
1.0
 70
     8
 71
     3
 72
    14
 73
    10
 74
     0
 42
0.000000001
 43
0.0000001
 40
0.0
 40
0.0
 40
0.0
 40
0.0
 40
0.2496845872
 40
0.4994634955
 40
0.6244236517
 40
0.7494768099
 40
0.8746525338
 40
0.9372969513
 40
1.0
 40
1.0
 40
1.0
 40
1.0
 10
91.57099140245049
 20
143.9354877738211
 30
0.0
 10
91.67671865345051
 20
143.9354877730211
 30
0.0
 10
91.88825368425049
 20
143.931065182821
 30
0.0
 10
92.1521173706505
 20
143.9123874194211
 30
0.0
 10
92.3625450980505
 20
143.889623530821
 30
0.0
 10
92.5200056658505
 20
143.868428566221
 30
0.0
 10
92.65084033405049
 20
143.8472982072211
 30
0.0
 10
92.75473185465049
 20
143.8257572652211
 30
0.0
 10
92.80638392225049
 20
143.8135278716211
 30
0.0
 10
92.83222556925051
 20
143.807430777221
 30
0.0
  0
SPLINE
  5
551
330
221
100
AcDbEntity
  8
06___PRT_ALL_SURFS
  6
Continuous
 62
     7
100
AcDbSpline
210
0.0
220
0.0
230
1.0
 70
     8
 71
     3
 72
    14
 73
    10
 74
     0
 42
0.000000001
 43
0.0000001
 40
0.0
 40
0.0
 40
0.0
 40
0.0
 40
0.2496845872
 40
0.4994634955
 40
0.6244236517
 40
0.7494768099
 40
0.8746525338
 40
0.9372969513
 40
1.0
 40
1.0
 40
1.0
 40
1.0
 10
94.42062330445049
 20
143.1057479146211
 30
0.0
 10
94.50615844685049
 20
143.043602995021
 30
0.0
 10
94.67469434845049
 20
142.9156878730211
 30
0.0
 10
94.87718604105049
 20
142.7454820616211
 30
0.0
 10
95.03404537045049
 20
142.6033793740211
 30
0.0
 10
95.1489755580505
 20
142.4936792878211
 30
0.0
 10
95.24240291485049
 20
142.3996817798211
 30
0.0
 10
95.31379147265051
 20
142.3211888882211
 30
0.0
 10
95.34839061585049
 20
142.2809347770211
 30
0.0
 10
95.3657131652505
 20
142.2608127852211
 30
0.0
  0
SPLINE
  5
552
330
221
100
AcDbEntity
  8
06___PRT_ALL_SURFS
  6
Continuous
 62
     7
100
AcDbSpline
210
0.0
220
0.0
230
1.0
 70
     8
 71
     3
 72
    14
 73
    10
 74
     0
 42
0.000000001
 43
0.0000001
 40
0.0
 40
0.0
 40
0.0
 40
0.0
 40
0.2496845872
 40
0.4994634955
 40
0.6244236517
 40
0.7494768099
 40
0.8746525338
 40
0.9372969513
 40
1.0
 40
1.0
 40
1.0
 40
1.0
 10
91.86694659985051
 20
134.3354827228211
 30
0.0
 10
91.76121934885049
 20
134.3354827236211
 30
0.0
 10
91.5496843178505
 20
134.3399053136211
 30
0.0
 10
91.2858206316505
 20
134.3585830772211
 30
0.0
 10
91.07539290425049
 20
134.3813469656211
 30
0.0
 10
90.91793233645049
 20
134.4025419304211
 30
0.0
 10
90.78709766825051
 20
134.4236722892211
 30
0.0
 10
90.68320614765051
 20
134.4452132312211
 30
0.0
 10
90.6315540798505
 20
134.4574426250211
 30
0.0
 10
90.60571243305051
 20
134.4635397194211
 30
0.0
  0
SPLINE
  5
553
330
221
100
AcDbEntity
  8
7_ALL_FEATURES
  6
Continuous
 62
     7
100
AcDbSpline
210
0.0
220
0.0
230
1.0
 70
     8
 71
     3
 72
     9
 73
     5
 74
     0
 42
0.000000001
 43
0.0000001
 40
0.0
 40
0.0
 40
0.0
 40
0.0
 40
0.2437556583
 40
1.0
 40
1.0
 40
1.0
 40
1.0
 10
122.5003173168505
 20
141.6235689812211
 30
0.0
 10
122.4762922754505
 20
141.7032684740211
 30
0.0
 10
122.3906638276505
 20
142.0340099844211
 30
0.0
 10
122.3537752844505
 20
142.3772298852211
 30
0.0
 10
122.3537752844505
 20
142.6354852482211
 30
0.0
  0
SPLINE
  5
554
330
221
100
AcDbEntity
  8
02___PRT_ALL_AXES
  6
Continuous
 62
     7
100
AcDbSpline
210
0.0
220
0.0
230
1.0
 70
     8
 71
     3
 72
    11
 73
     7
 74
     0
 42
0.000000001
 43
0.0000001
 40
0.0
 40
0.0
 40
0.0
 40
0.0
 40
0.1711361921
 40
0.396139734
 40
0.6804010462
 40
1.0
 40
1.0
 40
1.0
 40
1.0
 10
100.3984609254505
 20
147.3854852482211
 30
0.0
 10
100.3469791458505
 20
147.3854852482211
 30
0.0
 10
100.2293169652505
 20
147.4415476884211
 30
0.0
 10
100.1159204934505
 20
147.6174574556211
 30
0.0
 10
100.0403091954505
 20
147.8569147748211
 30
0.0
 10
100.0234609254505
 20
148.0393423888211
 30
0.0
 10
100.0234609254505
 20
148.1354852482211
 30
0.0
  0
SPLINE
  5
555
330
221
100
AcDbEntity
  8
02___PRT_ALL_AXES
  6
Continuous
 62
     7
100
AcDbSpline
210
0.0
220
0.0
230
1.0
 70
     8
 71
     3
 72
    11
 73
     7
 74
     0
 42
0.000000001
 43
0.0000001
 40
0.0
 40
0.0
 40
0.0
 40
0.0
 40
0.1711361921
 40
0.396139734
 40
0.6804010462
 40
1.0
 40
1.0
 40
1.0
 40
1.0
 10
99.86813083965049
 20
144.8248250764211
 30
0.0
 10
99.81664906005051
 20
144.8248250764211
 30
0.0
 10
99.6989868794505
 20
144.8808875166211
 30
0.0
 10
99.5855904074505
 20
145.0567972838211
 30
0.0
 10
99.50997910965049
 20
145.2962546030211
 30
0.0
 10
99.49313083965049
 20
145.4786822170211
 30
0.0
 10
99.49313083965049
 20
145.5748250764211
 30
0.0
  0
SPLINE
  5
556
330
221
100
AcDbEntity
  8
02___PRT_ALL_AXES
  6
Continuous
 62
     7
100
AcDbSpline
210
0.0
220
0.0
230
1.0
 70
     8
 71
     3
 72
    13
 73
     9
 74
     0
 42
0.000000001
 43
0.0000001
 40
0.0
 40
0.0
 40
0.0
 40
0.0
 40
0.0873187461
 40
0.2021888017
 40
0.4269524519
 40
0.5513149337
 40
0.6729767237
 40
1.0
 40
1.0
 40
1.0
 40
1.0
 10
109.9247403670505
 20
146.1354852482211
 30
0.0
 10
109.8904286620505
 20
146.1354852482211
 30
0.0
 10
109.8119781788505
 20
146.1728972558211
 30
0.0
 10
109.7191929686505
 20
146.3170910950211
 30
0.0
 10
109.6765921702505
 20
146.4974700160211
 30
0.0
 10
109.6729648492505
 20
146.6851631088211
 30
0.0
 10
109.6960244602505
 20
146.8977434908211
 30
0.0
 10
109.7962373056505
 20
147.1354852482211
 30
0.0
 10
109.9247403670505
 20
147.1354852482211
 30
0.0
  0
SPLINE
  5
557
330
221
100
AcDbEntity
  8
06___PRT_ALL_SURFS
  6
Continuous
 62
     7
100
AcDbSpline
210
0.0
220
0.0
230
1.0
 70
     8
 71
     3
 72
    13
 73
     9
 74
     0
 42
0.000000001
 43
0.0000001
 40
0.0
 40
0.0
 40
0.0
 40
0.0
 40
0.0848295824
 40
0.1769234511
 40
0.2812908795
 40
0.4001778283
 40
0.679445509
 40
1.0
 40
1.0
 40
1.0
 40
1.0
 10
117.7189690010505
 20
143.3854852482211
 30
0.0
 10
117.6221760140505
 20
143.3854852482211
 30
0.0
 10
117.4189146726505
 20
143.4232561266211
 30
0.0
 10
117.1358313496505
 20
143.5836703178211
 30
0.0
 10
116.8760724892505
 20
143.8370630584211
 30
0.0
 10
116.5506990920505
 20
144.312526058821
 30
0.0
 10
116.2538676176505
 20
145.0876040896211
 30
0.0
 10
116.1422947412505
 20
145.7667016494211
 30
0.0
 10
116.1136834722505
 20
146.1313427618211
 30
0.0
  0
SPLINE
  5
558
330
221
100
AcDbEntity
  8
06___PRT_ALL_SURFS
  6
Continuous
 62
     7
100
AcDbSpline
210
0.0
220
0.0
230
1.0
 70
     8
 71
     3
 72
     9
 73
     5
 74
     0
 42
0.000000001
 43
0.0000001
 40
0.0
 40
0.0
 40
0.0
 40
0.0
 40
0.4320096608
 40
1.0
 40
1.0
 40
1.0
 40
1.0
 10
117.7189690010505
 20
145.8854852482211
 30
0.0
 10
117.6674872216505
 20
145.8854852482211
 30
0.0
 10
117.5497164016505
 20
145.9412977038211
 30
0.0
 10
117.4840895778505
 20
146.0446223444211
 30
0.0
 10
117.4538039582505
 20
146.1051551624211
 30
0.0
  0
SPLINE
  5
559
330
221
100
AcDbEntity
  8
06___PRT_ALL_SURFS
  6
Continuous
 62
     7
100
AcDbSpline
210
0.0
220
0.0
230
1.0
 70
     8
 71
     3
 72
     9
 73
     5
 74
     0
 42
0.000000001
 43
0.0000001
 40
0.0
 40
0.0
 40
0.0
 40
0.0
 40
0.228435417
 40
1.0
 40
1.0
 40
1.0
 40
1.0
 10
117.4413539896505
 20
146.1312774806211
 30
0.0
 10
117.4251206638505
 20
146.1670330588211
 30
0.0
 10
117.3654961612505
 20
146.3286705188211
 30
0.0
 10
117.3439690010505
 20
146.5028531830211
 30
0.0
 10
117.3439690010505
 20
146.6354852482211
 30
0.0
  0
SPLINE
  5
55A
330
221
100
AcDbEntity
  8
06___PRT_ALL_SURFS
  6
Continuous
 62
     7
100
AcDbSpline
210
0.0
220
0.0
230
1.0
 70
     8
 71
     3
 72
     9
 73
     5
 74
     0
 42
0.000000001
 43
0.0000001
 40
0.0
 40
0.0
 40
0.0
 40
0.0
 40
0.2663379451
 40
1.0
 40
1.0
 40
1.0
 40
1.0
 10
117.3439690010505
 20
146.6354852482211
 30
0.0
 10
117.3439690010505
 20
146.6812483250211
 30
0.0
 10
117.3520641724505
 20
146.8526902340211
 30
0.0
 10
117.3892409928505
 20
147.0249087534211
 30
0.0
 10
117.4413539896505
 20
147.1396930160211
 30
0.0
  0
SPLINE
  5
55B
330
221
100
AcDbEntity
  8
06___PRT_ALL_SURFS
  6
Continuous
 62
     7
100
AcDbSpline
210
0.0
220
0.0
230
1.0
 70
     8
 71
     3
 72
     9
 73
     5
 74
     0
 42
0.000000001
 43
0.0000001
 40
0.0
 40
0.0
 40
0.0
 40
0.0
 40
0.5679903392
 40
1.0
 40
1.0
 40
1.0
 40
1.0
 10
117.4538039582505
 20
147.1658153342211
 30
0.0
 10
117.4840895778505
 20
147.2263481522211
 30
0.0
 10
117.5497164016505
 20
147.3296727926211
 30
0.0
 10
117.6674872216505
 20
147.3854852482211
 30
0.0
 10
117.7189690010505
 20
147.3854852482211
 30
0.0
  0
SPLINE
  5
55C
330
221
100
AcDbEntity
  8
06___PRT_ALL_SURFS
  6
Continuous
 62
     7
100
AcDbSpline
210
0.0
220
0.0
230
1.0
 70
     8
 71
     3
 72
    13
 73
     9
 74
     0
 42
0.000000001
 43
0.0000001
 40
0.0
 40
0.0
 40
0.0
 40
0.0
 40
0.320554491
 40
0.5998221717
 40
0.7187091205
 40
0.8230765489
 40
0.9151704176
 40
1.0
 40
1.0
 40
1.0
 40
1.0
 10
116.1136834722505
 20
147.1396277348211
 30
0.0
 10
116.1422947412505
 20
147.5042688472211
 30
0.0
 10
116.2538676176505
 20
148.1833664068211
 30
0.0
 10
116.5506990920505
 20
148.9584444378211
 30
0.0
 10
116.8760724892505
 20
149.4339074382211
 30
0.0
 10
117.1358313496505
 20
149.6873001786211
 30
0.0
 10
117.4189146726505
 20
149.8477143700211
 30
0.0
 10
117.6221760140505
 20
149.8854852482211
 30
0.0
 10
117.7189690010505
 20
149.8854852482211
 30
0.0
  0
SPLINE
  5
55D
330
221
100
AcDbEntity
  8
02___PRT_ALL_AXES
  6
Continuous
 62
     7
100
AcDbSpline
210
0.0
220
0.0
230
1.0
 70
     8
 71
     3
 72
    11
 73
     7
 74
     0
 42
0.000000001
 43
0.0000001
 40
0.0
 40
0.0
 40
0.0
 40
0.0
 40
0.3195989538
 40
0.603860266
 40
0.8288638079
 40
1.0
 40
1.0
 40
1.0
 40
1.0
 10
99.49313083965049
 20
145.5748250764211
 30
0.0
 10
99.49313083965049
 20
145.670967936021
 30
0.0
 10
99.50997910965049
 20
145.8533955500211
 30
0.0
 10
99.5855904074505
 20
146.0928528692211
 30
0.0
 10
99.6989868794505
 20
146.2687626364211
 30
0.0
 10
99.81664906005051
 20
146.3248250764211
 30
0.0
 10
99.86813083965049
 20
146.3248250764211
 30
0.0
  0
SPLINE
  5
55E
330
221
100
AcDbEntity
  8
02___PRT_ALL_AXES
  6
Continuous
 62
     7
100
AcDbSpline
210
0.0
220
0.0
230
1.0
 70
     8
 71
     3
 72
    11
 73
     7
 74
     0
 42
0.000000001
 43
0.0000001
 40
0.0
 40
0.0
 40
0.0
 40
0.0
 40
0.3195989538
 40
0.603860266
 40
0.8288638079
 40
1.0
 40
1.0
 40
1.0
 40
1.0
 10
100.0234609254505
 20
148.1354852482211
 30
0.0
 10
100.0234609254505
 20
148.2316281078211
 30
0.0
 10
100.0403091954505
 20
148.4140557218211
 30
0.0
 10
100.1159204934505
 20
148.6535130410211
 30
0.0
 10
100.2293169652505
 20
148.8294228082211
 30
0.0
 10
100.3469791458505
 20
148.8854852482211
 30
0.0
 10
100.3984609254505
 20
148.8854852482211
 30
0.0
  0
ENDSEC
  0
SECTION
  2
OBJECTS
  0
DICTIONARY
  5
C
330
0
100
AcDbDictionary
281
     1
  3
ACAD_DETAILVIEWSTYLE
350
5AC
  3
ACAD_GROUP
350
D
  3
ACAD_LAYOUT
350
1A
  3
ACAD_MATERIAL
350
5A0
  3
ACAD_MLEADERSTYLE
350
5A4
  3
ACAD_MLINESTYLE
350
17
  3
ACAD_PLOTSETTINGS
350
19
  3
ACAD_PLOTSTYLENAME
350
E
  3
ACAD_SCALELIST
350
564
  3
ACAD_SECTIONVIEWSTYLE
350
5AD
  3
ACAD_TABLESTYLE
350
55F
  3
ACAD_VISUALSTYLE
350
587
  3
ACDB_RECOMPOSE_DATA
350
5B3
  3
AcDbVariableDictionary
350
5A8
  3
APPDATA
350
5A6
  0
SUN
  5
5A7
330
1F4
100
AcDbSun
 90
        1
290
     0
 63
     7
421
 16777215
 40
1.0
291
     1
 91
  2455826
 92
 54000000
292
     0
 70
     2
 71
   256
280
     1
  0
DICTIONARY
  5
5AC
102
{ACAD_REACTORS
330
C
102
}
330
C
100
AcDbDictionary
281
     1
  0
DICTIONARY
  5
D
102
{ACAD_REACTORS
330
C
102
}
330
C
100
AcDbDictionary
281
     1
  0
DICTIONARY
  5
1A
102
{ACAD_REACTORS
330
C
102
}
330
C
100
AcDbDictionary
281
     1
  3
Layout1
350
561
  3
Model
350
560
  0
DICTIONARY
  5
5A0
102
{ACAD_REACTORS
330
C
102
}
330
C
100
AcDbDictionary
281
     1
  3
ByBlock
350
5A2
  3
ByLayer
350
5A1
  3
Global
350
5A3
  0
DICTIONARY
  5
5A4
102
{ACAD_REACTORS
330
C
102
}
330
C
100
AcDbDictionary
281
     1
  3
Standard
350
5A5
  0
DICTIONARY
  5
17
102
{ACAD_REACTORS
330
C
102
}
330
C
100
AcDbDictionary
281
     1
  3
Standard
350
18
  0
DICTIONARY
  5
19
102
{ACAD_REACTORS
330
C
102
}
330
C
100
AcDbDictionary
281
     1
  0
ACDBDICTIONARYWDFLT
  5
E
102
{ACAD_REACTORS
330
C
102
}
330
C
100
AcDbDictionary
281
     1
  3
Normal
350
F
100
AcDbDictionaryWithDefault
340
F
  0
DICTIONARY
  5
564
102
{ACAD_REACTORS
330
C
102
}
330
C
100
AcDbDictionary
281
     1
  3
A0
350
565
  3
A1
350
566
  3
A2
350
567
  3
A3
350
568
  3
A4
350
569
  3
A5
350
56A
  3
A6
350
56B
  3
A7
350
56C
  3
A8
350
56D
  3
A9
350
56E
  3
B0
350
56F
  3
B1
350
570
  3
B2
350
571
  3
B3
350
572
  3
B4
350
573
  3
B5
350
574
  3
B6
350
575
  3
B7
350
576
  3
B8
350
577
  3
B9
350
578
  3
C0
350
579
  3
C1
350
57A
  3
C2
350
57B
  3
C3
350
57C
  3
C4
350
57D
  3
C5
350
57E
  3
C6
350
57F
  3
C7
350
580
  3
C8
350
581
  3
C9
350
582
  3
D0
350
583
  3
D1
350
584
  3
D2
350
585
  0
DICTIONARY
  5
5AD
102
{ACAD_REACTORS
330
C
102
}
330
C
100
AcDbDictionary
281
     1
  0
DICTIONARY
  5
55F
330
C
100
AcDbDictionary
281
     1
  3
Standard
350
562
  3
Standard1
350
563
  0
DICTIONARY
  5
587
102
{ACAD_REACTORS
330
C
102
}
330
C
100
AcDbDictionary
281
     1
  3
2dWireframe
350
58C
  3
Basic
350
58F
  3
Brighten
350
593
  3
ColorChange
350
597
  3
Conceptual
350
591
  3
Dim
350
592
  3
EdgeColorOff
350
59A
  3
Facepattern
350
596
  3
Flat
350
588
  3
FlatWithEdges
350
589
  3
Gouraud
350
58A
  3
GouraudWithEdges
350
58B
  3
Hidden
350
58E
  3
JitterOff
350
598
  3
Linepattern
350
595
  3
OverhangOff
350
599
  3
Realistic
350
590
  3
Shaded
350
59F
  3
Shaded with edges
350
59E
  3
Shades of Gray
350
59B
  3
Sketchy
350
59C
  3
Thicken
350
594
  3
Wireframe
350
58D
  3
X-Ray
350
59D
  0
XRECORD
  5
5B3
102
{ACAD_REACTORS
330
C
102
}
330
C
100
AcDbXrecord
280
     1
 90
        1
330
562
330
563
  0
DICTIONARY
  5
5A8
102
{ACAD_REACTORS
330
C
102
}
330
C
100
AcDbDictionary
281
     1
  3
CANNOSCALE
350
5A9
  3
CMLEADERSTYLE
350
5AB
  3
CTABLESTYLE
350
5AA
  0
DICTIONARY
  5
5A6
102
{ACAD_REACTORS
330
C
102
}
330
C
100
AcDbDictionary
281
     1
  0
LAYOUT
  5
561
102
{ACAD_REACTORS
330
1A
102
}
330
1A
100
AcDbPlotSettings
  1

  2
none_device
  4
ISO_A3_(420.00_x_297.00_MM)
  6

 40
0.0
 41
0.0
 42
0.0
 43
0.0
 44
420.0
 45
297.0
 46
0.0
 47
0.0
 48
0.0
 49
0.0
140
0.0
141
0.0
142
1.0
143
1.0
 70
     0
 72
     1
 73
     0
 74
     0
  7

 75
     0
 76
     0
 77
     2
 78
   300
147
1.0
148
0.0
149
0.0
100
AcDbLayout
  1
Layout1
 70
     0
 71
     1
 10
0.0
 20
0.0
 11
420.0
 21
297.0
 12
0.0
 22
0.0
 32
0.0
 14
0.0
 24
0.0
 34
0.0
 15
0.0
 25
0.0
 35
0.0
146
0.0
 13
0.0
 23
0.0
 33
0.0
 16
1.0
 26
0.0
 36
0.0
 17
0.0
 27
1.0
 37
0.0
 76
     0
330
222
  0
LAYOUT
  5
560
102
{ACAD_REACTORS
330
1A
102
}
330
1A
100
AcDbPlotSettings
  1

  2
none_device
  4
ISO_A3_(420.00_x_297.00_MM)
  6

 40
0.0
 41
0.0
 42
0.0
 43
0.0
 44
420.0
 45
297.0
 46
0.0
 47
0.0
 48
0.0
 49
0.0
140
0.0
141
0.0
142
1.0
143
1.0
 70
  1024
 72
     1
 73
     0
 74
     0
  7

 75
     0
 76
     0
 77
     2
 78
   300
147
1.0
148
0.0
149
0.0
100
AcDbLayout
  1
Model
 70
     0
 71
     0
 10
0.0
 20
0.0
 11
420.0
 21
297.0
 12
0.0
 22
0.0
 32
0.0
 14
0.0
 24
0.0
 34
0.0
 15
420.0
 25
297.0
 35
0.0
146
0.0
 13
0.0
 23
0.0
 33
0.0
 16
1.0
 26
0.0
 36
0.0
 17
0.0
 27
1.0
 37
0.0
 76
     0
330
221
331
1F4
  0
MATERIAL
  5
5A2
102
{ACAD_REACTORS
330
5A0
102
}
330
5A0
100
AcDbMaterial
  1
ByBlock
 72
     1
 94
      127
  0
MATERIAL
  5
5A1
102
{ACAD_REACTORS
330
5A0
102
}
330
5A0
100
AcDbMaterial
  1
ByLayer
 72
     1
 94
      127
  0
MATERIAL
  5
5A3
102
{ACAD_REACTORS
330
5A0
102
}
330
5A0
100
AcDbMaterial
  1
Global
 72
     1
 94
      127
  0
MLEADERSTYLE
  5
5A5
102
{ACAD_REACTORS
330
5A4
102
}
330
5A4
100
AcDbMLeaderStyle
170
     2
171
     1
172
     0
 90
        2
 40
0.0
 41
0.0
173
     1
 91
-1056964608
340
14
 92
       -2
290
     1
 42
2.0
291
     1
 43
8.0
  3
Standard
341
0
 44
4.0
300

342
11
174
     1
178
     1
175
     1
176
     0
 93
-1056964608
 45
4.0
292
     0
297
     0
 46
4.0
343
0
 94
-1056964608
 47
1.0
 49
1.0
140
1.0
293
     1
141
0.0
294
     1
177
     0
142
1.0
295
     0
296
     0
143
3.75
1001
ACAD_MLEADERVER
1070
     2
  0
MLINESTYLE
  5
18
102
{ACAD_REACTORS
330
17
102
}
330
17
100
AcDbMlineStyle
  2
STANDARD
 70
     0
  3

 62
   256
 51
90.0
 52
90.0
 71
     2
 49
0.5
 62
   256
  6
BYLAYER
 49
-0.5
 62
   256
  6
BYLAYER
  0
ACDBPLACEHOLDER
  5
F
102
{ACAD_REACTORS
330
E
102
}
330
E
  0
SCALE
  5
565
102
{ACAD_REACTORS
330
564
102
}
330
564
100
AcDbScale
 70
     0
300
1:1
140
1.0
141
1.0
290
     1
  0
SCALE
  5
566
102
{ACAD_REACTORS
330
564
102
}
330
564
100
AcDbScale
 70
     0
300
1:2
140
1.0
141
2.0
290
     0
  0
SCALE
  5
567
102
{ACAD_REACTORS
330
564
102
}
330
564
100
AcDbScale
 70
     0
300
1:4
140
1.0
141
4.0
290
     0
  0
SCALE
  5
568
102
{ACAD_REACTORS
330
564
102
}
330
564
100
AcDbScale
 70
     0
300
1:5
140
1.0
141
5.0
290
     0
  0
SCALE
  5
569
102
{ACAD_REACTORS
330
564
102
}
330
564
100
AcDbScale
 70
     0
300
1:8
140
1.0
141
8.0
290
     0
  0
SCALE
  5
56A
102
{ACAD_REACTORS
330
564
102
}
330
564
100
AcDbScale
 70
     0
300
1:10
140
1.0
141
10.0
290
     0
  0
SCALE
  5
56B
102
{ACAD_REACTORS
330
564
102
}
330
564
100
AcDbScale
 70
     0
300
1:16
140
1.0
141
16.0
290
     0
  0
SCALE
  5
56C
102
{ACAD_REACTORS
330
564
102
}
330
564
100
AcDbScale
 70
     0
300
1:20
140
1.0
141
20.0
290
     0
  0
SCALE
  5
56D
102
{ACAD_REACTORS
330
564
102
}
330
564
100
AcDbScale
 70
     0
300
1:30
140
1.0
141
30.0
290
     0
  0
SCALE
  5
56E
102
{ACAD_REACTORS
330
564
102
}
330
564
100
AcDbScale
 70
     0
300
1:40
140
1.0
141
40.0
290
     0
  0
SCALE
  5
56F
102
{ACAD_REACTORS
330
564
102
}
330
564
100
AcDbScale
 70
     0
300
1:50
140
1.0
141
50.0
290
     0
  0
SCALE
  5
570
102
{ACAD_REACTORS
330
564
102
}
330
564
100
AcDbScale
 70
     0
300
1:100
140
1.0
141
100.0
290
     0
  0
SCALE
  5
571
102
{ACAD_REACTORS
330
564
102
}
330
564
100
AcDbScale
 70
     0
300
2:1
140
2.0
141
1.0
290
     0
  0
SCALE
  5
572
102
{ACAD_REACTORS
330
564
102
}
330
564
100
AcDbScale
 70
     0
300
4:1
140
4.0
141
1.0
290
     0
  0
SCALE
  5
573
102
{ACAD_REACTORS
330
564
102
}
330
564
100
AcDbScale
 70
     0
300
8:1
140
8.0
141
1.0
290
     0
  0
SCALE
  5
574
102
{ACAD_REACTORS
330
564
102
}
330
564
100
AcDbScale
 70
     0
300
10:1
140
10.0
141
1.0
290
     0
  0
SCALE
  5
575
102
{ACAD_REACTORS
330
564
102
}
330
564
100
AcDbScale
 70
     0
300
100:1
140
100.0
141
1.0
290
     0
  0
SCALE
  5
576
102
{ACAD_REACTORS
330
564
102
}
330
564
100
AcDbScale
 70
     0
300
1/128" = 1'-0"
140
0.0078125
141
12.0
290
     0
  0
SCALE
  5
577
102
{ACAD_REACTORS
330
564
102
}
330
564
100
AcDbScale
 70
     0
300
1/64" = 1'-0"
140
0.015625
141
12.0
290
     0
  0
SCALE
  5
578
102
{ACAD_REACTORS
330
564
102
}
330
564
100
AcDbScale
 70
     0
300
1/32" = 1'-0"
140
0.03125
141
12.0
290
     0
  0
SCALE
  5
579
102
{ACAD_REACTORS
330
564
102
}
330
564
100
AcDbScale
 70
     0
300
1/16" = 1'-0"
140
0.0625
141
12.0
290
     0
  0
SCALE
  5
57A
102
{ACAD_REACTORS
330
564
102
}
330
564
100
AcDbScale
 70
     0
300
3/32" = 1'-0"
140
0.09375
141
12.0
290
     0
  0
SCALE
  5
57B
102
{ACAD_REACTORS
330
564
102
}
330
564
100
AcDbScale
 70
     0
300
1/8" = 1'-0"
140
0.125
141
12.0
290
     0
  0
SCALE
  5
57C
102
{ACAD_REACTORS
330
564
102
}
330
564
100
AcDbScale
 70
     0
300
3/16" = 1'-0"
140
0.1875
141
12.0
290
     0
  0
SCALE
  5
57D
102
{ACAD_REACTORS
330
564
102
}
330
564
100
AcDbScale
 70
     0
300
1/4" = 1'-0"
140
0.25
141
12.0
290
     0
  0
SCALE
  5
57E
102
{ACAD_REACTORS
330
564
102
}
330
564
100
AcDbScale
 70
     0
300
3/8" = 1'-0"
140
0.375
141
12.0
290
     0
  0
SCALE
  5
57F
102
{ACAD_REACTORS
330
564
102
}
330
564
100
AcDbScale
 70
     0
300
1/2" = 1'-0"
140
0.5
141
12.0
290
     0
  0
SCALE
  5
580
102
{ACAD_REACTORS
330
564
102
}
330
564
100
AcDbScale
 70
     0
300
3/4" = 1'-0"
140
0.75
141
12.0
290
     0
  0
SCALE
  5
581
102
{ACAD_REACTORS
330
564
102
}
330
564
100
AcDbScale
 70
     0
300
1" = 1'-0"
140
1.0
141
12.0
290
     0
  0
SCALE
  5
582
102
{ACAD_REACTORS
330
564
102
}
330
564
100
AcDbScale
 70
     0
300
1-1/2" = 1'-0"
140
1.5
141
12.0
290
     0
  0
SCALE
  5
583
102
{ACAD_REACTORS
330
564
102
}
330
564
100
AcDbScale
 70
     0
300
3" = 1'-0"
140
3.0
141
12.0
290
     0
  0
SCALE
  5
584
102
{ACAD_REACTORS
330
564
102
}
330
564
100
AcDbScale
 70
     0
300
6" = 1'-0"
140
6.0
141
12.0
290
     0
  0
SCALE
  5
585
102
{ACAD_REACTORS
330
564
102
}
330
564
100
AcDbScale
 70
     0
300
1'-0" = 1'-0"
140
12.0
141
12.0
290
     0
  0
TABLESTYLE
  5
562
102
{ACAD_REACTORS
330
55F
330
3CC
102
}
102
{ACAD_XDICTIONARY
360
5AE
102
}
330
55F
100
AcDbTableStyle
  3
Standard
 70
     0
 71
     0
 40
0.06
 41
0.06
280
     1
281
     1
  7
STANDARD
140
0.18
170
     1
 62
     0
 63
   257
283
     0
 90
        4
 91
        0
  1

274
    -2
284
     1
 64
     0
275
    -2
285
     1
 65
     0
276
    -2
286
     1
 66
     0
277
    -2
287
     1
 67
     0
278
    -2
288
     1
 68
     0
279
    -2
289
     1
 69
     0
  7
STANDARD
140
0.18
170
     1
 62
     0
 63
   257
283
     0
 90
        4
 91
        0
  1

274
    -2
284
     1
 64
     0
275
    -2
285
     1
 65
     0
276
    -2
286
     1
 66
     0
277
    -2
287
     1
 67
     0
278
    -2
288
     1
 68
     0
279
    -2
289
     1
 69
     0
  7
STANDARD
140
0.18
170
     1
 62
     0
 63
   257
283
     0
 90
        4
 91
        0
  1

274
    -2
284
     1
 64
     0
275
    -2
285
     1
 65
     0
276
    -2
286
     1
 66
     0
277
    -2
287
     1
 67
     0
278
    -2
288
     1
 68
     0
279
    -2
289
     1
 69
     0
  0
TABLESTYLE
  5
563
102
{ACAD_REACTORS
330
55F
102
}
102
{ACAD_XDICTIONARY
360
5B0
102
}
330
55F
100
AcDbTableStyle
  3
Standard1
 70
     1
 71
     0
 40
0.06
 41
0.06
280
     1
281
     1
  7
STANDARD
140
0.18
170
     1
 62
     0
 63
   257
283
     0
 90
        4
 91
        0
  1

274
    -2
284
     1
 64
     0
275
    -2
285
     1
 65
     0
276
    -2
286
     1
 66
     0
277
    -2
287
     1
 67
     0
278
    -2
288
     1
 68
     0
279
    -2
289
     1
 69
     0
  7
STANDARD
140
0.18
170
     1
 62
     0
 63
   257
283
     0
 90
        4
 91
        0
  1

274
    -2
284
     1
 64
     0
275
    -2
285
     1
 65
     0
276
    -2
286
     1
 66
     0
277
    -2
287
     1
 67
     0
278
    -2
288
     1
 68
     0
279
    -2
289
     1
 69
     0
  7
STANDARD
140
0.18
170
     1
 62
     0
 63
   257
283
     0
 90
        4
 91
        0
  1

274
    -2
284
     1
 64
     0
275
    -2
285
     1
 65
     0
276
    -2
286
     1
 66
     0
277
    -2
287
     1
 67
     0
278
    -2
288
     1
 68
     0
279
    -2
289
     1
 69
     0
  0
VISUALSTYLE
  5
58C
102
{ACAD_REACTORS
330
587
102
}
330
587
100
AcDbVisualStyle
  2
2dWireframe
 70
     4
 71
     0
 72
     2
 73
     0
 90
        0
 40
0.6
 41
30.0
 62
     5
 63
     7
421
 16777215
 74
     1
 91
        4
 64
     7
 65
   257
 75
     1
175
     1
 42
1.0
 92
        0
 66
   257
 43
1.0
 76
     1
 77
     6
 78
     2
 67
     7
 79
     5
170
     0
171
     0
290
     0
174
     0
 93
        1
 44
0.0
173
     0
291
     0
 45
0.0
  0
VISUALSTYLE
  5
58F
102
{ACAD_REACTORS
330
587
102
}
330
587
100
AcDbVisualStyle
  2
Basic
 70
     7
 71
     1
 72
     0
 73
     1
 90
        0
 40
0.6
 41
30.0
 62
     5
 63
     7
421
 16777215
 74
     0
 91
        4
 64
     7
 65
   257
 75
     1
175
     1
 42
1.0
 92
        8
 66
     7
 43
1.0
 76
     1
 77
     6
 78
     2
 67
     7
 79
     5
170
     0
171
     0
290
     0
174
     0
 93
        1
 44
0.0
173
     0
291
     1
 45
0.0
  0
VISUALSTYLE
  5
593
102
{ACAD_REACTORS
330
587
102
}
330
587
100
AcDbVisualStyle
  2
Brighten
 70
    12
 71
     2
 72
     2
 73
     0
 90
        0
 40
0.6
 41
30.0
 62
     5
 63
     7
421
 16777215
 74
     1
 91
        4
 64
     7
 65
   257
 75
     1
175
     1
 42
1.0
 92
        8
 66
     7
 43
1.0
 76
     1
 77
     6
 78
     2
 67
     7
 79
     5
170
     0
171
     0
290
     0
174
     0
 93
        1
 44
50.0
173
     0
291
     1
 45
0.0
  0
VISUALSTYLE
  5
597
102
{ACAD_REACTORS
330
587
102
}
330
587
100
AcDbVisualStyle
  2
ColorChange
 70
    16
 71
     2
 72
     2
 73
     3
 90
        0
 40
0.6
 41
30.0
 62
     5
 63
     8
421
  8421504
 74
     1
 91
        4
 64
     7
 65
   257
 75
     1
175
     1
 42
1.0
 92
        8
 66
     8
424
  8421504
 43
1.0
 76
     1
 77
     6
 78
     2
 67
     7
 79
     5
170
     0
171
     0
290
     0
174
     0
 93
        1
 44
0.0
173
     0
291
     1
 45
0.0
  0
VISUALSTYLE
  5
591
102
{ACAD_REACTORS
330
587
102
}
330
587
100
AcDbVisualStyle
  2
Conceptual
 70
     9
 71
     3
 72
     2
 73
     0
 90
        0
 40
0.6
 41
30.0
 62
     5
 63
     7
421
 16777215
 74
     2
 91
        2
 64
     7
 65
   257
 75
     1
175
     1
 42
179.0
 92
        8
 66
     7
 43
1.0
 76
     1
 77
     6
 78
     2
 67
     7
 79
     3
170
     0
171
     0
290
     0
174
     0
 93
        1
 44
0.0
173
     0
291
     0
 45
0.0
  0
VISUALSTYLE
  5
592
102
{ACAD_REACTORS
330
587
102
}
330
587
100
AcDbVisualStyle
  2
Dim
 70
    11
 71
     2
 72
     2
 73
     0
 90
        0
 40
0.6
 41
30.0
 62
     5
 63
     7
421
 16777215
 74
     1
 91
        4
 64
     7
 65
   257
 75
     1
175
     1
 42
1.0
 92
        8
 66
     7
 43
1.0
 76
     1
 77
     6
 78
     2
 67
     7
 79
     5
170
     0
171
     0
290
     0
174
     0
 93
        1
 44
-50.0
173
     0
291
     1
 45
0.0
  0
VISUALSTYLE
  5
59A
102
{ACAD_REACTORS
330
587
102
}
330
587
100
AcDbVisualStyle
  2
EdgeColorOff
 70
    22
 71
     2
 72
     2
 73
     0
 90
        0
 40
0.6
 41
30.0
 62
     5
 63
     7
421
 16777215
 74
     1
 91
        4
 64
     7
 65
   257
 75
     1
175
     1
 42
1.0
 92
        8
 66
     7
 43
1.0
 76
     1
 77
     6
 78
     2
 67
     7
 79
     5
170
     0
171
     0
290
     0
174
     0
 93
        1
 44
0.0
173
     0
291
     1
 45
0.0
  0
VISUALSTYLE
  5
596
102
{ACAD_REACTORS
330
587
102
}
330
587
100
AcDbVisualStyle
  2
Facepattern
 70
    15
 71
     2
 72
     2
 73
     0
 90
        0
 40
0.6
 41
30.0
 62
     5
 63
     7
421
 16777215
 74
     1
 91
        4
 64
     7
 65
   257
 75
     1
175
     1
 42
1.0
 92
        8
 66
     7
 43
1.0
 76
     1
 77
     6
 78
     2
 67
     7
 79
     5
170
     0
171
     0
290
     0
174
     0
 93
        1
 44
0.0
173
     0
291
     1
 45
0.0
  0
VISUALSTYLE
  5
588
102
{ACAD_REACTORS
330
587
102
}
330
587
100
AcDbVisualStyle
  2
Flat
 70
     0
 71
     2
 72
     1
 73
     1
 90
        2
 40
0.6
 41
30.0
 62
     5
 63
     7
421
 16777215
 74
     0
 91
        0
 64
     7
 65
   257
 75
     1
175
     1
 42
1.0
 92
        8
 66
     7
 43
1.0
 76
     1
 77
     6
 78
     2
 67
     7
 79
     5
170
     0
171
     0
290
     0
174
     0
 93
       13
 44
0.0
173
     0
291
     1
 45
0.0
  0
VISUALSTYLE
  5
589
102
{ACAD_REACTORS
330
587
102
}
330
587
100
AcDbVisualStyle
  2
FlatWithEdges
 70
     1
 71
     2
 72
     1
 73
     1
 90
        2
 40
0.6
 41
30.0
 62
     5
 63
     7
421
 16777215
 74
     1
 91
        0
 64
     7
 65
   257
 75
     1
175
     1
 42
1.0
 92
        0
 66
   257
 43
1.0
 76
     1
 77
     6
 78
     2
 67
     7
 79
     5
170
     0
171
     0
290
     0
174
     0
 93
       13
 44
0.0
173
     0
291
     1
 45
0.0
  0
VISUALSTYLE
  5
58A
102
{ACAD_REACTORS
330
587
102
}
330
587
100
AcDbVisualStyle
  2
Gouraud
 70
     2
 71
     2
 72
     2
 73
     1
 90
        2
 40
0.6
 41
30.0
 62
     5
 63
     7
421
 16777215
 74
     0
 91
        0
 64
     7
 65
   257
 75
     1
175
     1
 42
1.0
 92
        0
 66
     7
 43
1.0
 76
     1
 77
     6
 78
     2
 67
     7
 79
     5
170
     0
171
     0
290
     0
174
     0
 93
       13
 44
0.0
173
     0
291
     1
 45
0.0
  0
VISUALSTYLE
  5
58B
102
{ACAD_REACTORS
330
587
102
}
330
587
100
AcDbVisualStyle
  2
GouraudWithEdges
 70
     3
 71
     2
 72
     2
 73
     1
 90
        2
 40
0.6
 41
30.0
 62
     5
 63
     7
421
 16777215
 74
     1
 91
        0
 64
     7
 65
   257
 75
     1
175
     1
 42
1.0
 92
        0
 66
   257
 43
1.0
 76
     1
 77
     6
 78
     2
 67
     7
 79
     5
170
     0
171
     0
290
     0
174
     0
 93
       13
 44
0.0
173
     0
291
     1
 45
0.0
  0
VISUALSTYLE
  5
58E
102
{ACAD_REACTORS
330
587
102
}
330
587
100
AcDbVisualStyle
  2
Hidden
 70
     6
 71
     1
 72
     2
 73
     2
 90
        0
 40
0.6
 41
30.0
 62
     5
 63
     7
421
 16777215
 74
     2
 91
        2
 64
     7
 65
   257
 75
     2
175
     1
 42
40.0
 92
        0
 66
   257
 43
1.0
 76
     1
 77
     6
 78
     2
 67
     7
 79
     3
170
     0
171
     0
290
     0
174
     0
 93
        1
 44
0.0
173
     0
291
     0
 45
0.0
  0
VISUALSTYLE
  5
598
102
{ACAD_REACTORS
330
587
102
}
330
587
100
AcDbVisualStyle
  2
JitterOff
 70
    20
 71
     2
 72
     2
 73
     0
 90
        0
 40
0.6
 41
30.0
 62
     5
 63
     7
421
 16777215
 74
     1
 91
        4
 64
     7
 65
   257
 75
     1
175
     1
 42
1.0
 92
       10
 66
     7
 43
1.0
 76
     1
 77
     6
 78
     2
 67
     7
 79
     5
170
     0
171
     0
290
     0
174
     0
 93
        1
 44
0.0
173
     0
291
     1
 45
0.0
  0
VISUALSTYLE
  5
595
102
{ACAD_REACTORS
330
587
102
}
330
587
100
AcDbVisualStyle
  2
Linepattern
 70
    14
 71
     2
 72
     2
 73
     0
 90
        0
 40
0.6
 41
30.0
 62
     5
 63
     7
421
 16777215
 74
     1
 91
        4
 64
     7
 65
   257
 75
     7
175
     7
 42
1.0
 92
        8
 66
     7
 43
1.0
 76
     1
 77
     6
 78
     2
 67
     7
 79
     5
170
     0
171
     0
290
     0
174
     0
 93
        1
 44
0.0
173
     0
291
     1
 45
0.0
  0
VISUALSTYLE
  5
599
102
{ACAD_REACTORS
330
587
102
}
330
587
100
AcDbVisualStyle
  2
OverhangOff
 70
    21
 71
     2
 72
     2
 73
     0
 90
        0
 40
0.6
 41
30.0
 62
     5
 63
     7
421
 16777215
 74
     1
 91
        4
 64
     7
 65
   257
 75
     1
175
     1
 42
1.0
 92
        9
 66
     7
 43
1.0
 76
     1
 77
     6
 78
     2
 67
     7
 79
     5
170
     0
171
     0
290
     0
174
     0
 93
        1
 44
0.0
173
     0
291
     1
 45
0.0
  0
VISUALSTYLE
  5
590
102
{ACAD_REACTORS
330
587
102
}
330
587
100
AcDbVisualStyle
  2
Realistic
 70
     8
 71
     2
 72
     3
 73
     0
 90
        2
 40
0.6
 41
30.0
 62
     5
 63
     7
421
 16777215
 74
     0
 91
        0
 64
     7
 65
   257
 75
     1
175
     1
 42
1.0
 92
        8
 66
   257
 43
1.0
 76
     1
 77
     6
 78
     2
 67
     7
 79
     3
170
     0
171
     0
290
     0
174
     0
 93
       13
 44
0.0
173
     0
291
     0
 45
0.0
  0
VISUALSTYLE
  5
59F
102
{ACAD_REACTORS
330
587
102
}
330
587
100
AcDbVisualStyle
  2
Shaded
 70
    27
 71
     2
 72
     2
 73
     1
 90
        2
 40
0.6
 41
30.0
 62
     5
 63
     7
421
 16777215
 74
     0
 91
        4
 64
     7
 65
   257
 75
     1
175
     1
 42
1.0
 92
        8
 66
   257
 43
1.0
 76
     1
 77
     6
 78
     2
 67
     8
425
  7895160
 79
     3
170
     0
171
     0
290
     0
174
     0
 93
        5
 44
0.0
173
     0
291
     0
 45
0.0
  0
VISUALSTYLE
  5
59E
102
{ACAD_REACTORS
330
587
102
}
330
587
100
AcDbVisualStyle
  2
Shaded with edges
 70
    26
 71
     2
 72
     2
 73
     1
 90
        2
 40
0.6
 41
30.0
 62
     5
 63
     7
421
 16777215
 74
     1
 91
       10
 64
     7
 65
   257
 75
     2
175
     1
 42
1.0
 92
        8
 66
   257
 43
1.0
 76
     1
 77
     6
 78
     2
 67
     7
 79
     3
170
     0
171
     0
290
     0
174
     0
 93
        5
 44
0.0
173
     0
291
     0
 45
0.0
  0
VISUALSTYLE
  5
59B
102
{ACAD_REACTORS
330
587
102
}
330
587
100
AcDbVisualStyle
  2
Shades of Gray
 70
    23
 71
     2
 72
     2
 73
     3
 90
        0
 40
0.6
 41
30.0
 62
     5
 63
     7
421
 16777215
 74
     2
 91
        2
 64
     7
 65
     7
 75
     1
175
     1
 42
40.0
 92
        8
 66
     7
 43
1.0
 76
     1
 77
     6
 78
     2
 67
     7
 79
     3
170
     0
171
     0
290
     0
174
     0
 93
        1
 44
0.0
173
     0
291
     0
 45
0.0
  0
VISUALSTYLE
  5
59C
102
{ACAD_REACTORS
330
587
102
}
330
587
100
AcDbVisualStyle
  2
Sketchy
 70
    24
 71
     1
 72
     2
 73
     2
 90
        0
 40
0.6
 41
30.0
 62
     5
 63
     7
421
 16777215
 74
     2
 91
        2
 64
     7
 65
     7
 75
     1
175
     1
 42
40.0
 92
       11
 66
     7
 43
1.0
 76
     1
 77
     6
 78
     2
 67
     7
 79
     6
170
     0
171
     0
290
     0
174
     0
 93
        1
 44
0.0
173
     0
291
     0
 45
0.0
  0
VISUALSTYLE
  5
594
102
{ACAD_REACTORS
330
587
102
}
330
587
100
AcDbVisualStyle
  2
Thicken
 70
    13
 71
     2
 72
     2
 73
     0
 90
        0
 40
0.6
 41
30.0
 62
     5
 63
     7
421
 16777215
 74
     1
 91
        4
 64
     7
 65
   257
 75
     1
175
     1
 42
1.0
 92
       12
 66
     7
 43
1.0
 76
     1
 77
     6
 78
     2
 67
     7
 79
     5
170
     0
171
     0
290
     0
174
     0
 93
        1
 44
0.0
173
     0
291
     1
 45
0.0
  0
VISUALSTYLE
  5
58D
102
{ACAD_REACTORS
330
587
102
}
330
587
100
AcDbVisualStyle
  2
Wireframe
 70
     5
 71
     0
 72
     2
 73
     0
 90
        0
 40
0.6
 41
30.0
 62
     5
 63
     7
421
 16777215
 74
     1
 91
        4
 64
     7
 65
   257
 75
     1
175
     1
 42
1.0
 92
        0
 66
   257
 43
1.0
 76
     1
 77
     6
 78
     2
 67
     7
 79
     3
170
     0
171
     0
290
     0
174
     0
 93
        1
 44
0.0
173
     0
291
     0
 45
0.0
  0
VISUALSTYLE
  5
59D
102
{ACAD_REACTORS
330
587
102
}
330
587
100
AcDbVisualStyle
  2
X-Ray
 70
    25
 71
     2
 72
     2
 73
     1
 90
        1
 40
0.5
 41
30.0
 62
     5
 63
     7
421
 16777215
 74
     1
 91
        0
 64
     7
 65
   257
 75
     1
175
     1
 42
1.0
 92
        8
 66
     7
 43
1.0
 76
     1
 77
     6
 78
     2
 67
     7
 79
     3
170
     0
171
     0
290
     0
174
     0
 93
       13
 44
0.0
173
     0
291
     0
 45
0.0
  0
DICTIONARYVAR
  5
5A9
102
{ACAD_REACTORS
330
5A8
102
}
330
5A8
100
DictionaryVariables
280
     0
  1
1:1
  0
DICTIONARYVAR
  5
5AB
102
{ACAD_REACTORS
330
5A8
102
}
330
5A8
100
DictionaryVariables
280
     0
  1
Standard
  0
DICTIONARYVAR
  5
5AA
102
{ACAD_REACTORS
330
5A8
102
}
330
5A8
100
DictionaryVariables
280
     0
  1
Standard
  0
DICTIONARY
  5
5AE
330
562
100
AcDbDictionary
280
     1
281
     1
  3
ACAD_ROUNDTRIP_2008_TABLESTYLE_CELLSTYLEMAP
360
5AF
  0
DICTIONARY
  5
5B0
330
563
100
AcDbDictionary
280
     1
281
     1
  3
ACAD_ROUNDTRIP_2008_TABLESTYLE_CELLSTYLEMAP
360
5B1
  0
CELLSTYLEMAP
  5
5AF
102
{ACAD_REACTORS
330
5AE
102
}
330
5AE
100
AcDbCellStyleMap
 90
        3
300
CELLSTYLE
  1
TABLEFORMAT_BEGIN
 90
        5
170
     1
 91
        0
 92
    32768
 62
   257
 93
        1
300
CONTENTFORMAT
  1
CONTENTFORMAT_BEGIN
 90
        0
 91
        0
 92
        4
 93
        0
300

 40
0.0
140
1.0
 94
        1
 62
     0
340
11
144
0.18
309
CONTENTFORMAT_END
171
     1
301
MARGIN
  1
CELLMARGIN_BEGIN
 40
0.06
 40
0.06
 40
0.06
 40
0.06
 40
0.18
 40
0.18
309
CELLMARGIN_END
 94
        6
 95
        1
302
GRIDFORMAT
  1
GRIDFORMAT_BEGIN
 90
        0
 91
        1
 62
     0
 92
       -2
340
0
 93
        0
 40
0.045
309
GRIDFORMAT_END
 95
        2
302
GRIDFORMAT
  1
GRIDFORMAT_BEGIN
 90
        0
 91
        1
 62
     0
 92
       -2
340
0
 93
        0
 40
0.045
309
GRIDFORMAT_END
 95
        4
302
GRIDFORMAT
  1
GRIDFORMAT_BEGIN
 90
        0
 91
        1
 62
     0
 92
       -2
340
0
 93
        0
 40
0.045
309
GRIDFORMAT_END
 95
        8
302
GRIDFORMAT
  1
GRIDFORMAT_BEGIN
 90
        0
 91
        1
 62
     0
 92
       -2
340
0
 93
        0
 40
0.045
309
GRIDFORMAT_END
 95
       16
302
GRIDFORMAT
  1
GRIDFORMAT_BEGIN
 90
        0
 91
        1
 62
     0
 92
       -2
340
0
 93
        0
 40
0.045
309
GRIDFORMAT_END
 95
       32
302
GRIDFORMAT
  1
GRIDFORMAT_BEGIN
 90
        0
 91
        1
 62
     0
 92
       -2
340
0
 93
        0
 40
0.045
309
GRIDFORMAT_END
309
TABLEFORMAT_END
  1
CELLSTYLE_BEGIN
 90
        1
 91
        1
300
_TITLE
309
CELLSTYLE_END
300
CELLSTYLE
  1
TABLEFORMAT_BEGIN
 90
        5
170
     1
 91
        0
 92
        0
 62
   257
 93
        1
300
CONTENTFORMAT
  1
CONTENTFORMAT_BEGIN
 90
        0
 91
        0
 92
        4
 93
        0
300

 40
0.0
140
1.0
 94
        1
 62
     0
340
11
144
0.18
309
CONTENTFORMAT_END
171
     1
301
MARGIN
  1
CELLMARGIN_BEGIN
 40
0.06
 40
0.06
 40
0.06
 40
0.06
 40
0.18
 40
0.18
309
CELLMARGIN_END
 94
        6
 95
        1
302
GRIDFORMAT
  1
GRIDFORMAT_BEGIN
 90
        0
 91
        1
 62
     0
 92
       -2
340
0
 93
        0
 40
0.045
309
GRIDFORMAT_END
 95
        2
302
GRIDFORMAT
  1
GRIDFORMAT_BEGIN
 90
        0
 91
        1
 62
     0
 92
       -2
340
0
 93
        0
 40
0.045
309
GRIDFORMAT_END
 95
        4
302
GRIDFORMAT
  1
GRIDFORMAT_BEGIN
 90
        0
 91
        1
 62
     0
 92
       -2
340
0
 93
        0
 40
0.045
309
GRIDFORMAT_END
 95
        8
302
GRIDFORMAT
  1
GRIDFORMAT_BEGIN
 90
        0
 91
        1
 62
     0
 92
       -2
340
0
 93
        0
 40
0.045
309
GRIDFORMAT_END
 95
       16
302
GRIDFORMAT
  1
GRIDFORMAT_BEGIN
 90
        0
 91
        1
 62
     0
 92
       -2
340
0
 93
        0
 40
0.045
309
GRIDFORMAT_END
 95
       32
302
GRIDFORMAT
  1
GRIDFORMAT_BEGIN
 90
        0
 91
        1
 62
     0
 92
       -2
340
0
 93
        0
 40
0.045
309
GRIDFORMAT_END
309
TABLEFORMAT_END
  1
CELLSTYLE_BEGIN
 90
        2
 91
        1
300
_HEADER
309
CELLSTYLE_END
300
CELLSTYLE
  1
TABLEFORMAT_BEGIN
 90
        5
170
     1
 91
        0
 92
        0
 62
   257
 93
        1
300
CONTENTFORMAT
  1
CONTENTFORMAT_BEGIN
 90
        0
 91
        0
 92
        4
 93
        0
300

 40
0.0
140
1.0
 94
        1
 62
     0
340
11
144
0.18
309
CONTENTFORMAT_END
171
     1
301
MARGIN
  1
CELLMARGIN_BEGIN
 40
0.06
 40
0.06
 40
0.06
 40
0.06
 40
0.18
 40
0.18
309
CELLMARGIN_END
 94
        6
 95
        1
302
GRIDFORMAT
  1
GRIDFORMAT_BEGIN
 90
        0
 91
        1
 62
     0
 92
       -2
340
0
 93
        0
 40
0.045
309
GRIDFORMAT_END
 95
        2
302
GRIDFORMAT
  1
GRIDFORMAT_BEGIN
 90
        0
 91
        1
 62
     0
 92
       -2
340
0
 93
        0
 40
0.045
309
GRIDFORMAT_END
 95
        4
302
GRIDFORMAT
  1
GRIDFORMAT_BEGIN
 90
        0
 91
        1
 62
     0
 92
       -2
340
0
 93
        0
 40
0.045
309
GRIDFORMAT_END
 95
        8
302
GRIDFORMAT
  1
GRIDFORMAT_BEGIN
 90
        0
 91
        1
 62
     0
 92
       -2
340
0
 93
        0
 40
0.045
309
GRIDFORMAT_END
 95
       16
302
GRIDFORMAT
  1
GRIDFORMAT_BEGIN
 90
        0
 91
        1
 62
     0
 92
       -2
340
0
 93
        0
 40
0.045
309
GRIDFORMAT_END
 95
       32
302
GRIDFORMAT
  1
GRIDFORMAT_BEGIN
 90
        0
 91
        1
 62
     0
 92
       -2
340
0
 93
        0
 40
0.045
309
GRIDFORMAT_END
309
TABLEFORMAT_END
  1
CELLSTYLE_BEGIN
 90
        3
 91
        2
300
_DATA
309
CELLSTYLE_END
  0
CELLSTYLEMAP
  5
5B1
102
{ACAD_REACTORS
330
5B0
102
}
330
5B0
100
AcDbCellStyleMap
 90
        3
300
CELLSTYLE
  1
TABLEFORMAT_BEGIN
 90
        5
170
     1
 91
        0
 92
    32768
 62
   257
 93
        1
300
CONTENTFORMAT
  1
CONTENTFORMAT_BEGIN
 90
        0
 91
        0
 92
        4
 93
        0
300

 40
0.0
140
1.0
 94
        1
 62
     0
340
11
144
0.18
309
CONTENTFORMAT_END
171
     1
301
MARGIN
  1
CELLMARGIN_BEGIN
 40
0.06
 40
0.06
 40
0.06
 40
0.06
 40
0.18
 40
0.18
309
CELLMARGIN_END
 94
        6
 95
        1
302
GRIDFORMAT
  1
GRIDFORMAT_BEGIN
 90
        0
 91
        1
 62
     0
 92
       -2
340
0
 93
        0
 40
0.045
309
GRIDFORMAT_END
 95
        2
302
GRIDFORMAT
  1
GRIDFORMAT_BEGIN
 90
        0
 91
        1
 62
     0
 92
       -2
340
0
 93
        0
 40
0.045
309
GRIDFORMAT_END
 95
        4
302
GRIDFORMAT
  1
GRIDFORMAT_BEGIN
 90
        0
 91
        1
 62
     0
 92
       -2
340
0
 93
        0
 40
0.045
309
GRIDFORMAT_END
 95
        8
302
GRIDFORMAT
  1
GRIDFORMAT_BEGIN
 90
        0
 91
        1
 62
     0
 92
       -2
340
0
 93
        0
 40
0.045
309
GRIDFORMAT_END
 95
       16
302
GRIDFORMAT
  1
GRIDFORMAT_BEGIN
 90
        0
 91
        1
 62
     0
 92
       -2
340
0
 93
        0
 40
0.045
309
GRIDFORMAT_END
 95
       32
302
GRIDFORMAT
  1
GRIDFORMAT_BEGIN
 90
        0
 91
        1
 62
     0
 92
       -2
340
0
 93
        0
 40
0.045
309
GRIDFORMAT_END
309
TABLEFORMAT_END
  1
CELLSTYLE_BEGIN
 90
        1
 91
        1
300
_TITLE
309
CELLSTYLE_END
300
CELLSTYLE
  1
TABLEFORMAT_BEGIN
 90
        5
170
     1
 91
        0
 92
        0
 62
   257
 93
        1
300
CONTENTFORMAT
  1
CONTENTFORMAT_BEGIN
 90
        0
 91
        0
 92
        4
 93
        0
300

 40
0.0
140
1.0
 94
        1
 62
     0
340
11
144
0.18
309
CONTENTFORMAT_END
171
     1
301
MARGIN
  1
CELLMARGIN_BEGIN
 40
0.06
 40
0.06
 40
0.06
 40
0.06
 40
0.18
 40
0.18
309
CELLMARGIN_END
 94
        6
 95
        1
302
GRIDFORMAT
  1
GRIDFORMAT_BEGIN
 90
        0
 91
        1
 62
     0
 92
       -2
340
0
 93
        0
 40
0.045
309
GRIDFORMAT_END
 95
        2
302
GRIDFORMAT
  1
GRIDFORMAT_BEGIN
 90
        0
 91
        1
 62
     0
 92
       -2
340
0
 93
        0
 40
0.045
309
GRIDFORMAT_END
 95
        4
302
GRIDFORMAT
  1
GRIDFORMAT_BEGIN
 90
        0
 91
        1
 62
     0
 92
       -2
340
0
 93
        0
 40
0.045
309
GRIDFORMAT_END
 95
        8
302
GRIDFORMAT
  1
GRIDFORMAT_BEGIN
 90
        0
 91
        1
 62
     0
 92
       -2
340
0
 93
        0
 40
0.045
309
GRIDFORMAT_END
 95
       16
302
GRIDFORMAT
  1
GRIDFORMAT_BEGIN
 90
        0
 91
        1
 62
     0
 92
       -2
340
0
 93
        0
 40
0.045
309
GRIDFORMAT_END
 95
       32
302
GRIDFORMAT
  1
GRIDFORMAT_BEGIN
 90
        0
 91
        1
 62
     0
 92
       -2
340
0
 93
        0
 40
0.045
309
GRIDFORMAT_END
309
TABLEFORMAT_END
  1
CELLSTYLE_BEGIN
 90
        2
 91
        1
300
_HEADER
309
CELLSTYLE_END
300
CELLSTYLE
  1
TABLEFORMAT_BEGIN
 90
        5
170
     1
 91
        0
 92
        0
 62
   257
 93
        1
300
CONTENTFORMAT
  1
CONTENTFORMAT_BEGIN
 90
        0
 91
        0
 92
        4
 93
        0
300

 40
0.0
140
1.0
 94
        1
 62
     0
340
11
144
0.18
309
CONTENTFORMAT_END
171
     1
301
MARGIN
  1
CELLMARGIN_BEGIN
 40
0.06
 40
0.06
 40
0.06
 40
0.06
 40
0.18
 40
0.18
309
CELLMARGIN_END
 94
        6
 95
        1
302
GRIDFORMAT
  1
GRIDFORMAT_BEGIN
 90
        0
 91
        1
 62
     0
 92
       -2
340
0
 93
        0
 40
0.045
309
GRIDFORMAT_END
 95
        2
302
GRIDFORMAT
  1
GRIDFORMAT_BEGIN
 90
        0
 91
        1
 62
     0
 92
       -2
340
0
 93
        0
 40
0.045
309
GRIDFORMAT_END
 95
        4
302
GRIDFORMAT
  1
GRIDFORMAT_BEGIN
 90
        0
 91
        1
 62
     0
 92
       -2
340
0
 93
        0
 40
0.045
309
GRIDFORMAT_END
 95
        8
302
GRIDFORMAT
  1
GRIDFORMAT_BEGIN
 90
        0
 91
        1
 62
     0
 92
       -2
340
0
 93
        0
 40
0.045
309
GRIDFORMAT_END
 95
       16
302
GRIDFORMAT
  1
GRIDFORMAT_BEGIN
 90
        0
 91
        1
 62
     0
 92
       -2
340
0
 93
        0
 40
0.045
309
GRIDFORMAT_END
 95
       32
302
GRIDFORMAT
  1
GRIDFORMAT_BEGIN
 90
        0
 91
        1
 62
     0
 92
       -2
340
0
 93
        0
 40
0.045
309
GRIDFORMAT_END
309
TABLEFORMAT_END
  1
CELLSTYLE_BEGIN
 90
        3
 91
        2
300
_DATA
309
CELLSTYLE_END
  0
ENDSEC
  0
EOF
