  0
SECTION
  2
HEADER
  9
$ACADVER
  1
AC1014
  9
$ACADMAINTVER
 70
     9
  9
$DWGCODEPAGE
  3
ANSI_1252
  9
$INSBASE
 10
0.0
 20
0.0
 30
0.0
  9
$EXTMIN
 10
11.23166343651735
 20
-3.478406198813559
 30
0.0
  9
$EXTMAX
 10
431.5654138587174
 20
293.5215938011864
 30
0.0
  9
$LIMMIN
 10
0.0
 20
0.0
  9
$LIMMAX
 10
420.0
 20
297.0
  9
$ORTHOMODE
 70
     0
  9
$REGENMODE
 70
     1
  9
$FILLMODE
 70
     1
  9
$QTEXTMODE
 70
     0
  9
$MIRRTEXT
 70
     1
  9
$DRAGMODE
 70
     2
  9
$LTSCALE
 40
23.1
  9
$OSMODE
 70
   511
  9
$ATTMODE
 70
     1
  9
$TEXTSIZE
 40
0.2
  9
$TRACEWID
 40
0.05
  9
$TEXTSTYLE
  7
STANDARD
  9
$CLAYER
  8
0
  9
$CELTYPE
  6
BYLAYER
  9
$CECOLOR
 62
   256
  9
$CELTSCALE
 40
1.0
  9
$DELOBJ
 70
     1
  9
$DISPSILH
 70
     0
  9
$DIMSCALE
 40
1.0
  9
$DIMASZ
 40
2.5
  9
$DIMEXO
 40
2.625
  9
$DIMDLI
 40
15.96
  9
$DIMRND
 40
0.0
  9
$DIMDLE
 40
0.0
  9
$DIMEXE
 40
7.56
  9
$DIMTP
 40
0.01
  9
$DIMTM
 40
0.01
  9
$DIMTXT
 40
3.0
  9
$DIMCEN
 40
3.78
  9
$DIMTSZ
 40
0.0
  9
$DIMTOL
 70
     1
  9
$DIMLIM
 70
     0
  9
$DIMTIH
 70
     1
  9
$DIMTOH
 70
     1
  9
$DIMSE1
 70
     0
  9
$DIMSE2
 70
     0
  9
$DIMTAD
 70
     0
  9
$DIMZIN
 70
     0
  9
$DIMBLK
  1
CLOSED
  9
$DIMASO
 70
     1
  9
$DIMSHO
 70
     1
  9
$DIMPOST
  1

  9
$DIMAPOST
  1

  9
$DIMALT
 70
     0
  9
$DIMALTD
 70
     2
  9
$DIMALTF
 40
25.4
  9
$DIMLFAC
 40
1.0
  9
$DIMTOFL
 70
     0
  9
$DIMTVP
 40
0.0
  9
$DIMTIX
 70
     0
  9
$DIMSOXD
 70
     0
  9
$DIMSAH
 70
     0
  9
$DIMBLK1
  1

  9
$DIMBLK2
  1

  9
$DIMSTYLE
  2
STANDARD
  9
$DIMCLRD
 70
     0
  9
$DIMCLRE
 70
     0
  9
$DIMCLRT
 70
     0
  9
$DIMTFAC
 40
1.0
  9
$DIMGAP
 40
0.09
  9
$DIMJUST
 70
     0
  9
$DIMSD1
 70
     0
  9
$DIMSD2
 70
     0
  9
$DIMTOLJ
 70
     1
  9
$DIMTZIN
 70
     0
  9
$DIMALTZ
 70
     0
  9
$DIMALTTZ
 70
     0
  9
$DIMFIT
 70
     5
  9
$DIMUPT
 70
     0
  9
$DIMUNIT
 70
     2
  9
$DIMDEC
 70
     4
  9
$DIMTDEC
 70
     4
  9
$DIMALTU
 70
     2
  9
$DIMALTTD
 70
     2
  9
$DIMTXSTY
  7
STANDARD
  9
$DIMAUNIT
 70
     0
  9
$LUNITS
 70
     2
  9
$LUPREC
 70
     4
  9
$SKETCHINC
 40
0.1
  9
$FILLETRAD
 40
0.5
  9
$AUNITS
 70
     0
  9
$AUPREC
 70
     0
  9
$MENU
  1
.
  9
$ELEVATION
 40
0.0
  9
$PELEVATION
 40
0.0
  9
$THICKNESS
 40
0.0
  9
$LIMCHECK
 70
     0
  9
$CHAMFERA
 40
0.0
  9
$CHAMFERB
 40
0.0
  9
$CHAMFERC
 40
0.0
  9
$CHAMFERD
 40
0.0
  9
$SKPOLY
 70
     0
  9
$TDCREATE
 40
2447893.041666667
  9
$TDUPDATE
 40
2458444.651923067
  9
$TDINDWG
 40
0.0050509259
  9
$TDUSRTIMER
 40
0.0001598495
  9
$USRTIMER
 70
     1
  9
$ANGBASE
 50
0.0
  9
$ANGDIR
 70
     0
  9
$PDMODE
 70
     3
  9
$PDSIZE
 40
0.3125
  9
$PLINEWID
 40
0.0
  9
$COORDS
 70
     1
  9
$SPLFRAME
 70
     0
  9
$SPLINETYPE
 70
     6
  9
$SPLINESEGS
 70
     8
  9
$ATTDIA
 70
     0
  9
$ATTREQ
 70
     1
  9
$HANDLING
 70
     1
  9
$HANDSEED
  5
654
  9
$SURFTAB1
 70
     6
  9
$SURFTAB2
 70
     6
  9
$SURFTYPE
 70
     6
  9
$SURFU
 70
     6
  9
$SURFV
 70
     6
  9
$UCSNAME
  2

  9
$UCSORG
 10
0.0
 20
0.0
 30
0.0
  9
$UCSXDIR
 10
1.0
 20
0.0
 30
0.0
  9
$UCSYDIR
 10
0.0
 20
1.0
 30
0.0
  9
$PUCSNAME
  2

  9
$PUCSORG
 10
0.0
 20
0.0
 30
0.0
  9
$PUCSXDIR
 10
1.0
 20
0.0
 30
0.0
  9
$PUCSYDIR
 10
0.0
 20
1.0
 30
0.0
  9
$USERI1
 70
     0
  9
$USERI2
 70
     0
  9
$USERI3
 70
     0
  9
$USERI4
 70
     0
  9
$USERI5
 70
     0
  9
$USERR1
 40
0.0
  9
$USERR2
 40
0.0
  9
$USERR3
 40
0.0
  9
$USERR4
 40
0.0
  9
$USERR5
 40
0.0
  9
$WORLDVIEW
 70
     1
  9
$SHADEDGE
 70
     3
  9
$SHADEDIF
 70
    70
  9
$TILEMODE
 70
     1
  9
$MAXACTVP
 70
    64
  9
$PINSBASE
 10
0.0
 20
0.0
 30
0.0
  9
$PLIMCHECK
 70
     0
  9
$PEXTMIN
 10
1.000000000000000E+20
 20
1.000000000000000E+20
 30
1.000000000000000E+20
  9
$PEXTMAX
 10
-1.000000000000000E+20
 20
-1.000000000000000E+20
 30
-1.000000000000000E+20
  9
$PLIMMIN
 10
0.0
 20
0.0
  9
$PLIMMAX
 10
0.0
 20
0.0
  9
$UNITMODE
 70
     0
  9
$VISRETAIN
 70
     1
  9
$PLINEGEN
 70
     0
  9
$PSLTSCALE
 70
     1
  9
$TREEDEPTH
 70
  3020
  9
$PICKSTYLE
 70
     1
  9
$CMLSTYLE
  2
STANDARD
  9
$CMLJUST
 70
     0
  9
$CMLSCALE
 40
1.0
  9
$PROXYGRAPHICS
 70
     1
  9
$MEASUREMENT
 70
     1
  0
ENDSEC
  0
SECTION
  2
CLASSES
  0
CLASS
  1
ACDBDICTIONARYWDFLT
  2
AcDbDictionaryWithDefault
  3
ObjectDBX Classes
 90
        0
280
     0
281
     0
  0
CLASS
  1
ACDBPLACEHOLDER
  2
AcDbPlaceHolder
  3
ObjectDBX Classes
 90
        0
280
     0
281
     0
  0
CLASS
  1
LAYOUT
  2
AcDbLayout
  3
ObjectDBX Classes
 90
        0
280
     0
281
     0
  0
CLASS
  1
TABLESTYLE
  2
AcDbTableStyle
  3
ObjectDBX Classes
 90
     4095
280
     0
281
     0
  0
CLASS
  1
ACAD_TABLE
  2
AcDbTable
  3
ObjectDBX Classes
 90
     1025
280
     0
281
     1
  0
CLASS
  1
SCALE
  2
AcDbScale
  3
ObjectDBX Classes
 90
     1153
280
     0
281
     0
  0
CLASS
  1
TABLEGEOMETRY
  2
AcDbTableGeometry
  3
ObjectDBX Classes
 90
     1152
280
     0
281
     0
  0
CLASS
  1
VISUALSTYLE
  2
AcDbVisualStyle
  3
ObjectDBX Classes
 90
     4095
280
     0
281
     0
  0
CLASS
  1
MATERIAL
  2
AcDbMaterial
  3
ObjectDBX Classes
 90
     1153
280
     0
281
     0
  0
CLASS
  1
MLEADERSTYLE
  2
AcDbMLeaderStyle
  3
ACDB_MLEADERSTYLE_CLASS
 90
     4095
280
     0
281
     0
  0
CLASS
  1
SUN
  2
AcDbSun
  3
SCENEOE
 90
     1153
280
     0
281
     0
  0
CLASS
  1
DICTIONARYVAR
  2
AcDbDictionaryVar
  3
ObjectDBX Classes
 90
        0
280
     0
281
     0
  0
CLASS
  1
XRECORD
  2
AcDbXrecord
  3
ObjectDBX Classes
 90
        0
280
     0
281
     0
  0
CLASS
  1
LWPOLYLINE
  2
AcDbPolyline
  3
ObjectDBX Classes
 90
        0
280
     0
281
     1
  0
CLASS
  1
HATCH
  2
AcDbHatch
  3
ObjectDBX Classes
 90
        0
280
     0
281
     1
  0
ENDSEC
  0
SECTION
  2
TABLES
  0
TABLE
  2
VPORT
  5
8
330
0
100
AcDbSymbolTable
 70
     1
  0
VPORT
  5
1F4
330
8
100
AcDbSymbolTableRecord
100
AcDbViewportTableRecord
  2
*ACTIVE
 70
     0
 10
0.0
 20
0.0
 11
1.0
 21
1.0
 12
297.3710383905456
 22
229.8836163382523
 13
0.0
 23
0.0
 14
1.0
 24
1.0
 15
0.0
 25
0.0
 16
0.0
 26
0.0
 36
1.0
 17
0.0
 27
0.0
 37
0.0
 40
906.3720703124991
 41
1.929961089494164
 42
50.0
 43
0.0
 44
0.0
 50
0.0
 51
0.0
 71
    16
 72
   100
 73
     1
 74
     1
 75
     0
 76
     0
 77
     0
 78
     0
  0
ENDTAB
  0
TABLE
  2
LTYPE
  5
5
330
0
100
AcDbSymbolTable
 70
     6
  0
LTYPE
  5
14
330
5
100
AcDbSymbolTableRecord
100
AcDbLinetypeTableRecord
  2
BYBLOCK
 70
     0
  3

 72
    65
 73
     0
 40
0.0
  0
LTYPE
  5
15
330
5
100
AcDbSymbolTableRecord
100
AcDbLinetypeTableRecord
  2
BYLAYER
 70
     0
  3

 72
    65
 73
     0
 40
0.0
  0
LTYPE
  5
16
330
5
100
AcDbSymbolTableRecord
100
AcDbLinetypeTableRecord
  2
CONTINUOUS
 70
     0
  3
Solid line
 72
    65
 73
     0
 40
0.0
  0
LTYPE
  5
1F5
330
5
100
AcDbSymbolTableRecord
100
AcDbLinetypeTableRecord
  2
CENTER
 70
     0
  3
____ _ ____ _ ____ _ ____ _ ____ _ ____ _ ____
 72
    65
 73
     4
 40
0.6
 49
0.375
 74
     0
 49
-0.075
 74
     0
 49
0.075
 74
     0
 49
-0.075
 74
     0
  0
LTYPE
  5
1F6
330
5
100
AcDbSymbolTableRecord
100
AcDbLinetypeTableRecord
  2
HIDDEN
 70
     0
  3
- - - - - - - - - - - - - - - - - - - -
 72
    65
 73
     2
 40
0.2
 49
0.1
 74
     0
 49
-0.1
 74
     0
  0
LTYPE
  5
1F7
330
5
100
AcDbSymbolTableRecord
100
AcDbLinetypeTableRecord
  2
PHANTOM
 70
     0
  3
_____ _ _ _____ _ _ _____ _ _ _____
 72
    65
 73
     6
 40
0.8
 49
0.45
 74
     0
 49
-0.05
 74
     0
 49
0.1
 74
     0
 49
-0.05
 74
     0
 49
0.1
 74
     0
 49
-0.05
 74
     0
  0
LTYPE
  5
1F8
330
5
100
AcDbSymbolTableRecord
100
AcDbLinetypeTableRecord
  2
DOT
 70
     0
  3
. . . . . . . . . . . . . . . . . . . .
 72
    65
 73
     2
 40
0.2
 49
0.1
 74
     0
 49
-0.1
 74
     0
  0
LTYPE
  5
1F9
330
5
100
AcDbSymbolTableRecord
100
AcDbLinetypeTableRecord
  2
DASHED
 70
     0
  3
- - - - - - - - - - - - - - - - - - - -
 72
    65
 73
     2
 40
0.2
 49
0.1
 74
     0
 49
-0.1
 74
     0
  0
ENDTAB
  0
TABLE
  2
LAYER
  5
2
330
0
100
AcDbSymbolTable
 70
    36
  0
LAYER
  5
10
330
2
100
AcDbSymbolTableRecord
100
AcDbLayerTableRecord
  2
0
 70
     0
 62
     7
  6
CONTINUOUS
  0
LAYER
  5
1FA
330
2
100
AcDbSymbolTableRecord
100
AcDbLayerTableRecord
  2
DEFAULT_1
 70
     0
 62
     7
  6
CENTER
  0
LAYER
  5
1FB
330
2
100
AcDbSymbolTableRecord
100
AcDbLayerTableRecord
  2
DEFAULT_2
 70
     0
 62
     8
  6
HIDDEN
  0
LAYER
  5
1FC
330
2
100
AcDbSymbolTableRecord
100
AcDbLayerTableRecord
  2
DEFAULT_3
 70
     0
 62
     7
  6
PHANTOM
  0
LAYER
  5
1FD
330
2
100
AcDbSymbolTableRecord
100
AcDbLayerTableRecord
  2
01_ALL_DTM_PLN
 70
     0
 62
     7
  6
CONTINUOUS
  0
LAYER
  5
1FE
330
2
100
AcDbSymbolTableRecord
100
AcDbLayerTableRecord
  2
01__ASM_ALL_DTM_PLN
 70
     0
 62
     7
  6
CONTINUOUS
  0
LAYER
  5
1FF
330
2
100
AcDbSymbolTableRecord
100
AcDbLayerTableRecord
  2
01__ASM_DEF_DTM_PLN
 70
     0
 62
     7
  6
CONTINUOUS
  0
LAYER
  5
200
330
2
100
AcDbSymbolTableRecord
100
AcDbLayerTableRecord
  2
01___PRT_ALL_DTM_PLN
 70
     0
 62
     7
  6
CONTINUOUS
  0
LAYER
  5
201
330
2
100
AcDbSymbolTableRecord
100
AcDbLayerTableRecord
  2
01___PRT_DEF_DTM_PLN
 70
     0
 62
     7
  6
CONTINUOUS
  0
LAYER
  5
202
330
2
100
AcDbSymbolTableRecord
100
AcDbLayerTableRecord
  2
02_ALL_AXES
 70
     0
 62
     7
  6
CONTINUOUS
  0
LAYER
  5
203
330
2
100
AcDbSymbolTableRecord
100
AcDbLayerTableRecord
  2
02__ASM_ALL_AXES
 70
     0
 62
     7
  6
CONTINUOUS
  0
LAYER
  5
204
330
2
100
AcDbSymbolTableRecord
100
AcDbLayerTableRecord
  2
02___PRT_ALL_AXES
 70
     0
 62
     7
  6
CONTINUOUS
  0
LAYER
  5
205
330
2
100
AcDbSymbolTableRecord
100
AcDbLayerTableRecord
  2
03_ALL_CURVES
 70
     0
 62
     7
  6
CONTINUOUS
  0
LAYER
  5
206
330
2
100
AcDbSymbolTableRecord
100
AcDbLayerTableRecord
  2
03__ASM_ALL_CURVES
 70
     0
 62
     7
  6
CONTINUOUS
  0
LAYER
  5
207
330
2
100
AcDbSymbolTableRecord
100
AcDbLayerTableRecord
  2
03___PRT_ALL_CURVES
 70
     0
 62
     7
  6
CONTINUOUS
  0
LAYER
  5
208
330
2
100
AcDbSymbolTableRecord
100
AcDbLayerTableRecord
  2
04_ALL_DTM_PNT
 70
     0
 62
     7
  6
CONTINUOUS
  0
LAYER
  5
209
330
2
100
AcDbSymbolTableRecord
100
AcDbLayerTableRecord
  2
04__ASM_ALL_DTM_PNT
 70
     0
 62
     7
  6
CONTINUOUS
  0
LAYER
  5
20A
330
2
100
AcDbSymbolTableRecord
100
AcDbLayerTableRecord
  2
04___PRT_ALL_DTM_PNT
 70
     0
 62
     7
  6
CONTINUOUS
  0
LAYER
  5
20B
330
2
100
AcDbSymbolTableRecord
100
AcDbLayerTableRecord
  2
05_ALL_DTM_CSYS
 70
     0
 62
     7
  6
CONTINUOUS
  0
LAYER
  5
20C
330
2
100
AcDbSymbolTableRecord
100
AcDbLayerTableRecord
  2
05__ASM_ALL_DTM_CSYS
 70
     0
 62
     7
  6
CONTINUOUS
  0
LAYER
  5
20D
330
2
100
AcDbSymbolTableRecord
100
AcDbLayerTableRecord
  2
05__ASM_DEF_DTM_CSYS
 70
     0
 62
     7
  6
CONTINUOUS
  0
LAYER
  5
20E
330
2
100
AcDbSymbolTableRecord
100
AcDbLayerTableRecord
  2
05___PRT_ALL_DTM_CSYS
 70
     0
 62
     7
  6
CONTINUOUS
  0
LAYER
  5
20F
330
2
100
AcDbSymbolTableRecord
100
AcDbLayerTableRecord
  2
05___PRT_DEF_DTM_CSYS
 70
     0
 62
     7
  6
CONTINUOUS
  0
LAYER
  5
210
330
2
100
AcDbSymbolTableRecord
100
AcDbLayerTableRecord
  2
06_ALL_SURFS
 70
     0
 62
     7
  6
CONTINUOUS
  0
LAYER
  5
211
330
2
100
AcDbSymbolTableRecord
100
AcDbLayerTableRecord
  2
06__ASM_ALL_SURFS
 70
     0
 62
     7
  6
CONTINUOUS
  0
LAYER
  5
212
330
2
100
AcDbSymbolTableRecord
100
AcDbLayerTableRecord
  2
06___PRT_ALL_SURFS
 70
     0
 62
     7
  6
CONTINUOUS
  0
LAYER
  5
213
330
2
100
AcDbSymbolTableRecord
100
AcDbLayerTableRecord
  2
07__ASM_ALL_SKELETONS
 70
     0
 62
     7
  6
CONTINUOUS
  0
LAYER
  5
214
330
2
100
AcDbSymbolTableRecord
100
AcDbLayerTableRecord
  2
1_ALL_PLANES
 70
     0
 62
     7
  6
CONTINUOUS
  0
LAYER
  5
215
330
2
100
AcDbSymbolTableRecord
100
AcDbLayerTableRecord
  2
3_ALL_AXES
 70
     0
 62
     7
  6
CONTINUOUS
  0
LAYER
  5
216
330
2
100
AcDbSymbolTableRecord
100
AcDbLayerTableRecord
  2
4_ALL_POINTS
 70
     0
 62
     7
  6
CONTINUOUS
  0
LAYER
  5
217
330
2
100
AcDbSymbolTableRecord
100
AcDbLayerTableRecord
  2
5_ALL_CURVES
 70
     0
 62
     7
  6
CONTINUOUS
  0
LAYER
  5
218
330
2
100
AcDbSymbolTableRecord
100
AcDbLayerTableRecord
  2
6_ALL_SURFS
 70
     0
 62
     7
  6
CONTINUOUS
  0
LAYER
  5
219
330
2
100
AcDbSymbolTableRecord
100
AcDbLayerTableRecord
  2
7_ALL_FEATURES
 70
     0
 62
     7
  6
CONTINUOUS
  0
LAYER
  5
21A
330
2
100
AcDbSymbolTableRecord
100
AcDbLayerTableRecord
  2
8_ALL_NOTES_BALLOONS_SYMBO
 70
     0
 62
     7
  6
CONTINUOUS
  0
LAYER
  5
21B
330
2
100
AcDbSymbolTableRecord
100
AcDbLayerTableRecord
  2
XSEC_DATUMS
 70
     0
 62
     7
  6
CONTINUOUS
  0
LAYER
  5
601
330
2
100
AcDbSymbolTableRecord
100
AcDbLayerTableRecord
  2
DEFPOINTS
 70
     0
 62
     7
  6
CONTINUOUS
  0
ENDTAB
  0
TABLE
  2
STYLE
  5
3
330
0
100
AcDbSymbolTable
 70
     5
  0
STYLE
  5
11
330
3
100
AcDbSymbolTableRecord
100
AcDbTextStyleTableRecord
  2
STANDARD
 70
     0
 40
0.0
 41
0.85
 50
0.0
 71
     0
 42
0.2
  3
txt
  4

  0
STYLE
  5
21C
330
3
100
AcDbSymbolTableRecord
100
AcDbTextStyleTableRecord
  2
TEXTSTYLE_1
 70
     0
 40
0.0
 41
0.8
 50
0.0
 71
     0
 42
0.2
  3
gdt
  4

  0
STYLE
  5
21D
330
3
100
AcDbSymbolTableRecord
100
AcDbTextStyleTableRecord
  2
TEXTSTYLE_2
 70
     0
 40
0.0
 41
0.9
 50
0.0
 71
     0
 42
0.2
  3
txt
  4

  0
STYLE
  5
21E
330
3
100
AcDbSymbolTableRecord
100
AcDbTextStyleTableRecord
  2
TEXTSTYLE_3
 70
     0
 40
0.0
 41
0.9
 50
0.0
 71
     0
 42
0.2
  3
txt
  4

  0
STYLE
  5
21F
330
3
100
AcDbSymbolTableRecord
100
AcDbTextStyleTableRecord
  2
TEXTSTYLE_4
 70
     0
 40
0.0
 41
0.85
 50
0.0
 71
     0
 42
0.2
  3
txt
  4

  0
ENDTAB
  0
TABLE
  2
VIEW
  5
6
330
0
100
AcDbSymbolTable
 70
     0
  0
ENDTAB
  0
TABLE
  2
UCS
  5
7
330
0
100
AcDbSymbolTable
 70
     0
  0
ENDTAB
  0
TABLE
  2
APPID
  5
9
330
0
100
AcDbSymbolTable
 70
     1
  0
APPID
  5
220
330
9
100
AcDbSymbolTableRecord
100
AcDbRegAppTableRecord
  2
ACAD
 70
     0
  0
ENDTAB
  0
TABLE
  2
DIMSTYLE
  5
A
330
0
100
AcDbSymbolTable
 70
     4
  0
DIMSTYLE
105
22A
330
A
100
AcDbSymbolTableRecord
100
AcDbDimStyleTableRecord
  2
STANDARD
 70
     0
  3

  4

  5
CLOSED
  6
CLOSED
  7
CLOSED
 40
1.0
 41
2.5
 42
0.0625
 43
0.38
 44
0.18
 45
0.0
 46
0.0
 47
0.01
 48
0.01
140
3.0
141
0.09
142
0.0
143
25.4
144
1.0
145
0.0
146
1.0
147
0.09
 71
     1
 72
     0
 73
     0
 74
     0
 75
     0
 76
     0
 77
     1
 78
     8
170
     0
171
     2
172
     0
173
     0
174
     0
175
     0
176
     0
177
     0
178
     0
270
     2
271
     2
272
     2
273
     2
274
     2
340
11
275
     0
280
     0
281
     0
282
     0
283
     1
284
     8
285
     0
286
     0
287
     3
288
     0
  0
DIMSTYLE
105
22B
330
A
100
AcDbSymbolTableRecord
100
AcDbDimStyleTableRecord
  2
DIMSTYLE_1
 70
     0
  3

  4

  5
CLOSED
  6
CLOSED
  7
CLOSED
 40
1.0
 41
2.5
 42
0.0625
 43
0.38
 44
0.18
 45
0.0
 46
0.0
 47
0.5
 48
0.5
140
3.0
141
0.09
142
0.0
143
25.4
144
2.5
145
0.0
146
1.0
147
0.09
 71
     0
 72
     0
 73
     0
 74
     0
 75
     0
 76
     0
 77
     1
 78
     8
170
     0
171
     2
172
     0
173
     0
174
     0
175
     0
176
     0
177
     0
178
     0
270
     2
271
     2
272
     2
273
     2
274
     2
340
11
275
     0
280
     0
281
     0
282
     0
283
     1
284
     8
285
     0
286
     0
287
     3
288
     0
  0
DIMSTYLE
105
22C
330
A
100
AcDbSymbolTableRecord
100
AcDbDimStyleTableRecord
  2
DIMSTYLE_2
 70
     0
  3

  4

  5
CLOSED
  6
CLOSED
  7
CLOSED
 40
1.0
 41
2.5
 42
0.0625
 43
0.38
 44
0.18
 45
0.0
 46
0.0
 47
0.3
 48
0.3
140
3.0
141
0.09
142
0.0
143
25.4
144
2.5
145
0.0
146
1.0
147
0.09
 71
     0
 72
     0
 73
     0
 74
     0
 75
     0
 76
     0
 77
     1
 78
     8
170
     0
171
     2
172
     0
173
     0
174
     0
175
     0
176
     0
177
     0
178
     0
270
     2
271
     0
272
     0
273
     2
274
     2
340
11
275
     0
280
     0
281
     0
282
     0
283
     1
284
     8
285
     0
286
     0
287
     3
288
     0
  0
DIMSTYLE
105
22D
330
A
100
AcDbSymbolTableRecord
100
AcDbDimStyleTableRecord
  2
DIMSTYLE_3
 70
     0
  3

  4

  5
CLOSED
  6
CLOSED
  7
CLOSED
 40
1.0
 41
2.5
 42
0.0625
 43
0.38
 44
0.18
 45
0.0
 46
0.0
 47
0.2
 48
0.2
140
3.0
141
0.09
142
0.0
143
25.4
144
2.5
145
0.0
146
1.0
147
0.09
 71
     0
 72
     0
 73
     0
 74
     0
 75
     0
 76
     0
 77
     1
 78
     8
170
     0
171
     2
172
     0
173
     0
174
     0
175
     0
176
     0
177
     0
178
     0
270
     2
271
     2
272
     2
273
     2
274
     2
340
11
275
     0
280
     0
281
     0
282
     0
283
     1
284
     8
285
     0
286
     0
287
     3
288
     0
  0
ENDTAB
  0
TABLE
  2
BLOCK_RECORD
  5
1
330
0
100
AcDbSymbolTable
 70
     7
  0
BLOCK_RECORD
  5
221
330
1
100
AcDbSymbolTableRecord
100
AcDbBlockTableRecord
  2
*MODEL_SPACE
  0
BLOCK_RECORD
  5
222
330
1
100
AcDbSymbolTableRecord
100
AcDbBlockTableRecord
  2
*PAPER_SPACE
  0
BLOCK_RECORD
  5
223
330
1
100
AcDbSymbolTableRecord
100
AcDbBlockTableRecord
  2
_CLOSED
  0
BLOCK_RECORD
  5
224
330
1
100
AcDbSymbolTableRecord
100
AcDbBlockTableRecord
  2
*D1
  0
BLOCK_RECORD
  5
225
330
1
100
AcDbSymbolTableRecord
100
AcDbBlockTableRecord
  2
*D2
  0
BLOCK_RECORD
  5
226
330
1
100
AcDbSymbolTableRecord
100
AcDbBlockTableRecord
  2
*D3
  0
BLOCK_RECORD
  5
227
330
1
100
AcDbSymbolTableRecord
100
AcDbBlockTableRecord
  2
*D4
  0
BLOCK_RECORD
  5
228
330
1
100
AcDbSymbolTableRecord
100
AcDbBlockTableRecord
  2
LOGO2_BL0
  0
BLOCK_RECORD
  5
229
330
1
100
AcDbSymbolTableRecord
100
AcDbBlockTableRecord
  2
*T6
  0
ENDTAB
  0
ENDSEC
  0
SECTION
  2
BLOCKS
  0
BLOCK
  5
20
330
221
100
AcDbEntity
  8
0
100
AcDbBlockBegin
  2
*MODEL_SPACE
 70
     0
 10
0.0
 20
0.0
 30
0.0
  3
*MODEL_SPACE
  1

  0
ENDBLK
  5
21
330
221
100
AcDbEntity
  8
0
100
AcDbBlockEnd
  0
BLOCK
  5
1C
330
222
100
AcDbEntity
 67
     1
  8
0
100
AcDbBlockBegin
  2
*PAPER_SPACE
 70
     0
 10
0.0
 20
0.0
 30
0.0
  3
*PAPER_SPACE
  1

  0
ENDBLK
  5
1D
330
222
100
AcDbEntity
 67
     1
  8
0
100
AcDbBlockEnd
  0
BLOCK
  5
26A
330
223
100
AcDbEntity
  8
0
100
AcDbBlockBegin
  2
_CLOSED
 70
     0
 10
0.0
 20
0.0
 30
0.0
  3
_CLOSED
  1

  0
LINE
  5
26B
330
223
100
AcDbEntity
  8
0
  6
BYBLOCK
 62
     0
100
AcDbLine
 10
0.0
 20
0.0
 30
0.0
 11
-1.0
 21
0.2
 31
0.0
  0
LINE
  5
26C
330
223
100
AcDbEntity
  8
0
  6
BYBLOCK
 62
     0
100
AcDbLine
 10
-1.0
 20
0.2
 30
0.0
 11
-1.0
 21
-0.2
 31
0.0
  0
LINE
  5
26D
330
223
100
AcDbEntity
  8
0
  6
BYBLOCK
 62
     0
100
AcDbLine
 10
-1.0
 20
-0.2
 30
0.0
 11
0.0
 21
0.0
 31
0.0
  0
LINE
  5
26E
330
223
100
AcDbEntity
  8
0
  6
BYBLOCK
 62
     0
100
AcDbLine
 10
-1.0
 20
0.0
 30
0.0
 11
0.0
 21
0.0
 31
0.0
  0
ENDBLK
  5
26F
330
223
100
AcDbEntity
  8
0
  6
BYBLOCK
 62
     0
100
AcDbBlockEnd
  0
BLOCK
  5
270
330
224
100
AcDbEntity
  8
0
100
AcDbBlockBegin
  2
*D1
 70
     1
 10
0.0
 20
0.0
 30
0.0
  3
*D1
  1

  0
LINE
  5
271
330
224
100
AcDbEntity
  8
0
  6
CONTINUOUS
 62
     2
100
AcDbLine
 10
33.1047981054
 20
226.6896959454
 30
0.0
 11
33.1047981054
 21
236.9107826758
 31
0.0
  0
LINE
  5
272
330
224
100
AcDbEntity
  8
0
  6
CONTINUOUS
 62
     2
100
AcDbLine
 10
150.7047981054
 20
227.0038777636
 30
0.0
 11
150.7047981054
 21
236.9107826758
 31
0.0
  0
LINE
  5
273
330
224
100
AcDbEntity
  8
0
  6
CONTINUOUS
 62
     2
100
AcDbLine
 10
33.1047981054
 20
236.1607826758
 30
0.0
 11
91.9047981054
 21
236.1607826758
 31
0.0
  0
LINE
  5
274
330
224
100
AcDbEntity
  8
0
  6
CONTINUOUS
 62
     2
100
AcDbLine
 10
150.7047981054
 20
236.1607826758
 30
0.0
 11
91.9047981054
 21
236.1607826758
 31
0.0
  0
INSERT
  5
275
330
224
100
AcDbEntity
  8
0
  6
CONTINUOUS
 62
     2
100
AcDbBlockReference
  2
_CLOSED
 10
33.1047981054
 20
236.1607826758
 30
0.0
 41
2.5
 42
2.5
 43
2.5
 50
180.0
  0
INSERT
  5
276
330
224
100
AcDbEntity
  8
0
  6
CONTINUOUS
 62
     2
100
AcDbBlockReference
  2
_CLOSED
 10
150.7047981054
 20
236.1607826758
 30
0.0
 41
2.5
 42
2.5
 43
2.5
  0
ENDBLK
  5
277
330
224
100
AcDbEntity
  8
0
  6
BYBLOCK
 62
     0
100
AcDbBlockEnd
  0
BLOCK
  5
278
330
225
100
AcDbEntity
  8
0
100
AcDbBlockBegin
  2
*D2
 70
     1
 10
0.0
 20
0.0
 30
0.0
  3
*D2
  1

  0
LINE
  5
279
330
225
100
AcDbEntity
  8
0
  6
CONTINUOUS
 62
     2
100
AcDbLine
 10
152.6888806167
 20
224.6224592452
 30
0.0
 11
161.688182498
 21
224.6224592452
 31
0.0
  0
LINE
  5
27A
330
225
100
AcDbEntity
  8
0
  6
CONTINUOUS
 62
     2
100
AcDbLine
 10
153.160153344
 20
192.8224592452
 30
0.0
 11
161.688182498
 21
192.8224592452
 31
0.0
  0
LINE
  5
27B
330
225
100
AcDbEntity
  8
0
  6
CONTINUOUS
 62
     2
100
AcDbLine
 10
160.938182498
 20
224.6224592452
 30
0.0
 11
160.938182498
 21
208.7224592452
 31
0.0
  0
LINE
  5
27C
330
225
100
AcDbEntity
  8
0
  6
CONTINUOUS
 62
     2
100
AcDbLine
 10
160.938182498
 20
192.8224592452
 30
0.0
 11
160.938182498
 21
208.7224592452
 31
0.0
  0
INSERT
  5
27D
330
225
100
AcDbEntity
  8
0
  6
CONTINUOUS
 62
     2
100
AcDbBlockReference
  2
_CLOSED
 10
160.938182498
 20
224.6224592452
 30
0.0
 41
2.5
 42
2.5
 43
2.5
 50
90.0
  0
INSERT
  5
27E
330
225
100
AcDbEntity
  8
0
  6
CONTINUOUS
 62
     2
100
AcDbBlockReference
  2
_CLOSED
 10
160.938182498
 20
192.8224592452
 30
0.0
 41
2.5
 42
2.5
 43
2.5
 50
270.0
  0
ENDBLK
  5
27F
330
225
100
AcDbEntity
  8
0
  6
BYBLOCK
 62
     0
100
AcDbBlockEnd
  0
BLOCK
  5
280
330
226
100
AcDbEntity
  8
0
100
AcDbBlockBegin
  2
*D3
 70
     1
 10
0.0
 20
0.0
 30
0.0
  3
*D3
  1

  0
LINE
  5
281
330
226
100
AcDbEntity
  8
0
  6
CONTINUOUS
 62
     2
100
AcDbLine
 10
183.3413559792
 20
226.5129686727
 30
0.0
 11
183.3413559792
 21
236.9107826758
 31
0.0
  0
LINE
  5
282
330
226
100
AcDbEntity
  8
0
  6
CONTINUOUS
 62
     2
100
AcDbLine
 10
194.9413559792
 20
226.5129686727
 30
0.0
 11
194.9413559792
 21
236.9107826758
 31
0.0
  0
LINE
  5
283
330
226
100
AcDbEntity
  8
0
  6
CONTINUOUS
 62
     2
100
AcDbLine
 10
183.3413559792
 20
236.1607826758
 30
0.0
 11
189.1413559792
 21
236.1607826758
 31
0.0
  0
LINE
  5
284
330
226
100
AcDbEntity
  8
0
  6
CONTINUOUS
 62
     2
100
AcDbLine
 10
194.9413559792
 20
236.1607826758
 30
0.0
 11
189.1413559792
 21
236.1607826758
 31
0.0
  0
INSERT
  5
285
330
226
100
AcDbEntity
  8
0
  6
CONTINUOUS
 62
     2
100
AcDbBlockReference
  2
_CLOSED
 10
183.3413559792
 20
236.1607826758
 30
0.0
 41
2.5
 42
2.5
 43
2.5
 50
180.0
  0
INSERT
  5
286
330
226
100
AcDbEntity
  8
0
  6
CONTINUOUS
 62
     2
100
AcDbBlockReference
  2
_CLOSED
 10
194.9413559792
 20
236.1607826758
 30
0.0
 41
2.5
 42
2.5
 43
2.5
  0
ENDBLK
  5
287
330
226
100
AcDbEntity
  8
0
  6
BYBLOCK
 62
     0
100
AcDbBlockEnd
  0
BLOCK
  5
288
330
227
100
AcDbEntity
  8
0
100
AcDbBlockBegin
  2
*D4
 70
     1
 10
0.0
 20
0.0
 30
0.0
  3
*D4
  1

  0
LINE
  5
289
330
227
100
AcDbEntity
  8
0
  6
CONTINUOUS
 62
     2
100
AcDbLine
 10
43.1047981054
 20
87.243412649
 30
0.0
 11
43.1047981054
 21
102.1302414
 31
0.0
  0
LINE
  5
28A
330
227
100
AcDbEntity
  8
0
  6
CONTINUOUS
 62
     2
100
AcDbLine
 10
140.7047981054
 20
86.243412649
 30
0.0
 11
140.7047981054
 21
102.1302414
 31
0.0
  0
LINE
  5
28B
330
227
100
AcDbEntity
  8
0
  6
CONTINUOUS
 62
     2
100
AcDbLine
 10
43.1047981054
 20
101.3802414
 30
0.0
 11
91.9047981054
 21
101.3802414
 31
0.0
  0
LINE
  5
28C
330
227
100
AcDbEntity
  8
0
  6
CONTINUOUS
 62
     2
100
AcDbLine
 10
140.7047981054
 20
101.3802414
 30
0.0
 11
91.9047981054
 21
101.3802414
 31
0.0
  0
INSERT
  5
28D
330
227
100
AcDbEntity
  8
0
  6
CONTINUOUS
 62
     2
100
AcDbBlockReference
  2
_CLOSED
 10
43.1047981054
 20
101.3802414
 30
0.0
 41
2.5
 42
2.5
 43
2.5
 50
180.0
  0
INSERT
  5
28E
330
227
100
AcDbEntity
  8
0
  6
CONTINUOUS
 62
     2
100
AcDbBlockReference
  2
_CLOSED
 10
140.7047981054
 20
101.3802414
 30
0.0
 41
2.5
 42
2.5
 43
2.5
  0
ENDBLK
  5
28F
330
227
100
AcDbEntity
  8
0
  6
BYBLOCK
 62
     0
100
AcDbBlockEnd
  0
BLOCK
  5
22E
330
228
100
AcDbEntity
  8
0
100
AcDbBlockBegin
  2
LOGO2_BL0
 70
     0
 10
333.1473869546
 20
37.5239270671
 30
0.0
  3
LOGO2_BL0
  1

  0
LINE
  5
22F
330
228
100
AcDbEntity
  8
0
  6
CONTINUOUS
 62
     7
100
AcDbLine
 10
324.8903121828
 20
40.7194184059
 30
0.0
 11
323.5859712535
 21
40.7194184059
 31
0.0
  0
LINE
  5
230
330
228
100
AcDbEntity
  8
0
  6
CONTINUOUS
 62
     7
100
AcDbLine
 10
323.5859712535
 20
40.7194184059
 30
0.0
 11
323.5859712535
 21
30.260352346
 31
0.0
  0
LINE
  5
231
330
228
100
AcDbEntity
  8
0
  6
CONTINUOUS
 62
     7
100
AcDbLine
 10
323.5859712535
 20
30.260352346
 30
0.0
 11
328.0670261417
 21
30.260352346
 31
0.0
  0
LINE
  5
232
330
228
100
AcDbEntity
  8
0
  6
CONTINUOUS
 62
     7
100
AcDbLine
 10
328.0670261417
 20
30.260352346
 30
0.0
 11
328.0670261417
 21
31.4532066711
 31
0.0
  0
LINE
  5
233
330
228
100
AcDbEntity
  8
0
  6
CONTINUOUS
 62
     7
100
AcDbLine
 10
328.0670261417
 20
31.4532066711
 30
0.0
 11
324.8903121828
 21
31.4532066711
 31
0.0
  0
LINE
  5
234
330
228
100
AcDbEntity
  8
0
  6
CONTINUOUS
 62
     7
100
AcDbLine
 10
324.8903121828
 20
31.4532066711
 30
0.0
 11
324.8903121828
 21
40.7194184059
 31
0.0
  0
LINE
  5
235
330
228
100
AcDbEntity
  8
0
  6
CONTINUOUS
 62
     7
100
AcDbLine
 10
339.8266383991
 20
40.7194184059
 30
0.0
 11
338.522820881
 21
40.7194184059
 31
0.0
  0
LINE
  5
236
330
228
100
AcDbEntity
  8
0
  6
CONTINUOUS
 62
     7
100
AcDbLine
 10
338.522820881
 20
40.7194184059
 30
0.0
 11
338.522820881
 21
30.260352346
 31
0.0
  0
LINE
  5
237
330
228
100
AcDbEntity
  8
0
  6
CONTINUOUS
 62
     7
100
AcDbLine
 10
338.522820881
 20
30.260352346
 30
0.0
 11
343.0040066221
 21
30.260352346
 31
0.0
  0
LINE
  5
238
330
228
100
AcDbEntity
  8
0
  6
CONTINUOUS
 62
     7
100
AcDbLine
 10
343.0040066221
 20
30.260352346
 30
0.0
 11
343.0040066221
 21
31.4532066711
 31
0.0
  0
LINE
  5
239
330
228
100
AcDbEntity
  8
0
  6
CONTINUOUS
 62
     7
100
AcDbLine
 10
343.0040066221
 20
31.4532066711
 30
0.0
 11
339.8266383991
 21
31.4532066711
 31
0.0
  0
LINE
  5
23A
330
228
100
AcDbEntity
  8
0
  6
CONTINUOUS
 62
     7
100
AcDbLine
 10
339.8266383991
 20
31.4532066711
 30
0.0
 11
339.8266383991
 21
40.7194184059
 31
0.0
  0
LWPOLYLINE
  5
23B
330
228
100
AcDbEntity
  8
0
  6
CONTINUOUS
 62
     7
100
AcDbPolyline
 90
        2
 70
     0
 43
0.2
 10
321.9403661644
 20
26.9168010391
 10
321.9403661644
 20
25.0597377898
  0
LWPOLYLINE
  5
23C
330
228
100
AcDbEntity
  8
0
  6
CONTINUOUS
 62
     7
100
AcDbPolyline
 90
        2
 70
     0
 43
0.2
 10
321.9403661644
 20
25.0597377898
 10
322.7360821748
 20
25.0597377898
  0
LWPOLYLINE
  5
23D
330
228
100
AcDbEntity
  8
0
  6
CONTINUOUS
 62
     7
100
AcDbPolyline
 90
        2
 70
     0
 43
0.2
 10
322.7360821748
 20
25.0597377898
 10
322.7360821748
 20
25.2717193614
  0
LWPOLYLINE
  5
23E
330
228
100
AcDbEntity
  8
0
  6
CONTINUOUS
 62
     7
100
AcDbPolyline
 90
        2
 70
     0
 43
0.2
 10
322.7360821748
 20
25.2717193614
 10
322.1719756593
 20
25.2717193614
  0
LWPOLYLINE
  5
23F
330
228
100
AcDbEntity
  8
0
  6
CONTINUOUS
 62
     7
100
AcDbPolyline
 90
        2
 70
     0
 43
0.2
 10
322.1719756593
 20
25.2717193614
 10
322.1719756593
 20
26.9168010391
  0
LWPOLYLINE
  5
240
330
228
100
AcDbEntity
  8
0
  6
CONTINUOUS
 62
     7
100
AcDbPolyline
 90
        2
 70
     0
 43
0.2
 10
322.1719756593
 20
26.9168010391
 10
321.9403661644
 20
26.9168010391
  0
SPLINE
  5
241
330
228
100
AcDbEntity
  8
0
  6
CONTINUOUS
 62
     7
100
AcDbSpline
 70
     3
 71
     3
 72
    35
 73
    31
 74
     0
 42
0.000000001
 43
0.0000001
 40
0.0
 40
0.0
 40
0.0
 40
0.0
 40
1.0
 40
1.0
 40
1.0
 40
2.0
 40
2.0
 40
2.0
 40
3.0
 40
3.0
 40
3.0
 40
4.0
 40
4.0
 40
4.0
 40
5.0
 40
5.0
 40
5.0
 40
6.0
 40
6.0
 40
6.0
 40
7.0
 40
7.0
 40
7.0
 40
8.0
 40
8.0
 40
8.0
 40
9.0
 40
9.0
 40
9.0
 40
10.0
 40
10.0
 40
10.0
 40
10.0
 10
324.1343754303
 20
26.2122894457
 30
0.0
 10
324.1343754303
 20
26.2122894457
 30
0.0
 10
324.1343754303
 20
25.5501741665
 30
0.0
 10
324.1343754303
 20
25.5501741665
 30
0.0
 10
324.1343754303
 20
25.2350805712
 30
0.0
 10
324.2822391191
 20
25.0204819432
 30
0.0
 10
324.6223256034
 20
25.0204819432
 30
0.0
 10
324.9618886764
 20
25.0204819432
 30
0.0
 10
325.1100140709
 20
25.2350805712
 30
0.0
 10
325.1100140709
 20
25.5501741665
 30
0.0
 10
325.1100140709
 20
25.5501741665
 30
0.0
 10
325.1100140709
 20
26.2122894457
 30
0.0
 10
325.1100140709
 20
26.2122894457
 30
0.0
 10
325.1100140709
 20
26.2122894457
 30
0.0
 10
324.887956832
 20
26.2122894457
 30
0.0
 10
324.887956832
 20
26.2122894457
 30
0.0
 10
324.887956832
 20
26.2122894457
 30
0.0
 10
324.887956832
 20
25.5752979083
 30
0.0
 10
324.887956832
 20
25.5752979083
 30
0.0
 10
324.887956832
 20
25.3894869011
 30
0.0
 10
324.8412423746
 20
25.2267059906
 30
0.0
 10
324.6223256034
 20
25.2267059906
 30
0.0
 10
324.402885421
 20
25.2267059906
 30
0.0
 10
324.3561709636
 20
25.3894869011
 30
0.0
 10
324.3561709636
 20
25.5752979083
 30
0.0
 10
324.3561709636
 20
25.5752979083
 30
0.0
 10
324.3561709636
 20
26.2122894457
 30
0.0
 10
324.3561709636
 20
26.2122894457
 30
0.0
 10
324.3561709636
 20
26.2122894457
 30
0.0
 10
324.1343754303
 20
26.2122894457
 30
0.0
 10
324.1343754303
 20
26.2122894457
 30
0.0
  0
SPLINE
  5
242
330
228
100
AcDbEntity
  8
0
  6
CONTINUOUS
 62
     7
100
AcDbSpline
 70
     3
 71
     3
 72
    35
 73
    31
 74
     0
 42
0.000000001
 43
0.0000001
 40
0.0
 40
0.0
 40
0.0
 40
0.0
 40
1.0
 40
1.0
 40
1.0
 40
2.0
 40
2.0
 40
2.0
 40
3.0
 40
3.0
 40
3.0
 40
4.0
 40
4.0
 40
4.0
 40
5.0
 40
5.0
 40
5.0
 40
6.0
 40
6.0
 40
6.0
 40
7.0
 40
7.0
 40
7.0
 40
8.0
 40
8.0
 40
8.0
 40
9.0
 40
9.0
 40
9.0
 40
10.0
 40
10.0
 40
10.0
 40
10.0
 10
327.5331466281
 20
26.1709399539
 30
0.0
 10
327.4446901205
 20
26.2222342601
 30
0.0
 10
327.3312407238
 20
26.2473580019
 30
0.0
 10
327.2276052888
 20
26.2473580019
 30
0.0
 10
326.8727324356
 20
26.2473580019
 30
0.0
 10
326.5972872454
 20
25.9835587129
 30
0.0
 10
326.5972872454
 20
25.6260688032
 30
0.0
 10
326.5972872454
 20
25.2811407645
 30
0.0
 10
326.8757420505
 20
25.0210053545
 30
0.0
 10
327.2153051235
 20
25.0210053545
 30
0.0
 10
327.3312407238
 20
25.0210053545
 30
0.0
 10
327.4319973967
 20
25.0429886286
 30
0.0
 10
327.5331466281
 20
25.0968999912
 30
0.0
 10
327.5331466281
 20
25.0968999912
 30
0.0
 10
327.5331466281
 20
25.3795420867
 30
0.0
 10
327.5331466281
 20
25.3795420867
 30
0.0
 10
327.4492699692
 20
25.2863748774
 30
0.0
 10
327.345765387
 20
25.2272294019
 30
0.0
 10
327.2176604743
 20
25.2272294019
 30
0.0
 10
326.9839573343
 20
25.2272294019
 30
0.0
 10
326.8186902202
 20
25.3994317156
 30
0.0
 10
326.8186902202
 20
25.6360136177
 30
0.0
 10
326.8186902202
 20
25.8479951893
 30
0.0
 10
326.9864435379
 20
26.040087132
 30
0.0
 10
327.2032666639
 20
26.040087132
 30
0.0
 10
327.3360822782
 20
26.040087132
 30
0.0
 10
327.4446901205
 20
25.9861757693
 30
0.0
 10
327.5331466281
 20
25.8851573907
 30
0.0
 10
327.5331466281
 20
25.8851573907
 30
0.0
 10
327.5331466281
 20
26.1709399539
 30
0.0
 10
327.5331466281
 20
26.1709399539
 30
0.0
  0
SPLINE
  5
243
330
228
100
AcDbEntity
  8
0
  6
CONTINUOUS
 62
     7
100
AcDbSpline
 70
     3
 71
     3
 72
    32
 73
    28
 74
     0
 42
0.000000001
 43
0.0000001
 40
0.0
 40
0.0
 40
0.0
 40
0.0
 40
1.0
 40
1.0
 40
1.0
 40
2.0
 40
2.0
 40
2.0
 40
3.0
 40
3.0
 40
3.0
 40
4.0
 40
4.0
 40
4.0
 40
5.0
 40
5.0
 40
5.0
 40
6.0
 40
6.0
 40
6.0
 40
7.0
 40
7.0
 40
7.0
 40
8.0
 40
8.0
 40
8.0
 40
9.0
 40
9.0
 40
9.0
 40
9.0
 10
330.0650178804
 20
25.5993748276
 30
0.0
 10
330.0650178804
 20
25.5993748276
 30
0.0
 10
330.0650178804
 20
25.6333965613
 30
0.0
 10
330.0650178804
 20
25.6333965613
 30
0.0
 10
330.0650178804
 20
25.9757075435
 30
0.0
 10
329.8921613025
 20
26.2473580019
 30
0.0
 10
329.5255116954
 20
26.2473580019
 30
0.0
 10
329.153889681
 20
26.2473580019
 30
0.0
 10
328.9641530891
 20
25.9809416564
 30
0.0
 10
328.9641530891
 20
25.6260688032
 30
0.0
 10
328.9641530891
 20
25.2863748774
 30
0.0
 10
329.1782283059
 20
25.0204819432
 30
0.0
 10
329.5303532498
 20
25.0204819432
 30
0.0
 10
329.754373281
 20
25.0204819432
 30
0.0
 10
329.9565408909
 20
25.1361558378
 30
0.0
 10
330.0650178804
 20
25.3355755385
 30
0.0
 10
330.0650178804
 20
25.3355755385
 30
0.0
 10
329.8773749337
 20
25.4423514412
 30
0.0
 10
329.8773749337
 20
25.4423514412
 30
0.0
 10
329.7938908332
 20
25.3036474499
 30
0.0
 10
329.7026864163
 20
25.2178079987
 30
0.0
 10
329.5331011591
 20
25.2178079987
 30
0.0
 10
329.3211195875
 20
25.2178079987
 30
0.0
 10
329.1881731204
 20
25.4025721833
 30
0.0
 10
329.1858177696
 20
25.5993748276
 30
0.0
 10
329.1858177696
 20
25.5993748276
 30
0.0
 10
330.0650178804
 20
25.5993748276
 30
0.0
 10
330.0650178804
 20
25.5993748276
 30
0.0
  0
SPLINE
  5
244
330
228
100
AcDbEntity
  8
0
  6
CONTINUOUS
 62
     7
100
AcDbSpline
 70
     3
 71
     3
 72
    14
 73
    10
 74
     0
 42
0.000000001
 43
0.0000001
 40
0.0
 40
0.0
 40
0.0
 40
0.0
 40
1.0
 40
1.0
 40
1.0
 40
2.0
 40
2.0
 40
2.0
 40
3.0
 40
3.0
 40
3.0
 40
3.0
 10
329.1978562292
 20
25.7668664397
 30
0.0
 10
329.2254661746
 20
25.9317409954
 30
0.0
 10
329.3533093817
 20
26.054742648
 30
0.0
 10
329.5255116954
 20
26.054742648
 30
0.0
 10
329.7026864163
 20
26.054742648
 30
0.0
 10
329.816135813
 20
25.9390687534
 30
0.0
 10
329.8433531999
 20
25.7668664397
 30
0.0
 10
329.8433531999
 20
25.7668664397
 30
0.0
 10
329.1978562292
 20
25.7668664397
 30
0.0
 10
329.1978562292
 20
25.7668664397
 30
0.0
  0
SPLINE
  5
245
330
228
100
AcDbEntity
  8
0
  6
CONTINUOUS
 62
     7
100
AcDbSpline
 70
     3
 71
     3
 72
    20
 73
    16
 74
     0
 42
0.000000001
 43
0.0000001
 40
0.0
 40
0.0
 40
0.0
 40
0.0
 40
1.0
 40
1.0
 40
1.0
 40
2.0
 40
2.0
 40
2.0
 40
3.0
 40
3.0
 40
3.0
 40
4.0
 40
4.0
 40
4.0
 40
5.0
 40
5.0
 40
5.0
 40
5.0
 10
332.0890493306
 20
25.9762309548
 30
0.0
 10
332.0890493306
 20
25.9762309548
 30
0.0
 10
332.5001888972
 20
25.4737561185
 30
0.0
 10
332.5001888972
 20
25.4737561185
 30
0.0
 10
332.3841224441
 20
25.3580822239
 30
0.0
 10
332.2463344226
 20
25.2277528132
 30
0.0
 10
332.0743938145
 20
25.2277528132
 30
0.0
 10
331.8969573879
 20
25.2277528132
 30
0.0
 10
331.7294657758
 20
25.3921039576
 30
0.0
 10
331.7294657758
 20
25.5690169729
 30
0.0
 10
331.7294657758
 20
25.7469768107
 30
0.0
 10
331.9392228494
 20
25.8731189311
 30
0.0
 10
332.0668043508
 20
25.9610520275
 30
0.0
 10
332.0668043508
 20
25.9610520275
 30
0.0
 10
332.0890493306
 20
25.9762309548
 30
0.0
 10
332.0890493306
 20
25.9762309548
 30
0.0
  0
SPLINE
  5
246
330
228
100
AcDbEntity
  8
0
  6
CONTINUOUS
 62
     7
100
AcDbSpline
 70
     3
 71
     3
 72
    23
 73
    19
 74
     0
 42
0.000000001
 43
0.0000001
 40
0.0
 40
0.0
 40
0.0
 40
0.0
 40
1.0
 40
1.0
 40
1.0
 40
2.0
 40
2.0
 40
2.0
 40
3.0
 40
3.0
 40
3.0
 40
4.0
 40
4.0
 40
4.0
 40
5.0
 40
5.0
 40
5.0
 40
6.0
 40
6.0
 40
6.0
 40
6.0
 10
332.1383808444
 20
26.2672476309
 30
0.0
 10
332.1383808444
 20
26.2672476309
 30
0.0
 10
332.0767491653
 20
26.3457593241
 30
0.0
 10
332.0767491653
 20
26.3457593241
 30
0.0
 10
332.0228378026
 20
26.4143262028
 30
0.0
 10
331.9660476779
 20
26.4834164928
 30
0.0
 10
331.9660476779
 20
26.5771071133
 30
0.0
 10
331.9660476779
 20
26.6959214757
 30
0.0
 10
332.0619627964
 20
26.7733863463
 30
0.0
 10
332.1729259894
 20
26.7733863463
 30
0.0
 10
332.2961893477
 20
26.7733863463
 30
0.0
 10
332.3894874098
 20
26.7022024111
 30
0.0
 10
332.3894874098
 20
26.5718730004
 30
0.0
 10
332.3894874098
 20
26.4368328882
 30
0.0
 10
332.2613824971
 20
26.3604148401
 30
0.0
 10
332.1678227294
 20
26.2866138485
 30
0.0
 10
332.1678227294
 20
26.2866138485
 30
0.0
 10
332.1383808444
 20
26.2672476309
 30
0.0
 10
332.1383808444
 20
26.2672476309
 30
0.0
  0
SPLINE
  5
247
330
228
100
AcDbEntity
  8
0
  6
CONTINUOUS
 62
     7
100
AcDbSpline
 70
     3
 71
     3
 72
    50
 73
    46
 74
     0
 42
0.000000001
 43
0.0000001
 40
0.0
 40
0.0
 40
0.0
 40
0.0
 40
1.0
 40
1.0
 40
1.0
 40
2.0
 40
2.0
 40
2.0
 40
3.0
 40
3.0
 40
3.0
 40
4.0
 40
4.0
 40
4.0
 40
5.0
 40
5.0
 40
5.0
 40
6.0
 40
6.0
 40
6.0
 40
7.0
 40
7.0
 40
7.0
 40
8.0
 40
8.0
 40
8.0
 40
9.0
 40
9.0
 40
9.0
 40
10.0
 40
10.0
 40
10.0
 40
11.0
 40
11.0
 40
11.0
 40
12.0
 40
12.0
 40
12.0
 40
13.0
 40
13.0
 40
13.0
 40
14.0
 40
14.0
 40
14.0
 40
15.0
 40
15.0
 40
15.0
 40
15.0
 10
332.8405370871
 20
25.0602612011
 30
0.0
 10
332.8405370871
 20
25.0602612011
 30
0.0
 10
333.1259270918
 20
25.0602612011
 30
0.0
 10
333.1259270918
 20
25.0602612011
 30
0.0
 10
333.1259270918
 20
25.0602612011
 30
0.0
 10
332.793560924
 20
25.471139062
 30
0.0
 10
332.793560924
 20
25.471139062
 30
0.0
 10
332.793560924
 20
25.471139062
 30
0.0
 10
333.0200671588
 20
25.7370319963
 30
0.0
 10
333.0200671588
 20
25.7370319963
 30
0.0
 10
333.0200671588
 20
25.7370319963
 30
0.0
 10
332.8718109116
 20
25.8898680923
 30
0.0
 10
332.8718109116
 20
25.8898680923
 30
0.0
 10
332.8718109116
 20
25.8898680923
 30
0.0
 10
332.6559037553
 20
25.6386306742
 30
0.0
 10
332.6559037553
 20
25.6386306742
 30
0.0
 10
332.6559037553
 20
25.6386306742
 30
0.0
 10
332.2688411079
 20
26.1065603655
 30
0.0
 10
332.2688411079
 20
26.1065603655
 30
0.0
 10
332.4242942604
 20
26.2206640263
 30
0.0
 10
332.6065722414
 20
26.3604148401
 30
0.0
 10
332.6065722414
 20
26.5697793553
 30
0.0
 10
332.6065722414
 20
26.8136890154
 30
0.0
 10
332.4045354843
 20
26.9571037083
 30
0.0
 10
332.1780292495
 20
26.9571037083
 30
0.0
 10
331.9338578837
 20
26.9571037083
 30
0.0
 10
331.7494862575
 20
26.8063612574
 30
0.0
 10
331.7494862575
 20
26.5498897263
 30
0.0
 10
331.7494862575
 20
26.3923429287
 30
0.0
 10
331.8481492853
 20
26.25468576
 30
0.0
 10
331.953485807
 20
26.1437225669
 30
0.0
 10
331.953485807
 20
26.1437225669
 30
0.0
 10
331.8379427652
 20
26.0599767609
 30
0.0
 10
331.8379427652
 20
26.0599767609
 30
0.0
 10
331.660244633
 20
25.9317409954
 30
0.0
 10
331.5129043554
 20
25.8040286411
 30
0.0
 10
331.5129043554
 20
25.5669233277
 30
0.0
 10
331.5129043554
 20
25.2465956195
 30
0.0
 10
331.7714695316
 20
25.0204819432
 30
0.0
 10
332.0818524253
 20
25.0204819432
 30
0.0
 10
332.3007691965
 20
25.0204819432
 30
0.0
 10
332.4979643992
 20
25.145577241
 30
0.0
 10
332.6382386243
 20
25.3114986192
 30
0.0
 10
332.6382386243
 20
25.3114986192
 30
0.0
 10
332.8405370871
 20
25.0602612011
 30
0.0
 10
332.8405370871
 20
25.0602612011
 30
0.0
  0
LWPOLYLINE
  5
248
330
228
100
AcDbEntity
  8
0
  6
CONTINUOUS
 62
     7
100
AcDbPolyline
 90
        2
 70
     0
 43
0.2
 10
334.7759811768
 20
26.9168010391
 10
334.5446333876
 20
26.9168010391
  0
LWPOLYLINE
  5
249
330
228
100
AcDbEntity
  8
0
  6
CONTINUOUS
 62
     7
100
AcDbPolyline
 90
        2
 70
     0
 43
0.2
 10
334.5446333876
 20
26.9168010391
 10
334.5446333876
 20
25.0597377898
  0
LWPOLYLINE
  5
24A
330
228
100
AcDbEntity
  8
0
  6
CONTINUOUS
 62
     7
100
AcDbPolyline
 90
        2
 70
     0
 43
0.2
 10
334.5446333876
 20
25.0597377898
 10
335.3399568395
 20
25.0597377898
  0
LWPOLYLINE
  5
24B
330
228
100
AcDbEntity
  8
0
  6
CONTINUOUS
 62
     7
100
AcDbPolyline
 90
        2
 70
     0
 43
0.2
 10
335.3399568395
 20
25.0597377898
 10
335.3399568395
 20
25.2717193614
  0
LWPOLYLINE
  5
24C
330
228
100
AcDbEntity
  8
0
  6
CONTINUOUS
 62
     7
100
AcDbPolyline
 90
        2
 70
     0
 43
0.2
 10
335.3399568395
 20
25.2717193614
 10
334.7759811768
 20
25.2717193614
  0
LWPOLYLINE
  5
24D
330
228
100
AcDbEntity
  8
0
  6
CONTINUOUS
 62
     7
100
AcDbPolyline
 90
        2
 70
     0
 43
0.2
 10
334.7759811768
 20
25.2717193614
 10
334.7759811768
 20
26.9168010391
  0
LWPOLYLINE
  5
24E
330
228
100
AcDbEntity
  8
0
  6
CONTINUOUS
 62
     7
100
AcDbPolyline
 90
        2
 70
     0
 43
0.2
 10
337.019060251
 20
26.2122894457
 10
336.7979189819
 20
26.2122894457
  0
LWPOLYLINE
  5
24F
330
228
100
AcDbEntity
  8
0
  6
CONTINUOUS
 62
     7
100
AcDbPolyline
 90
        2
 70
     0
 43
0.2
 10
336.7979189819
 20
26.2122894457
 10
336.7979189819
 20
25.0602612011
  0
LWPOLYLINE
  5
250
330
228
100
AcDbEntity
  8
0
  6
CONTINUOUS
 62
     7
100
AcDbPolyline
 90
        2
 70
     0
 43
0.2
 10
336.7979189819
 20
25.0602612011
 10
337.019060251
 20
25.0602612011
  0
LWPOLYLINE
  5
251
330
228
100
AcDbEntity
  8
0
  6
CONTINUOUS
 62
     7
100
AcDbPolyline
 90
        2
 70
     0
 43
0.2
 10
337.019060251
 20
25.0602612011
 10
337.019060251
 20
26.2122894457
  0
SPLINE
  5
252
330
228
100
AcDbEntity
  8
0
  6
CONTINUOUS
 62
     7
100
AcDbSpline
 70
     3
 71
     3
 72
    17
 73
    13
 74
     0
 42
0.000000001
 43
0.0000001
 40
0.0
 40
0.0
 40
0.0
 40
0.0
 40
1.0
 40
1.0
 40
1.0
 40
2.0
 40
2.0
 40
2.0
 40
3.0
 40
3.0
 40
3.0
 40
4.0
 40
4.0
 40
4.0
 40
4.0
 10
336.9086204693
 20
26.894817765
 30
0.0
 10
336.8246129576
 20
26.894817765
 30
0.0
 10
336.7560460788
 20
26.825727475
 30
0.0
 10
336.7560460788
 20
26.7398880238
 30
0.0
 10
336.7560460788
 20
26.6556188065
 30
0.0
 10
336.8246129576
 20
26.5896689842
 30
0.0
 10
336.9086204693
 20
26.5896689842
 30
0.0
 10
336.9923662753
 20
26.5896689842
 30
0.0
 10
337.0611948597
 20
26.6556188065
 30
0.0
 10
337.0611948597
 20
26.7398880238
 30
0.0
 10
337.0611948597
 20
26.825727475
 30
0.0
 10
336.9923662753
 20
26.894817765
 30
0.0
 10
336.9086204693
 20
26.894817765
 30
0.0
  0
SPLINE
  5
253
330
228
100
AcDbEntity
  8
0
  6
CONTINUOUS
 62
     7
100
AcDbSpline
 70
     3
 71
     3
 72
    17
 73
    13
 74
     0
 42
0.000000001
 43
0.0000001
 40
0.0
 40
0.0
 40
0.0
 40
0.0
 40
1.0
 40
1.0
 40
1.0
 40
2.0
 40
2.0
 40
2.0
 40
3.0
 40
3.0
 40
3.0
 40
4.0
 40
4.0
 40
4.0
 40
4.0
 10
339.1493441926
 20
25.2178079987
 30
0.0
 10
338.915379347
 20
25.2178079987
 30
0.0
 10
338.7850499363
 20
25.4198447558
 30
0.0
 10
338.7850499363
 20
25.6360136177
 30
0.0
 10
338.7850499363
 20
25.8506122457
 30
0.0
 10
338.9208751655
 20
26.0495085351
 30
0.0
 10
339.1493441926
 20
26.0495085351
 30
0.0
 10
339.3888048568
 20
26.0495085351
 30
0.0
 10
339.5243683804
 20
25.8605570602
 30
0.0
 10
339.5243683804
 20
25.6360136177
 30
0.0
 10
339.5243683804
 20
25.4098999414
 30
0.0
 10
339.3911602076
 20
25.2178079987
 30
0.0
 10
339.1493441926
 20
25.2178079987
 30
0.0
  0
SPLINE
  5
254
330
228
100
AcDbEntity
  8
0
  6
CONTINUOUS
 62
     7
100
AcDbSpline
 70
     3
 71
     3
 72
    50
 73
    46
 74
     0
 42
0.000000001
 43
0.0000001
 40
0.0
 40
0.0
 40
0.0
 40
0.0
 40
1.0
 40
1.0
 40
1.0
 40
2.0
 40
2.0
 40
2.0
 40
3.0
 40
3.0
 40
3.0
 40
4.0
 40
4.0
 40
4.0
 40
5.0
 40
5.0
 40
5.0
 40
6.0
 40
6.0
 40
6.0
 40
7.0
 40
7.0
 40
7.0
 40
8.0
 40
8.0
 40
8.0
 40
9.0
 40
9.0
 40
9.0
 40
10.0
 40
10.0
 40
10.0
 40
11.0
 40
11.0
 40
11.0
 40
12.0
 40
12.0
 40
12.0
 40
13.0
 40
13.0
 40
13.0
 40
14.0
 40
14.0
 40
14.0
 40
15.0
 40
15.0
 40
15.0
 40
15.0
 10
339.7334711899
 20
26.2128128569
 30
0.0
 10
339.7334711899
 20
26.2128128569
 30
0.0
 10
339.5118065095
 20
26.2128128569
 30
0.0
 10
339.5118065095
 20
26.2128128569
 30
0.0
 10
339.5118065095
 20
26.2128128569
 30
0.0
 10
339.5118065095
 20
26.0154868014
 30
0.0
 10
339.5118065095
 20
26.0154868014
 30
0.0
 10
339.5118065095
 20
26.0154868014
 30
0.0
 10
339.5070958079
 20
26.0154868014
 30
0.0
 10
339.5070958079
 20
26.0154868014
 30
0.0
 10
339.4157605382
 20
26.158378083
 30
0.0
 10
339.2778416638
 20
26.2468345907
 30
0.0
 10
339.1051159388
 20
26.2468345907
 30
0.0
 10
338.772749771
 20
26.2468345907
 30
0.0
 10
338.5636469615
 20
25.9589583823
 30
0.0
 10
338.5636469615
 20
25.6433413757
 30
0.0
 10
338.5636469615
 20
25.3135922644
 30
0.0
 10
338.7607113114
 20
25.0204819432
 30
0.0
 10
339.1155841646
 20
25.0204819432
 30
0.0
 10
339.2778416638
 20
25.0204819432
 30
0.0
 10
339.4178541833
 20
25.1089384508
 30
0.0
 10
339.5070958079
 20
25.2397912728
 30
0.0
 10
339.5070958079
 20
25.2397912728
 30
0.0
 10
339.5118065095
 20
25.2397912728
 30
0.0
 10
339.5118065095
 20
25.2397912728
 30
0.0
 10
339.5118065095
 20
25.2397912728
 30
0.0
 10
339.5118065095
 20
25.0204819432
 30
0.0
 10
339.5118065095
 20
25.0204819432
 30
0.0
 10
339.5118065095
 20
24.7839000411
 30
0.0
 10
339.4552780904
 20
24.5970422113
 30
0.0
 10
339.1820573981
 20
24.5970422113
 30
0.0
 10
338.9797589354
 20
24.5970422113
 30
0.0
 10
338.8371293594
 20
24.7153331624
 30
0.0
 10
338.8371293594
 20
24.9215572098
 30
0.0
 10
338.8371293594
 20
24.9215572098
 30
0.0
 10
338.615464679
 20
24.9215572098
 30
0.0
 10
338.615464679
 20
24.9215572098
 30
0.0
 10
338.6204370862
 20
24.5970422113
 30
0.0
 10
338.8515231698
 20
24.4002395671
 30
0.0
 10
339.171850878
 20
24.4002395671
 30
0.0
 10
339.6198909404
 20
24.4002395671
 30
0.0
 10
339.7334711899
 20
24.6854987189
 30
0.0
 10
339.7334711899
 20
25.0822444751
 30
0.0
 10
339.7334711899
 20
25.0822444751
 30
0.0
 10
339.7334711899
 20
26.2128128569
 30
0.0
 10
339.7334711899
 20
26.2128128569
 30
0.0
  0
SPLINE
  5
255
330
228
100
AcDbEntity
  8
0
  6
CONTINUOUS
 62
     7
100
AcDbSpline
 70
     3
 71
     3
 72
    44
 73
    40
 74
     0
 42
0.000000001
 43
0.0000001
 40
0.0
 40
0.0
 40
0.0
 40
0.0
 40
1.0
 40
1.0
 40
1.0
 40
2.0
 40
2.0
 40
2.0
 40
3.0
 40
3.0
 40
3.0
 40
4.0
 40
4.0
 40
4.0
 40
5.0
 40
5.0
 40
5.0
 40
6.0
 40
6.0
 40
6.0
 40
7.0
 40
7.0
 40
7.0
 40
8.0
 40
8.0
 40
8.0
 40
9.0
 40
9.0
 40
9.0
 40
10.0
 40
10.0
 40
10.0
 40
11.0
 40
11.0
 40
11.0
 40
12.0
 40
12.0
 40
12.0
 40
13.0
 40
13.0
 40
13.0
 40
13.0
 10
341.3023965253
 20
27.1978729007
 30
0.0
 10
341.3023965253
 20
27.1978729007
 30
0.0
 10
341.3023965253
 20
25.0597377898
 30
0.0
 10
341.3023965253
 20
25.0597377898
 30
0.0
 10
341.3023965253
 20
25.0597377898
 30
0.0
 10
341.5237995001
 20
25.0597377898
 30
0.0
 10
341.5237995001
 20
25.0597377898
 30
0.0
 10
341.5237995001
 20
25.0597377898
 30
0.0
 10
341.5237995001
 20
25.5894300131
 30
0.0
 10
341.5237995001
 20
25.5894300131
 30
0.0
 10
341.5237995001
 20
25.7993179395
 30
0.0
 10
341.5237995001
 20
26.0500319464
 30
0.0
 10
341.8090586519
 20
26.0500319464
 30
0.0
 10
342.0359574452
 20
26.0500319464
 30
0.0
 10
342.0629131266
 20
25.9170854793
 30
0.0
 10
342.0629131266
 20
25.7208062464
 30
0.0
 10
342.0629131266
 20
25.7208062464
 30
0.0
 10
342.0629131266
 20
25.0597377898
 30
0.0
 10
342.0629131266
 20
25.0597377898
 30
0.0
 10
342.0629131266
 20
25.0597377898
 30
0.0
 10
342.2848395126
 20
25.0597377898
 30
0.0
 10
342.2848395126
 20
25.0597377898
 30
0.0
 10
342.2848395126
 20
25.0597377898
 30
0.0
 10
342.2848395126
 20
25.7469768107
 30
0.0
 10
342.2848395126
 20
25.7469768107
 30
0.0
 10
342.2848395126
 20
26.027525261
 30
0.0
 10
342.2008320009
 20
26.2473580019
 30
0.0
 10
341.8757935911
 20
26.2473580019
 30
0.0
 10
341.7360427773
 20
26.2473580019
 30
0.0
 10
341.5978621973
 20
26.1808847684
 30
0.0
 10
341.5285102016
 20
26.0578831157
 30
0.0
 10
341.5285102016
 20
26.0578831157
 30
0.0
 10
341.5237995001
 20
26.0578831157
 30
0.0
 10
341.5237995001
 20
26.0578831157
 30
0.0
 10
341.5237995001
 20
26.0578831157
 30
0.0
 10
341.5237995001
 20
27.1978729007
 30
0.0
 10
341.5237995001
 20
27.1978729007
 30
0.0
 10
341.5237995001
 20
27.1978729007
 30
0.0
 10
341.3023965253
 20
27.1978729007
 30
0.0
 10
341.3023965253
 20
27.1978729007
 30
0.0
  0
LWPOLYLINE
  5
256
330
228
100
AcDbEntity
  8
0
  6
CONTINUOUS
 62
     7
100
AcDbPolyline
 90
        2
 70
     0
 43
0.2
 10
344.1246301895
 20
26.005541987
 10
344.341060757
 20
26.005541987
  0
LWPOLYLINE
  5
257
330
228
100
AcDbEntity
  8
0
  6
CONTINUOUS
 62
     7
100
AcDbPolyline
 90
        2
 70
     0
 43
0.2
 10
344.341060757
 20
26.005541987
 10
344.341060757
 20
26.2122894457
  0
LWPOLYLINE
  5
258
330
228
100
AcDbEntity
  8
0
  6
CONTINUOUS
 62
     7
100
AcDbPolyline
 90
        2
 70
     0
 43
0.2
 10
344.341060757
 20
26.2122894457
 10
344.1246301895
 20
26.2122894457
  0
LWPOLYLINE
  5
259
330
228
100
AcDbEntity
  8
0
  6
CONTINUOUS
 62
     7
100
AcDbPolyline
 90
        2
 70
     0
 43
0.2
 10
344.1246301895
 20
26.2122894457
 10
344.1246301895
 20
26.65300175
  0
LWPOLYLINE
  5
25A
330
228
100
AcDbEntity
  8
0
  6
CONTINUOUS
 62
     7
100
AcDbPolyline
 90
        2
 70
     0
 43
0.2
 10
344.1246301895
 20
26.65300175
 10
343.9029655091
 20
26.65300175
  0
LWPOLYLINE
  5
25B
330
228
100
AcDbEntity
  8
0
  6
CONTINUOUS
 62
     7
100
AcDbPolyline
 90
        2
 70
     0
 43
0.2
 10
343.9029655091
 20
26.65300175
 10
343.9029655091
 20
26.2122894457
  0
LWPOLYLINE
  5
25C
330
228
100
AcDbEntity
  8
0
  6
CONTINUOUS
 62
     7
100
AcDbPolyline
 90
        2
 70
     0
 43
0.2
 10
343.9029655091
 20
26.2122894457
 10
343.7823192072
 20
26.2122894457
  0
LWPOLYLINE
  5
25D
330
228
100
AcDbEntity
  8
0
  6
CONTINUOUS
 62
     7
100
AcDbPolyline
 90
        2
 70
     0
 43
0.2
 10
343.7823192072
 20
26.2122894457
 10
343.7823192072
 20
26.005541987
  0
LWPOLYLINE
  5
25E
330
228
100
AcDbEntity
  8
0
  6
CONTINUOUS
 62
     7
100
AcDbPolyline
 90
        2
 70
     0
 43
0.2
 10
343.7823192072
 20
26.005541987
 10
343.9029655091
 20
26.005541987
  0
LWPOLYLINE
  5
25F
330
228
100
AcDbEntity
  8
0
  6
CONTINUOUS
 62
     7
100
AcDbPolyline
 90
        2
 70
     0
 43
0.2
 10
343.9029655091
 20
26.005541987
 10
343.9029655091
 20
25.0597377898
  0
LWPOLYLINE
  5
260
330
228
100
AcDbEntity
  8
0
  6
CONTINUOUS
 62
     7
100
AcDbPolyline
 90
        2
 70
     0
 43
0.2
 10
343.9029655091
 20
25.0597377898
 10
344.1246301895
 20
25.0597377898
  0
LWPOLYLINE
  5
261
330
228
100
AcDbEntity
  8
0
  6
CONTINUOUS
 62
     7
100
AcDbPolyline
 90
        2
 70
     0
 43
0.2
 10
344.1246301895
 20
25.0597377898
 10
344.1246301895
 20
26.005541987
  0
SPLINE
  5
262
330
228
100
AcDbEntity
  8
0
  6
CONTINUOUS
 62
     7
100
AcDbSpline
 70
     3
 71
     3
 72
    20
 73
    16
 74
     0
 42
0.000000001
 43
0.0000001
 40
0.0
 40
0.0
 40
0.0
 40
0.0
 40
1.0
 40
1.0
 40
1.0
 40
2.0
 40
2.0
 40
2.0
 40
3.0
 40
3.0
 40
3.0
 40
4.0
 40
4.0
 40
4.0
 40
5.0
 40
5.0
 40
5.0
 40
5.0
 10
331.9066404967
 20
35.4206642332
 30
0.0
 10
331.9066404967
 20
35.4206642332
 30
0.0
 10
334.2229971512
 20
32.5911028109
 30
0.0
 10
334.2229971512
 20
32.5911028109
 30
0.0
 10
333.5713500978
 20
31.9389323462
 30
0.0
 10
332.7944768938
 20
31.2030160755
 30
0.0
 10
331.8232872491
 20
31.2030160755
 30
0.0
 10
330.8247493647
 20
31.2030160755
 30
0.0
 10
329.8814313711
 20
32.1325945228
 30
0.0
 10
329.8814313711
 20
33.1317866713
 30
0.0
 10
329.8814313711
 20
34.1309788198
 30
0.0
 10
331.0602844442
 20
34.8375840585
 30
0.0
 10
331.7818069046
 20
35.3374418384
 30
0.0
 10
331.7818069046
 20
35.3374418384
 30
0.0
 10
331.9066404967
 20
35.4206642332
 30
0.0
 10
331.9066404967
 20
35.4206642332
 30
0.0
  0
SPLINE
  5
263
330
228
100
AcDbEntity
  8
0
  6
CONTINUOUS
 62
     7
100
AcDbSpline
 70
     3
 71
     3
 72
    23
 73
    19
 74
     0
 42
0.000000001
 43
0.0000001
 40
0.0
 40
0.0
 40
0.0
 40
0.0
 40
1.0
 40
1.0
 40
1.0
 40
2.0
 40
2.0
 40
2.0
 40
3.0
 40
3.0
 40
3.0
 40
4.0
 40
4.0
 40
4.0
 40
5.0
 40
5.0
 40
5.0
 40
6.0
 40
6.0
 40
6.0
 40
6.0
 10
332.1840484793
 20
37.0584181529
 30
0.0
 10
332.1840484793
 20
37.0584181529
 30
0.0
 10
331.8375502067
 20
37.5017475137
 30
0.0
 10
331.8375502067
 20
37.5017475137
 30
0.0
 10
331.5317471618
 20
37.8898569837
 30
0.0
 10
331.2128588347
 20
38.2783590121
 30
0.0
 10
331.2128588347
 20
38.8053033262
 30
0.0
 10
331.2128588347
 20
39.4714750428
 30
0.0
 10
331.7541969591
 20
39.9151969621
 30
0.0
 10
332.3781032143
 20
39.9151969621
 30
0.0
 10
333.0718848763
 20
39.9151969621
 30
0.0
 10
333.5990908961
 20
39.5129553874
 30
0.0
 10
333.5990908961
 20
38.7779550864
 30
0.0
 10
333.5990908961
 20
38.0146905758
 30
0.0
 10
332.8778301414
 20
37.58457735
 30
0.0
 10
332.3507549745
 20
37.1688579346
 30
0.0
 10
332.3507549745
 20
37.1688579346
 30
0.0
 10
332.1840484793
 20
37.0584181529
 30
0.0
 10
332.1840484793
 20
37.0584181529
 30
0.0
  0
SPLINE
  5
264
330
228
100
AcDbEntity
  8
0
  6
CONTINUOUS
 62
     7
100
AcDbSpline
 70
     3
 71
     3
 72
    50
 73
    46
 74
     0
 42
0.000000001
 43
0.0000001
 40
0.0
 40
0.0
 40
0.0
 40
0.0
 40
1.0
 40
1.0
 40
1.0
 40
2.0
 40
2.0
 40
2.0
 40
3.0
 40
3.0
 40
3.0
 40
4.0
 40
4.0
 40
4.0
 40
5.0
 40
5.0
 40
5.0
 40
6.0
 40
6.0
 40
6.0
 40
7.0
 40
7.0
 40
7.0
 40
8.0
 40
8.0
 40
8.0
 40
9.0
 40
9.0
 40
9.0
 40
10.0
 40
10.0
 40
10.0
 40
11.0
 40
11.0
 40
11.0
 40
12.0
 40
12.0
 40
12.0
 40
13.0
 40
13.0
 40
13.0
 40
14.0
 40
14.0
 40
14.0
 40
15.0
 40
15.0
 40
15.0
 40
15.0
 10
336.1376356422
 20
30.2598289348
 30
0.0
 10
336.1376356422
 20
30.2598289348
 30
0.0
 10
337.7468636468
 20
30.2598289348
 30
0.0
 10
337.7468636468
 20
30.2598289348
 30
0.0
 10
337.7468636468
 20
30.2598289348
 30
0.0
 10
335.8738363531
 20
32.5769707062
 30
0.0
 10
335.8738363531
 20
32.5769707062
 30
0.0
 10
335.8738363531
 20
32.5769707062
 30
0.0
 10
337.1501747786
 20
34.0744504008
 30
0.0
 10
337.1501747786
 20
34.0744504008
 30
0.0
 10
337.1501747786
 20
34.0744504008
 30
0.0
 10
336.3179508309
 20
34.9354619693
 30
0.0
 10
336.3179508309
 20
34.9354619693
 30
0.0
 10
336.3179508309
 20
34.9354619693
 30
0.0
 10
335.0973557076
 20
33.5201578469
 30
0.0
 10
335.0973557076
 20
33.5201578469
 30
0.0
 10
335.0973557076
 20
33.5201578469
 30
0.0
 10
332.9194413388
 20
36.1555336813
 30
0.0
 10
332.9194413388
 20
36.1555336813
 30
0.0
 10
333.7930147782
 20
36.7935720412
 30
0.0
 10
334.8196860194
 20
37.58457735
 30
0.0
 10
334.8196860194
 20
38.7634304231
 30
0.0
 10
334.8196860194
 20
40.1371233482
 30
0.0
 10
333.6817898795
 20
40.9416064976
 30
0.0
 10
332.4064982766
 20
40.9416064976
 30
0.0
 10
331.0330670573
 20
40.9416064976
 30
0.0
 10
329.9921328585
 20
40.0953812979
 30
0.0
 10
329.9921328585
 20
38.6527289358
 30
0.0
 10
329.9921328585
 20
37.7651542444
 30
0.0
 10
330.547472235
 20
36.9882810403
 30
0.0
 10
331.1436376918
 20
36.3638513739
 30
0.0
 10
331.1436376918
 20
36.3638513739
 30
0.0
 10
330.4917289328
 20
35.8922578035
 30
0.0
 10
330.4917289328
 20
35.8922578035
 30
0.0
 10
329.4931910484
 20
35.1709970488
 30
0.0
 10
328.6603128365
 20
34.4497362942
 30
0.0
 10
328.6603128365
 20
33.1181779778
 30
0.0
 10
328.6603128365
 20
31.3145026798
 30
0.0
 10
330.1173590091
 20
30.0379025487
 30
0.0
 10
331.8648984465
 20
30.0379025487
 30
0.0
 10
333.0997565274
 20
30.0379025487
 30
0.0
 10
334.2091267521
 20
30.7460780212
 30
0.0
 10
335.000001208
 20
31.6746096459
 30
0.0
 10
335.000001208
 20
31.6746096459
 30
0.0
 10
336.1376356422
 20
30.2598289348
 30
0.0
 10
336.1376356422
 20
30.2598289348
 30
0.0
  0
LINE
  5
265
330
228
100
AcDbEntity
  8
0
  6
CONTINUOUS
 62
     7
100
AcDbLine
 10
321.9404970172
 20
28.2337038394
 30
0.0
 11
344.3544077449
 21
28.2337038394
 31
0.0
  0
LINE
  5
266
330
228
100
AcDbEntity
  8
0
  6
CONTINUOUS
 62
     7
100
AcDbLine
 10
344.3544077449
 20
28.2337038394
 30
0.0
 11
344.3544077449
 21
50.6476145671
 31
0.0
  0
LINE
  5
267
330
228
100
AcDbEntity
  8
0
  6
CONTINUOUS
 62
     7
100
AcDbLine
 10
344.3544077449
 20
50.6476145671
 30
0.0
 11
321.9404970172
 21
50.6476145671
 31
0.0
  0
LINE
  5
268
330
228
100
AcDbEntity
  8
0
  6
CONTINUOUS
 62
     7
100
AcDbLine
 10
321.9404970172
 20
50.6476145671
 30
0.0
 11
321.9404970172
 21
28.2337038394
 31
0.0
  0
ENDBLK
  5
269
330
228
100
AcDbEntity
  8
0
  6
BYBLOCK
 62
     0
100
AcDbBlockEnd
  0
BLOCK
  5
290
330
229
100
AcDbEntity
  8
0
100
AcDbBlockBegin
  2
*T6
 70
     1
 10
0.0
 20
0.0
 30
0.0
  3
*T6
  1

  0
MTEXT
  5
291
330
229
100
AcDbEntity
  8
0
  6
CONTINUOUS
 62
     0
100
AcDbMText
 10
30.06
 20
-3.0
 30
0.0
 40
3.0
 41
39.88
 71
     4
 72
     5
  1
{\Ftxt.shx;\W6.904762;\H3.000000; }
  0
MTEXT
  5
292
330
229
100
AcDbEntity
  8
0
  6
CONTINUOUS
 62
     0
100
AcDbMText
 10
70.06
 20
-0.06
 30
0.0
 40
3.5
 41
19.88
 71
     1
 72
     5
  1
{\Ftxt.shx;\W5.100000;\H3.500000; }
  0
MTEXT
  5
293
330
229
100
AcDbEntity
  8
0
  6
CONTINUOUS
 62
     0
100
AcDbMText
 10
30.06
 20
-6.06
 30
0.0
 40
3.5
 41
39.88
 71
     1
 72
     5
  1
{\Ftxt.shx;\W3.714286;\H3.500000; }{\Ftxt.shx;\W2.714286;\H3.500000; }
  0
MTEXT
  5
294
330
229
100
AcDbEntity
  8
0
  6
CONTINUOUS
 62
     0
100
AcDbMText
 10
70.06
 20
-9.0
 30
0.0
 40
3.5
 41
19.88
 71
     4
 72
     5
  1
{\Ftxt.shx;\W1.571429;\H3.500000; }
  0
MTEXT
  5
295
330
229
100
AcDbEntity
  8
0
  6
CONTINUOUS
 62
     0
100
AcDbMText
 10
30.06
 20
-17.0
 30
0.0
 40
3.5
 41
59.88
 71
     4
 72
     5
  1
{\Ftxt.shx;\W7.857143;\H3.500000; }{\Ftxt.shx;\W0.785714;\H3.500000; }
  0
MTEXT
  5
296
330
229
100
AcDbEntity
  8
0
  6
CONTINUOUS
 62
     0
100
AcDbMText
 10
30.06
 20
-24.5
 30
0.0
 40
2.5
 41
59.88
 71
     4
 72
     5
  1
{\Ftxt.shx;\W11.261905;\H2.500000; }
  0
MTEXT
  5
297
330
229
100
AcDbEntity
  8
0
  6
CONTINUOUS
 62
     0
100
AcDbMText
 10
0.06
 20
-27.06
 30
0.0
 40
1.85
 41
89.88
 71
     1
 72
     5
  1
{\Ftxt.shx;\W45.050000;\H1.850000; }\P{\Ftxt.shx;\W28.050000;\H1.850000; }{\Ftxt.shx;\W7.650000;\H1.850000; }{\Ftxt.shx;\W13.600000;\H1.850000; }\P{\Ftxt.shx;\W31.450000;\H1.850000; }\P{\Ftxt.shx;\W17.000000;\H1.850000; }
  0
LINE
  5
298
330
229
100
AcDbEntity
  8
0
  6
CONTINUOUS
 62
     0
100
AcDbLine
 10
0.0
 20
0.0
 30
0.0
 11
90.0
 21
0.0
 31
0.0
  0
LINE
  5
299
330
229
100
AcDbEntity
  8
0
  6
CONTINUOUS
 62
     0
100
AcDbLine
 10
0.0
 20
0.0
 30
0.0
 11
0.0
 21
-40.0
 31
0.0
  0
LINE
  5
29A
330
229
100
AcDbEntity
  8
0
  6
CONTINUOUS
 62
     0
100
AcDbLine
 10
30.0
 20
0.0
 30
0.0
 11
30.0
 21
-27.0
 31
0.0
  0
LINE
  5
602
330
229
100
AcDbEntity
  8
0
  6
CONTINUOUS
 62
     0
100
AcDbLine
 10
70.0
 20
0.0
 30
0.0
 11
70.0
 21
-12.0
 31
0.0
  0
LINE
  5
603
330
229
100
AcDbEntity
  8
0
  6
CONTINUOUS
 62
     0
100
AcDbLine
 10
90.0
 20
0.0
 30
0.0
 11
90.0
 21
-40.0
 31
0.0
  0
LINE
  5
604
330
229
100
AcDbEntity
  8
0
  6
CONTINUOUS
 62
     0
100
AcDbLine
 10
30.0
 20
-6.0
 30
0.0
 11
90.0
 21
-6.0
 31
0.0
  0
LINE
  5
605
330
229
100
AcDbEntity
  8
0
  6
CONTINUOUS
 62
     0
100
AcDbLine
 10
30.0
 20
-12.0
 30
0.0
 11
90.0
 21
-12.0
 31
0.0
  0
LINE
  5
606
330
229
100
AcDbEntity
  8
0
  6
CONTINUOUS
 62
     0
100
AcDbLine
 10
30.0
 20
-22.0
 30
0.0
 11
90.0
 21
-22.0
 31
0.0
  0
LINE
  5
607
330
229
100
AcDbEntity
  8
0
  6
CONTINUOUS
 62
     0
100
AcDbLine
 10
0.0
 20
-27.0
 30
0.0
 11
90.0
 21
-27.0
 31
0.0
  0
LINE
  5
608
330
229
100
AcDbEntity
  8
0
  6
CONTINUOUS
 62
     0
100
AcDbLine
 10
0.0
 20
-40.0
 30
0.0
 11
90.0
 21
-40.0
 31
0.0
  0
ENDBLK
  5
29B
330
229
100
AcDbEntity
  8
0
100
AcDbBlockEnd
  0
ENDSEC
  0
SECTION
  2
ENTITIES
  0
INSERT
  5
2A0
330
221
100
AcDbEntity
  8
0
  6
CONTINUOUS
 62
     2
100
AcDbBlockReference
  2
LOGO2_BL0
 10
355.0577104813174
 20
23.02159380118644
 30
0.0
  0
LWPOLYLINE
  5
2A1
330
221
100
AcDbEntity
  8
0
  6
CONTINUOUS
 62
     2
100
AcDbPolyline
 90
        6
 70
     0
 43
0.0
 10
372.7191687415174
 20
32.02159495678644
 10
373.7905994056174
 20
32.02159495678644
 10
374.0048804115174
 20
32.23588237128644
 10
374.0048804115174
 20
33.30730662668645
 10
373.5763183997174
 20
33.73588145578644
 10
373.1477307533174
 20
33.73588145578644
  0
LWPOLYLINE
  5
2A2
330
221
100
AcDbEntity
  8
0
  6
CONTINUOUS
 62
     2
100
AcDbPolyline
 90
        5
 70
     0
 43
0.0
 10
373.5763183997174
 20
33.73588145578644
 10
373.9334619544174
 20
33.95016246158644
 10
373.9334619544174
 20
34.59302470528645
 10
373.5763183997174
 20
35.02159312568644
 10
372.7191687415174
 20
35.02159312568644
  0
LINE
  5
2A3
330
221
100
AcDbEntity
  8
0
  6
CONTINUOUS
 62
     2
100
AcDbLine
 10
374.8620300697174
 20
32.02159495678644
 30
0.0
 11
374.8620300697174
 21
35.02159312568644
 31
0.0
  0
LINE
  5
2A4
330
221
100
AcDbEntity
  8
0
  6
CONTINUOUS
 62
     2
100
AcDbLine
 10
376.3620227454174
 20
35.02159312568644
 30
0.0
 11
376.3620227454174
 21
32.02159495678644
 31
0.0
  0
LINE
  5
2A5
330
221
100
AcDbEntity
  8
0
  6
CONTINUOUS
 62
     2
100
AcDbLine
 10
374.8620300697174
 20
33.73588145578644
 30
0.0
 11
376.3620227454174
 21
33.73588145578644
 31
0.0
  0
LWPOLYLINE
  5
2A6
330
221
100
AcDbEntity
  8
0
  6
CONTINUOUS
 62
     2
100
AcDbPolyline
 90
       10
 70
     0
 43
0.0
 10
377.6477344154174
 20
32.02159495678644
 10
378.5048840736174
 20
32.87873820628644
 10
378.7191650794174
 20
33.73588145578644
 10
378.7191650794174
 20
34.59302470528645
 10
378.2906030677174
 20
35.02159312568644
 10
377.6477344154174
 20
35.02159312568644
 10
377.2191724037174
 20
34.59302470528645
 10
377.2191724037174
 20
33.73588145578644
 10
377.6477344154174
 20
33.30730662668645
 10
378.5763025306174
 20
33.30730662668645
  0
LINE
  5
2A7
330
221
100
AcDbEntity
  8
0
  6
CONTINUOUS
 62
     2
100
AcDbLine
 10
379.5763147376174
 20
32.02159495678644
 30
0.0
 11
381.2905884193174
 21
32.02159495678644
 31
0.0
  0
LWPOLYLINE
  5
2A8
330
221
100
AcDbEntity
  8
0
  6
CONTINUOUS
 62
     2
100
AcDbPolyline
 90
        6
 70
     0
 43
0.0
 10
383.2191687415174
 20
32.02159495678644
 10
382.3620190833174
 20
32.02159495678644
 10
381.9334570716174
 20
32.45016337718644
 10
381.9334570716174
 20
34.59302470528645
 10
382.3620190833174
 20
35.02159312568644
 10
383.2191687415174
 20
35.02159312568644
  0
LINE
  5
2A9
330
221
100
AcDbEntity
  8
0
  6
CONTINUOUS
 62
     2
100
AcDbLine
 10
384.4334619544174
 20
32.02159495678644
 30
0.0
 11
386.1477356361174
 21
32.02159495678644
 31
0.0
  0
LWPOLYLINE
  5
2AA
330
221
100
AcDbEntity
  8
0
  6
CONTINUOUS
 62
     2
100
AcDbPolyline
 90
       13
 70
     0
 43
0.0
 10
386.7906042884174
 20
32.87873820628644
 10
386.7906042884174
 20
34.16444987618645
 10
387.0048852943174
 20
34.59302470528645
 10
387.4334473060174
 20
35.02159312568644
 10
387.6477283119174
 20
35.02159312568644
 10
388.0763159583174
 20
34.59302470528645
 10
388.2905969642174
 20
34.16444987618645
 10
388.2905969642174
 20
32.87873820628644
 10
388.0763159583174
 20
32.45016337718644
 10
387.6477283119174
 20
32.02159495678644
 10
387.4334473060174
 20
32.02159495678644
 10
387.0048852943174
 20
32.45016337718644
 10
386.7906042884174
 20
32.87873820628644
  0
LWPOLYLINE
  5
2AB
330
221
100
AcDbEntity
  8
0
  6
CONTINUOUS
 62
     2
100
AcDbPolyline
 90
        6
 70
     0
 43
0.0
 10
389.1477466224174
 20
32.02159495678644
 10
390.2191516517174
 20
32.02159495678644
 10
390.4334582923174
 20
32.23588237128644
 10
390.4334582923174
 20
33.30730662668645
 10
390.0048706458174
 20
33.73588145578644
 10
389.5763086341174
 20
33.73588145578644
  0
LWPOLYLINE
  5
2AC
330
221
100
AcDbEntity
  8
0
  6
CONTINUOUS
 62
     2
100
AcDbPolyline
 90
        5
 70
     0
 43
0.0
 10
390.0048706458174
 20
33.73588145578644
 10
390.3620142005174
 20
33.95016246158644
 10
390.3620142005174
 20
34.59302470528645
 10
390.0048706458174
 20
35.02159312568644
 10
389.1477466224174
 20
35.02159312568644
  0
LWPOLYLINE
  5
2AD
330
221
100
AcDbEntity
  8
0
  6
CONTINUOUS
 62
     2
100
AcDbPolyline
 90
        8
 70
     0
 43
0.0
 10
391.2905823158174
 20
32.02159495678644
 10
392.1477319740174
 20
32.02159495678644
 10
392.5762939857174
 20
32.45016337718644
 10
392.5762939857174
 20
33.30730662668645
 10
392.1477319740174
 20
33.73588145578644
 10
391.2905823158174
 20
33.73588145578644
 10
391.2905823158174
 20
35.02159312568644
 10
392.5762939857174
 20
35.02159312568644
  0
LWPOLYLINE
  5
2AE
330
221
100
AcDbEntity
  8
0
  6
CONTINUOUS
 62
     2
100
AcDbPolyline
 90
        9
 70
     0
 43
0.0
 10
413.4629114173174
 20
31.27159221018644
 10
413.4629114173174
 20
34.77159648258645
 10
414.3926074622174
 20
34.77159648258645
 10
414.7644653724174
 20
34.47992411938645
 10
414.9504199622174
 20
34.18825816478645
 10
414.9504199622174
 20
33.60492625558644
 10
414.7644653724174
 20
33.31326030098644
 10
414.3926074622174
 20
33.02159434638644
 10
413.4629114173174
 20
33.02159434638644
  0
LINE
  5
2AF
330
221
100
AcDbEntity
  8
0
  6
CONTINUOUS
 62
     2
100
AcDbLine
 10
414.3926074622174
 20
33.02159434638644
 30
0.0
 11
414.9504199622174
 21
31.27159221018644
 31
0.0
  0
LWPOLYLINE
  5
2B0
330
221
100
AcDbEntity
  8
0
  6
CONTINUOUS
 62
     2
100
AcDbPolyline
 90
       11
 70
     0
 43
0.0
 10
417.7394824622174
 20
31.85492411938645
 10
417.5535278724174
 20
31.56325816478645
 10
417.1816699622174
 20
31.27159221018644
 10
416.8097864173174
 20
31.56325816478645
 10
416.4379028724174
 20
32.14659648258645
 10
416.4379028724174
 20
32.72992839178644
 10
416.8097864173174
 20
33.31326030098644
 10
417.1816699622174
 20
33.60492625558644
 10
417.5535278724174
 20
33.31326030098644
 10
417.7394824622174
 20
32.72992839178644
 10
416.4379028724174
 20
32.72992839178644
  0
LWPOLYLINE
  5
2B1
330
221
100
AcDbEntity
  8
0
  6
CONTINUOUS
 62
     2
100
AcDbPolyline
 90
        3
 70
     0
 43
0.0
 10
419.5988489173174
 20
33.60492625558644
 10
420.1566614173174
 20
31.27159221018644
 10
420.7144739173174
 20
33.60492625558644
  0
LWPOLYLINE
  5
2B2
330
221
100
AcDbEntity
  8
0
  6
CONTINUOUS
 62
     2
100
AcDbPolyline
 90
        4
 70
     0
 43
0.0
 10
423.1316528724174
 20
31.27159221018644
 10
422.9457239173174
 20
31.27159221018644
 10
422.9457239173174
 20
31.56325816478645
 10
423.1316528724174
 20
31.27159221018644
  0
LWPOLYLINE
  5
2B3
330
221
100
AcDbEntity
  8
0
  6
CONTINUOUS
 62
     2
100
AcDbPolyline
 90
        4
 70
     0
 43
0.0
 10
423.1316528724174
 20
33.60492625558644
 10
423.1316528724174
 20
33.31326030098644
 10
422.9457239173174
 20
33.60492625558644
 10
423.1316528724174
 20
33.60492625558644
  0
LWPOLYLINE
  5
2B4
330
221
100
AcDbEntity
  8
0
  6
CONTINUOUS
 62
     2
100
AcDbPolyline
 90
       15
 70
     0
 43
0.0
 10
426.1066699622174
 20
31.27159221018644
 10
425.7347864173174
 20
31.56325816478645
 10
425.5488574622174
 20
31.85492411938645
 10
425.3629028724174
 20
32.43826243718645
 10
425.3629028724174
 20
33.60492625558644
 10
425.5488574622174
 20
34.18825816478645
 10
425.7347864173174
 20
34.47992411938645
 10
426.1066699622174
 20
34.77159648258645
 10
426.4785278724174
 20
34.47992411938645
 10
426.6644824622174
 20
34.18825816478645
 10
426.8504114173174
 20
33.60492625558644
 10
426.8504114173174
 20
32.43826243718645
 10
426.6644824622174
 20
31.85492411938645
 10
426.4785278724174
 20
31.56325816478645
 10
426.1066699622174
 20
31.27159221018644
  0
LWPOLYLINE
  5
2B5
330
221
100
AcDbEntity
  8
0
  6
CONTINUOUS
 62
     2
100
AcDbPolyline
 90
       15
 70
     0
 43
0.0
 10
429.0816614173174
 20
31.27159221018644
 10
428.7097778724174
 20
31.56325816478645
 10
428.5238489173174
 20
31.85492411938645
 10
428.3379199622174
 20
32.43826243718645
 10
428.3379199622174
 20
33.60492625558644
 10
428.5238489173174
 20
34.18825816478645
 10
428.7097778724174
 20
34.47992411938645
 10
429.0816614173174
 20
34.77159648258645
 10
429.4535449622174
 20
34.47992411938645
 10
429.6394739173174
 20
34.18825816478645
 10
429.8254028724174
 20
33.60492625558644
 10
429.8254028724174
 20
32.43826243718645
 10
429.6394739173174
 20
31.85492411938645
 10
429.4535449622174
 20
31.56325816478645
 10
429.0816614173174
 20
31.27159221018644
  0
LWPOLYLINE
  5
2B6
330
221
100
AcDbEntity
  8
0
  6
CONTINUOUS
 62
     2
100
AcDbPolyline
 90
       10
 70
     0
 43
0.0
 10
372.7191687415174
 20
25.52159251528644
 10
372.9691589759174
 20
25.27159587228645
 10
373.9691711830174
 20
25.27159587228645
 10
374.4691516517174
 20
25.77159556708644
 10
374.4691516517174
 20
26.27159526188645
 10
372.7191687415174
 20
27.77159434638644
 10
372.7191687415174
 20
28.27159404118645
 10
373.2191748451174
 20
28.77159373608644
 10
374.2191614173174
 20
28.77159373608644
 10
374.4691516517174
 20
28.52159068428644
  0
LWPOLYLINE
  5
2B7
330
221
100
AcDbEntity
  8
0
  6
CONTINUOUS
 62
     2
100
AcDbPolyline
 90
        6
 70
     0
 43
0.0
 10
376.7191663001174
 20
25.27159587228645
 10
375.7191540931174
 20
25.27159587228645
 10
375.4691638587174
 20
25.52159251528644
 10
375.4691638587174
 20
27.52159129458644
 10
375.7191540931174
 20
27.77159434638644
 10
376.7191663001174
 20
27.77159434638644
  0
LWPOLYLINE
  5
2B8
330
221
100
AcDbEntity
  8
0
  6
CONTINUOUS
 62
     2
100
AcDbPolyline
 90
        4
 70
     0
 43
0.0
 10
379.2191711830174
 20
25.27159587228645
 10
379.2191711830174
 20
27.27159465158644
 10
378.9691553138174
 20
27.77159434638644
 10
377.7191528724174
 20
27.77159434638644
  0
LWPOLYLINE
  5
2B9
330
221
100
AcDbEntity
  8
0
  6
CONTINUOUS
 62
     2
100
AcDbPolyline
 90
        6
 70
     0
 43
0.0
 10
379.2191711830174
 20
25.27159587228645
 10
378.2191589759174
 20
25.27159587228645
 10
377.7191528724174
 20
25.52159251528644
 10
377.7191528724174
 20
26.27159526188645
 10
378.2191589759174
 20
26.52159190498644
 10
379.2191711830174
 20
26.52159190498644
  0
LWPOLYLINE
  5
2BA
330
221
100
AcDbEntity
  8
0
  6
CONTINUOUS
 62
     2
100
AcDbPolyline
 90
        4
 70
     0
 43
0.0
 10
380.9691540931174
 20
25.27159587228645
 10
380.4691736244174
 20
25.27159587228645
 10
380.2191577552174
 20
25.52159251528644
 10
380.2191577552174
 20
28.77159373608644
  0
LWPOLYLINE
  5
2BB
330
221
100
AcDbEntity
  8
0
  6
CONTINUOUS
 62
     2
100
AcDbPolyline
 90
        9
 70
     0
 43
0.0
 10
383.4691589759174
 20
25.27159587228645
 10
382.4691724037174
 20
25.27159587228645
 10
381.9691663001174
 20
25.77159556708644
 10
381.9691663001174
 20
27.27159465158644
 10
382.4691724037174
 20
27.77159434638644
 10
382.9691528724174
 20
27.77159434638644
 10
383.4691589759174
 20
27.27159465158644
 10
383.4691589759174
 20
26.52159190498644
 10
381.9691663001174
 20
26.52159190498644
  0
LWPOLYLINE
  5
2BC
330
221
100
AcDbEntity
  8
0
  6
CONTINUOUS
 62
     2
100
AcDbPolyline
 90
        4
 70
     0
 43
0.0
 10
384.4691711830174
 20
25.27159587228645
 10
384.4691711830174
 20
25.52159251528644
 10
384.6358227943174
 20
25.52159251528644
 10
384.4691711830174
 20
25.27159587228645
  0
LWPOLYLINE
  5
2BD
330
221
100
AcDbEntity
  8
0
  6
CONTINUOUS
 62
     2
100
AcDbPolyline
 90
        4
 70
     0
 43
0.0
 10
384.4691711830174
 20
26.77159495678644
 10
384.4691711830174
 20
27.02159159978645
 10
384.6358227943174
 20
27.02159159978645
 10
384.4691711830174
 20
26.77159495678644
  0
LWPOLYLINE
  5
2BE
330
221
100
AcDbEntity
  8
0
  6
CONTINUOUS
 62
     2
100
AcDbPolyline
 90
        4
 70
     0
 43
0.0
 10
385.7191736244174
 20
28.02159098948644
 10
385.7191736244174
 20
28.77159373608644
 10
387.4691565345174
 20
28.77159373608644
 10
386.4691699622174
 20
25.27159587228645
  0
LWPOLYLINE
  5
2BF
330
221
100
AcDbEntity
  8
0
  6
CONTINUOUS
 62
     2
100
AcDbPolyline
 90
        4
 70
     0
 43
0.0
 10
388.4691687415174
 20
25.27159587228645
 10
388.4691687415174
 20
25.52159251528644
 10
388.6358203529174
 20
25.52159251528644
 10
388.4691687415174
 20
25.27159587228645
  0
LWPOLYLINE
  5
2C0
330
221
100
AcDbEntity
  8
0
  6
CONTINUOUS
 62
     2
100
AcDbPolyline
 90
        4
 70
     0
 43
0.0
 10
388.4691687415174
 20
26.77159495678644
 10
388.4691687415174
 20
27.02159159978645
 10
388.6358203529174
 20
27.02159159978645
 10
388.4691687415174
 20
26.77159495678644
  0
LWPOLYLINE
  5
2C1
330
221
100
AcDbEntity
  8
0
  6
CONTINUOUS
 62
     2
100
AcDbPolyline
 90
        7
 70
     0
 43
0.0
 10
391.4691540931174
 20
25.27159587228645
 10
389.7191711830174
 20
25.27159587228645
 10
391.4691540931174
 20
27.77159434638644
 10
391.4691540931174
 20
28.27159404118645
 10
390.9691736244174
 20
28.77159373608644
 10
390.2191516517174
 20
28.77159373608644
 10
389.7191711830174
 20
28.02159098948644
  0
LWPOLYLINE
  5
2C2
330
221
100
AcDbEntity
  8
0
  6
CONTINUOUS
 62
     2
100
AcDbPolyline
 90
       13
 70
     0
 43
0.0
 10
392.4691663001174
 20
26.27159526188645
 10
392.4691663001174
 20
27.77159434638644
 10
392.7191565345174
 20
28.27159404118645
 10
393.2191626380174
 20
28.77159373608644
 10
393.4691528724174
 20
28.77159373608644
 10
393.9691589759174
 20
28.27159404118645
 10
394.2191748451174
 20
27.77159434638644
 10
394.2191748451174
 20
26.27159526188645
 10
393.9691589759174
 20
25.77159556708644
 10
393.4691528724174
 20
25.27159587228645
 10
393.2191626380174
 20
25.27159587228645
 10
392.7191565345174
 20
25.77159556708644
 10
392.4691663001174
 20
26.27159526188645
  0
LWPOLYLINE
  5
2C3
330
221
100
AcDbEntity
  8
0
  6
CONTINUOUS
 62
     2
100
AcDbPolyline
 90
        3
 70
     0
 43
0.0
 10
412.7191699622174
 20
25.77159556708644
 10
413.7191565345174
 20
29.27159343088644
 10
414.7191687415174
 20
25.77159556708644
  0
LINE
  5
2C4
330
221
100
AcDbEntity
  8
0
  6
CONTINUOUS
 62
     2
100
AcDbLine
 10
413.0524988197174
 20
26.77159495678644
 30
0.0
 11
414.3858398841174
 21
26.77159495678644
 31
0.0
  0
LWPOLYLINE
  5
2C5
330
221
100
AcDbEntity
  8
0
  6
CONTINUOUS
 62
     2
100
AcDbPolyline
 90
        6
 70
     0
 43
0.0
 10
415.7191553138174
 20
25.77159556708644
 10
416.9691577552174
 20
25.77159556708644
 10
417.2191736244174
 20
26.02159221018644
 10
417.2191736244174
 20
27.27159465158644
 10
416.7191675208174
 20
27.77159434638644
 10
416.2191614173174
 20
27.77159434638644
  0
LWPOLYLINE
  5
2C6
330
221
100
AcDbEntity
  8
0
  6
CONTINUOUS
 62
     2
100
AcDbPolyline
 90
        5
 70
     0
 43
0.0
 10
416.7191675208174
 20
27.77159434638644
 10
417.1358350013174
 20
28.02159098948644
 10
417.1358350013174
 20
28.77159373608644
 10
416.7191675208174
 20
29.27159343088644
 10
415.7191553138174
 20
29.27159343088644
  0
LWPOLYLINE
  5
2C7
330
221
100
AcDbEntity
  8
0
  6
CONTINUOUS
 62
     2
100
AcDbPolyline
 90
        3
 70
     0
 43
0.0
 10
372.7191687415174
 20
17.77159404118645
 10
372.7191687415174
 20
21.27159190498644
 10
374.2191614173174
 20
21.27159190498644
  0
LINE
  5
2C8
330
221
100
AcDbEntity
  8
0
  6
CONTINUOUS
 62
     2
100
AcDbLine
 10
373.7191553138174
 20
19.77159282048645
 30
0.0
 11
372.7191687415174
 21
19.77159282048645
 31
0.0
  0
LINE
  5
2C9
330
221
100
AcDbEntity
  8
0
  6
CONTINUOUS
 62
     2
100
AcDbLine
 10
372.7191687415174
 20
17.77159404118645
 30
0.0
 11
374.2191614173174
 21
17.77159404118645
 31
0.0
  0
LWPOLYLINE
  5
2CA
330
221
100
AcDbEntity
  8
0
  6
CONTINUOUS
 62
     2
100
AcDbPolyline
 90
        3
 70
     0
 43
0.0
 10
375.2191736244174
 20
21.27159190498644
 10
375.2191736244174
 20
17.77159404118645
 10
376.4691760658174
 20
17.77159404118645
  0
LWPOLYLINE
  5
2CB
330
221
100
AcDbEntity
  8
0
  6
CONTINUOUS
 62
     2
100
AcDbPolyline
 90
        3
 70
     0
 43
0.0
 10
377.4691626380174
 20
21.27159190498644
 10
377.4691626380174
 20
17.77159404118645
 10
378.7191650794174
 20
17.77159404118645
  0
LWPOLYLINE
  5
2CC
330
221
100
AcDbEntity
  8
0
  6
CONTINUOUS
 62
     2
100
AcDbPolyline
 90
        9
 70
     0
 43
0.0
 10
379.7191516517174
 20
18.27159373608644
 10
379.7191516517174
 20
20.77159221018644
 10
380.2191577552174
 20
21.27159190498644
 10
380.9691540931174
 20
21.27159190498644
 10
381.4691601966174
 20
20.77159221018644
 10
381.4691601966174
 20
18.27159373608644
 10
380.9691540931174
 20
17.77159404118645
 10
380.2191577552174
 20
17.77159404118645
 10
379.7191516517174
 20
18.27159373608644
  0
LINE
  5
2CD
330
221
100
AcDbEntity
  8
0
  6
CONTINUOUS
 62
     2
100
AcDbLine
 10
385.8858252357174
 20
17.77159404118645
 30
0.0
 11
385.8858252357174
 21
21.27159190498644
 31
0.0
  0
LWPOLYLINE
  5
2CE
330
221
100
AcDbEntity
  8
0
  6
CONTINUOUS
 62
     2
100
AcDbPolyline
 90
        4
 70
     0
 43
0.0
 10
387.4691565345174
 20
17.77159404118645
 10
387.4691565345174
 20
21.27159190498644
 10
389.2191650794174
 20
17.77159404118645
 10
389.2191650794174
 20
21.27159190498644
  0
LWPOLYLINE
  5
2CF
330
221
100
AcDbEntity
  8
0
  6
CONTINUOUS
 62
     2
100
AcDbPolyline
 90
        6
 70
     0
 43
0.0
 10
392.9691724037174
 20
17.77159404118645
 10
394.2191748451174
 20
17.77159404118645
 10
394.4691650794174
 20
18.02159068428644
 10
394.4691650794174
 20
19.27159312568644
 10
393.9691589759174
 20
19.77159282048645
 10
393.4691528724174
 20
19.77159282048645
  0
LWPOLYLINE
  5
2D0
330
221
100
AcDbEntity
  8
0
  6
CONTINUOUS
 62
     2
100
AcDbPolyline
 90
        5
 70
     0
 43
0.0
 10
393.9691589759174
 20
19.77159282048645
 10
394.3858264564174
 20
20.02159587228645
 10
394.3858264564174
 20
20.77159221018644
 10
393.9691589759174
 20
21.27159190498644
 10
392.9691724037174
 20
21.27159190498644
  0
LWPOLYLINE
  5
2D1
330
221
100
AcDbEntity
  8
0
  6
CONTINUOUS
 62
     2
100
AcDbPolyline
 90
        9
 70
     0
 43
0.0
 10
396.2191736244174
 20
18.35492595038644
 10
396.3024866126174
 20
18.18826152168644
 10
396.3024866126174
 20
18.10492930728645
 10
396.2191736244174
 20
17.93825846988644
 10
396.0524963783174
 20
17.93825846988644
 10
395.9691577552174
 20
18.10492930728645
 10
395.9691577552174
 20
18.18826152168644
 10
396.0524963783174
 20
18.35492595038644
 10
396.2191736244174
 20
18.35492595038644
  0
LWPOLYLINE
  5
2D2
330
221
100
AcDbEntity
  8
0
  6
CONTINUOUS
 62
     2
100
AcDbPolyline
 90
       13
 70
     0
 43
0.0
 10
397.4691760658174
 20
18.77159343088644
 10
397.4691760658174
 20
20.27159251528644
 10
397.7191663001174
 20
20.77159221018644
 10
398.2191724037174
 20
21.27159190498644
 10
398.4691626380174
 20
21.27159190498644
 10
398.9691687415174
 20
20.77159221018644
 10
399.2191589759174
 20
20.27159251528644
 10
399.2191589759174
 20
18.77159343088644
 10
398.9691687415174
 20
18.27159373608644
 10
398.4691626380174
 20
17.77159404118645
 10
398.2191724037174
 20
17.77159404118645
 10
397.7191663001174
 20
18.27159373608644
 10
397.4691760658174
 20
18.77159343088644
  0
LWPOLYLINE
  5
2D3
330
221
100
AcDbEntity
  8
0
  6
CONTINUOUS
 62
     2
100
AcDbPolyline
 90
        7
 70
     0
 43
0.0
 10
373.1953601478174
 20
10.77159190498644
 10
373.1953601478174
 20
13.27159678778644
 10
374.0882190345174
 20
13.27159678778644
 10
374.4453625892174
 20
12.91445323308644
 10
374.4453625892174
 20
11.12873545968644
 10
374.0882190345174
 20
10.77159190498644
 10
373.1953601478174
 20
10.77159190498644
  0
LWPOLYLINE
  5
2D4
330
221
100
AcDbEntity
  8
0
  6
CONTINUOUS
 62
     2
100
AcDbPolyline
 90
        3
 70
     0
 43
0.0
 10
375.4572693275174
 20
10.77159190498644
 10
376.1715564369174
 20
13.27159678778644
 10
376.8858179115174
 20
10.77159190498644
  0
LINE
  5
2D5
330
221
100
AcDbEntity
  8
0
  6
CONTINUOUS
 62
     2
100
AcDbLine
 10
375.6953650306174
 20
11.48587901438644
 30
0.0
 11
376.6477222083174
 21
11.48587901438644
 31
0.0
  0
LINE
  5
2D6
330
221
100
AcDbEntity
  8
0
  6
CONTINUOUS
 62
     2
100
AcDbLine
 10
378.3143921302174
 20
10.77159190498644
 30
0.0
 11
378.3143921302174
 21
13.27159678778644
 31
0.0
  0
LINE
  5
2D7
330
221
100
AcDbEntity
  8
0
  6
CONTINUOUS
 62
     2
100
AcDbLine
 10
377.6001050208174
 20
13.27159678778644
 30
0.0
 11
379.0286792396174
 21
13.27159678778644
 31
0.0
  0
LWPOLYLINE
  5
2D8
330
221
100
AcDbEntity
  8
0
  6
CONTINUOUS
 62
     2
100
AcDbPolyline
 90
        3
 70
     0
 43
0.0
 10
379.7429663490174
 20
10.77159190498644
 10
379.7429663490174
 20
13.27159678778644
 10
380.8143970130174
 20
13.27159678778644
  0
LINE
  5
2D9
330
221
100
AcDbEntity
  8
0
  6
CONTINUOUS
 62
     2
100
AcDbLine
 10
380.4572534583174
 20
12.20016612368644
 30
0.0
 11
379.7429663490174
 21
12.20016612368644
 31
0.0
  0
LINE
  5
2DA
330
221
100
AcDbEntity
  8
0
  6
CONTINUOUS
 62
     2
100
AcDbLine
 10
379.7429663490174
 20
10.77159190498644
 30
0.0
 11
380.8143970130174
 21
10.77159190498644
 31
0.0
  0
LWPOLYLINE
  5
2DB
330
221
100
AcDbEntity
  8
0
  6
CONTINUOUS
 62
     2
100
AcDbPolyline
 90
        4
 70
     0
 43
0.0
 10
381.5286841224174
 20
10.77159190498644
 10
381.5286841224174
 20
10.95016368228644
 10
381.6477319740174
 20
10.95016368228644
 10
381.5286841224174
 20
10.77159190498644
  0
LWPOLYLINE
  5
2DC
330
221
100
AcDbEntity
  8
0
  6
CONTINUOUS
 62
     2
100
AcDbPolyline
 90
        4
 70
     0
 43
0.0
 10
381.5286841224174
 20
11.84302256908644
 10
381.5286841224174
 20
12.02159434638644
 10
381.6477319740174
 20
12.02159434638644
 10
381.5286841224174
 20
11.84302256908644
  0
LWPOLYLINE
  5
2DD
330
221
100
AcDbEntity
  8
0
  6
CONTINUOUS
 62
     2
100
AcDbPolyline
 90
       13
 70
     0
 43
0.0
 10
382.4215430091174
 20
11.48587901438644
 10
382.4215430091174
 20
12.55730967838644
 10
382.6001147865174
 20
12.91445323308644
 10
382.9572583412174
 20
13.27159678778644
 10
383.1358301185174
 20
13.27159678778644
 10
383.4929736732174
 20
12.91445323308644
 10
383.6715454505174
 20
12.55730967838644
 10
383.6715454505174
 20
11.48587901438644
 10
383.4929736732174
 20
11.12873545968644
 10
383.1358301185174
 20
10.77159190498644
 10
382.9572583412174
 20
10.77159190498644
 10
382.6001147865174
 20
11.12873545968644
 10
382.4215430091174
 20
11.48587901438644
  0
LWPOLYLINE
  5
2DE
330
221
100
AcDbEntity
  8
0
  6
CONTINUOUS
 62
     2
100
AcDbPolyline
 90
        6
 70
     0
 43
0.0
 10
384.3858325599174
 20
10.77159190498644
 10
385.2786914466174
 20
10.77159190498644
 10
385.4572632240174
 20
10.95016368228644
 10
385.4572632240174
 20
11.84302256908644
 10
385.1001196693174
 20
12.20016612368644
 10
384.7429761146174
 20
12.20016612368644
  0
LWPOLYLINE
  5
2DF
330
221
100
AcDbEntity
  8
0
  6
CONTINUOUS
 62
     2
100
AcDbPolyline
 90
        5
 70
     0
 43
0.0
 10
385.1001196693174
 20
12.20016612368644
 10
385.3977392982174
 20
12.37873790108645
 10
385.3977392982174
 20
12.91445323308644
 10
385.1001196693174
 20
13.27159678778644
 10
384.3858325599174
 20
13.27159678778644
  0
LINE
  5
2E0
330
221
100
AcDbEntity
  8
0
  6
CONTINUOUS
 62
     2
100
AcDbLine
 10
387.6001245521174
 20
13.03350108468644
 30
0.0
 11
386.1715503333174
 21
10.83111583078644
 31
0.0
  0
LWPOLYLINE
  5
2E1
330
221
100
AcDbEntity
  8
0
  6
CONTINUOUS
 62
     2
100
AcDbPolyline
 90
       13
 70
     0
 43
0.0
 10
388.0763159583174
 20
11.48587901438644
 10
388.0763159583174
 20
12.55730967838644
 10
388.2548877357174
 20
12.91445323308644
 10
388.6120312904174
 20
13.27159678778644
 10
388.7906030677174
 20
13.27159678778644
 10
389.1477466224174
 20
12.91445323308644
 10
389.3263183997174
 20
12.55730967838644
 10
389.3263183997174
 20
11.48587901438644
 10
389.1477466224174
 20
11.12873545968644
 10
388.7906030677174
 20
10.77159190498644
 10
388.6120312904174
 20
10.77159190498644
 10
388.2548877357174
 20
11.12873545968644
 10
388.0763159583174
 20
11.48587901438644
  0
LWPOLYLINE
  5
2E2
330
221
100
AcDbEntity
  8
0
  6
CONTINUOUS
 62
     2
100
AcDbPolyline
 90
        6
 70
     0
 43
0.0
 10
390.0405798744174
 20
10.77159190498644
 10
390.9334387611174
 20
10.77159190498644
 10
391.1120105384174
 20
10.95016368228644
 10
391.1120105384174
 20
11.84302256908644
 10
390.7548669837174
 20
12.20016612368644
 10
390.3977234290174
 20
12.20016612368644
  0
LWPOLYLINE
  5
2E3
330
221
100
AcDbEntity
  8
0
  6
CONTINUOUS
 62
     2
100
AcDbPolyline
 90
        5
 70
     0
 43
0.0
 10
390.7548669837174
 20
12.20016612368644
 10
391.0524866126174
 20
12.37873790108645
 10
391.0524866126174
 20
12.91445323308644
 10
390.7548669837174
 20
13.27159678778644
 10
390.0405798744174
 20
13.27159678778644
  0
LINE
  5
2E4
330
221
100
AcDbEntity
  8
0
  6
CONTINUOUS
 62
     2
100
AcDbLine
 10
393.2548718665174
 20
13.03350108468644
 30
0.0
 11
391.8262976478174
 21
10.83111583078644
 31
0.0
  0
LWPOLYLINE
  5
2E5
330
221
100
AcDbEntity
  8
0
  6
CONTINUOUS
 62
     2
100
AcDbPolyline
 90
        7
 70
     0
 43
0.0
 10
394.9810657142174
 20
10.77159190498644
 10
393.7310632728174
 20
10.77159190498644
 10
394.9810657142174
 20
12.55730967838644
 10
394.9810657142174
 20
12.91445323308644
 10
394.6239221595173
 20
13.27159678778644
 10
394.0882068275174
 20
13.27159678778644
 10
393.7310632728174
 20
12.73588145578644
  0
LWPOLYLINE
  5
2E6
330
221
100
AcDbEntity
  8
0
  6
CONTINUOUS
 62
     2
100
AcDbPolyline
 90
       13
 70
     0
 43
0.0
 10
395.6953528236174
 20
11.48587901438644
 10
395.6953528236174
 20
12.55730967838644
 10
395.8739246009174
 20
12.91445323308644
 10
396.2310681556174
 20
13.27159678778644
 10
396.4096399329174
 20
13.27159678778644
 10
396.7667834876174
 20
12.91445323308644
 10
396.9453552650174
 20
12.55730967838644
 10
396.9453552650174
 20
11.48587901438644
 10
396.7667834876174
 20
11.12873545968644
 10
396.4096399329174
 20
10.77159190498644
 10
396.2310681556174
 20
10.77159190498644
 10
395.8739246009174
 20
11.12873545968644
 10
395.6953528236174
 20
11.48587901438644
  0
LWPOLYLINE
  5
2E7
330
221
100
AcDbEntity
  8
0
  6
CONTINUOUS
 62
     2
100
AcDbPolyline
 90
        3
 70
     0
 43
0.0
 10
397.6596423744174
 20
12.55730967838644
 10
398.3739294837174
 20
13.27159678778644
 10
398.3739294837174
 20
10.77159190498644
  0
LWPOLYLINE
  5
2E8
330
221
100
AcDbEntity
  8
0
  6
CONTINUOUS
 62
     2
100
AcDbPolyline
 90
        8
 70
     0
 43
0.0
 10
399.0882165931174
 20
10.77159190498644
 10
399.8025037025174
 20
10.77159190498644
 10
400.1596472572174
 20
11.12873545968644
 10
400.1596472572174
 20
11.84302256908644
 10
399.8025037025174
 20
12.20016612368644
 10
399.0882165931174
 20
12.20016612368644
 10
399.0882165931174
 20
13.27159678778644
 10
400.1596472572174
 20
13.27159678778644
  0
LWPOLYLINE
  5
2E9
330
221
100
AcDbEntity
  8
0
  6
CONTINUOUS
 62
     2
100
AcDbPolyline
 90
        3
 70
     0
 43
0.0
 10
343.0140124915174
 20
5.921593583486445
 10
343.5054053138174
 20
7.771593736086444
 10
343.9968237708174
 20
5.921593583486445
  0
LINE
  5
2EA
330
221
100
AcDbEntity
  8
0
  6
CONTINUOUS
 62
     2
100
AcDbLine
 10
343.2105798744174
 20
6.538260300986444
 30
0.0
 11
343.8002563880174
 21
6.538260300986444
 31
0.0
  0
LINE
  5
2EB
330
221
100
AcDbEntity
  8
0
  6
CONTINUOUS
 62
     2
100
AcDbLine
 10
344.7830676673174
 20
5.921593583486445
 30
0.0
 11
344.7830676673174
 21
7.154927018486443
 31
0.0
  0
LWPOLYLINE
  5
2EC
330
221
100
AcDbEntity
  8
0
  6
CONTINUOUS
 62
     2
100
AcDbPolyline
 90
        5
 70
     0
 43
0.0
 10
344.7830676673174
 20
6.846595261886442
 10
344.9796350501174
 20
7.154927018486443
 10
345.1762024330174
 20
7.154927018486443
 10
345.3727698158174
 20
6.846595261886442
 10
345.3727698158174
 20
5.921593583486445
  0
LWPOLYLINE
  5
2ED
330
221
100
AcDbEntity
  8
0
  6
CONTINUOUS
 62
     2
100
AcDbPolyline
 90
        5
 70
     0
 43
0.0
 10
346.2572974037174
 20
7.154927018486443
 10
346.6504065345174
 20
6.075761063886443
 10
346.5521228431174
 20
5.613261826886443
 10
346.3555810951174
 20
5.304926865886443
 10
346.1590137122174
 20
5.304926865886443
  0
LINE
  5
2EE
330
221
100
AcDbEntity
  8
0
  6
CONTINUOUS
 62
     2
100
AcDbLine
 10
346.6504065345174
 20
6.075761063886443
 30
0.0
 11
347.0435413001174
 21
7.154927018486443
 31
0.0
  0
LINE
  5
2EF
330
221
100
AcDbEntity
  8
0
  6
CONTINUOUS
 62
     2
100
AcDbLine
 10
349.7954077552174
 20
7.771593736086444
 30
0.0
 11
349.7954077552174
 21
7.617426255586444
 31
0.0
  0
LINE
  5
2F0
330
221
100
AcDbEntity
  8
0
  6
CONTINUOUS
 62
     2
100
AcDbLine
 10
349.7954077552174
 20
7.154927018486443
 30
0.0
 11
349.7954077552174
 21
5.921593583486445
 31
0.0
  0
LINE
  5
2F1
330
221
100
AcDbEntity
  8
0
  6
CONTINUOUS
 62
     2
100
AcDbLine
 10
351.0730701087174
 20
5.921593583486445
 30
0.0
 11
351.0730701087174
 21
7.154927018486443
 31
0.0
  0
LWPOLYLINE
  5
2F2
330
221
100
AcDbEntity
  8
0
  6
CONTINUOUS
 62
     2
100
AcDbPolyline
 90
        5
 70
     0
 43
0.0
 10
351.0730701087174
 20
6.846595261886442
 10
351.2696374915174
 20
7.154927018486443
 10
351.4662048744174
 20
7.154927018486443
 10
351.6627466224174
 20
6.846595261886442
 10
351.6627466224174
 20
5.921593583486445
  0
LINE
  5
2F3
330
221
100
AcDbEntity
  8
0
  6
CONTINUOUS
 62
     2
100
AcDbLine
 10
352.9404089759174
 20
5.921593583486445
 30
0.0
 11
352.9404089759174
 21
7.771593736086444
 31
0.0
  0
LINE
  5
2F4
330
221
100
AcDbEntity
  8
0
  6
CONTINUOUS
 62
     2
100
AcDbLine
 10
352.6455579017174
 20
7.000759538086445
 30
0.0
 11
353.2352600501174
 21
7.000759538086445
 31
0.0
  0
LWPOLYLINE
  5
2F5
330
221
100
AcDbEntity
  8
0
  6
CONTINUOUS
 62
     2
100
AcDbPolyline
 90
       11
 70
     0
 43
0.0
 10
354.8077478431174
 20
6.229928544386443
 10
354.7094641517174
 20
6.075761063886443
 10
354.5129224037174
 20
5.921593583486445
 10
354.3163550208174
 20
6.075761063886443
 10
354.1197876380174
 20
6.384092820486444
 10
354.1197876380174
 20
6.692427781486444
 10
354.3163550208174
 20
7.000759538086445
 10
354.5129224037174
 20
7.154927018486443
 10
354.7094641517174
 20
7.000759538086445
 10
354.8077478431174
 20
6.692427781486444
 10
354.1197876380174
 20
6.692427781486444
  0
LWPOLYLINE
  5
2F6
330
221
100
AcDbEntity
  8
0
  6
CONTINUOUS
 62
     2
100
AcDbPolyline
 90
       10
 70
     0
 43
0.0
 10
356.4785449622174
 20
6.384092820486444
 10
356.2819775794174
 20
6.075761063886443
 10
356.0854101966174
 20
5.921593583486445
 10
355.8888428138174
 20
6.075761063886443
 10
355.6923010658174
 20
6.384092820486444
 10
355.6923010658174
 20
6.692427781486444
 10
355.8888428138174
 20
7.000759538086445
 10
356.0854101966174
 20
7.154927018486443
 10
356.2819775794174
 20
7.000759538086445
 10
356.4785449622174
 20
6.692427781486444
  0
LWPOLYLINE
  5
2F7
330
221
100
AcDbEntity
  8
0
  6
CONTINUOUS
 62
     2
100
AcDbPolyline
 90
        6
 70
     0
 43
0.0
 10
356.4785449622174
 20
7.154927018486443
 10
356.4785449622174
 20
5.767426102986445
 10
356.3802612708174
 20
5.459094346386443
 10
356.2819775794174
 20
5.304926865886443
 10
355.8888428138174
 20
5.304926865886443
 10
355.7905591224174
 20
5.459094346386443
  0
LINE
  5
2F8
330
221
100
AcDbEntity
  8
0
  6
CONTINUOUS
 62
     2
100
AcDbLine
 10
357.3630725501174
 20
5.921593583486445
 30
0.0
 11
357.3630725501174
 21
7.154927018486443
 31
0.0
  0
LWPOLYLINE
  5
2F9
330
221
100
AcDbEntity
  8
0
  6
CONTINUOUS
 62
     2
100
AcDbPolyline
 90
        4
 70
     0
 43
0.0
 10
357.3630725501174
 20
6.846595261886442
 10
357.5596399329174
 20
7.154927018486443
 10
357.7562073158174
 20
7.154927018486443
 10
357.8544653724174
 20
7.000759538086445
  0
LWPOLYLINE
  5
2FA
330
221
100
AcDbEntity
  8
0
  6
CONTINUOUS
 62
     2
100
AcDbPolyline
 90
       10
 70
     0
 43
0.0
 10
359.6235461829174
 20
6.384092820486444
 10
359.4269788001174
 20
6.075761063886443
 10
359.2304114173174
 20
5.921593583486445
 10
359.0338440345174
 20
6.075761063886443
 10
358.8372766517174
 20
6.384092820486444
 10
358.8372766517174
 20
6.692427781486444
 10
359.0338440345174
 20
7.000759538086445
 10
359.2304114173174
 20
7.154927018486443
 10
359.4269788001174
 20
7.000759538086445
 10
359.6235461829174
 20
6.692427781486444
  0
LINE
  5
2FB
330
221
100
AcDbEntity
  8
0
  6
CONTINUOUS
 62
     2
100
AcDbLine
 10
359.6235461829174
 20
7.154927018486443
 30
0.0
 11
359.6235461829174
 21
5.921593583486445
 31
0.0
  0
LINE
  5
2FC
330
221
100
AcDbEntity
  8
0
  6
CONTINUOUS
 62
     2
100
AcDbLine
 10
360.8029248451174
 20
5.921593583486445
 30
0.0
 11
360.8029248451174
 21
7.771593736086444
 31
0.0
  0
LWPOLYLINE
  5
2FD
330
221
100
AcDbEntity
  8
0
  6
CONTINUOUS
 62
     2
100
AcDbPolyline
 90
       11
 70
     0
 43
0.0
 10
364.3410351966174
 20
6.384092820486444
 10
364.1444678138174
 20
6.075761063886443
 10
363.9479260658174
 20
5.921593583486445
 10
363.7513586829174
 20
6.075761063886443
 10
363.5547913001174
 20
6.384092820486444
 10
363.5547913001174
 20
6.692427781486444
 10
363.7513586829174
 20
7.000759538086445
 10
363.9479260658174
 20
7.154927018486443
 10
364.1444678138174
 20
7.000759538086445
 10
364.3410351966174
 20
6.692427781486444
 10
364.3410351966174
 20
6.384092820486444
  0
LINE
  5
2FE
330
221
100
AcDbEntity
  8
0
  6
CONTINUOUS
 62
     2
100
AcDbLine
 10
365.2255627845174
 20
5.921593583486445
 30
0.0
 11
365.2255627845174
 21
7.154927018486443
 31
0.0
  0
LWPOLYLINE
  5
2FF
330
221
100
AcDbEntity
  8
0
  6
CONTINUOUS
 62
     2
100
AcDbPolyline
 90
        4
 70
     0
 43
0.0
 10
365.2255627845174
 20
6.846595261886442
 10
365.4221301673174
 20
7.154927018486443
 10
365.6186975501174
 20
7.154927018486443
 10
365.7169812415174
 20
7.000759538086445
  0
LWPOLYLINE
  5
300
330
221
100
AcDbEntity
  8
0
  6
CONTINUOUS
 62
     2
100
AcDbPolyline
 90
       10
 70
     0
 43
0.0
 10
368.2722803138174
 20
6.692427781486444
 10
368.4688476966174
 20
7.000759538086445
 10
368.6654150794174
 20
7.154927018486443
 10
368.8619824622174
 20
7.000759538086445
 10
369.0585498451174
 20
6.692427781486444
 10
369.0585498451174
 20
6.384092820486444
 10
368.8619824622174
 20
6.075761063886443
 10
368.6654150794174
 20
5.921593583486445
 10
368.4688476966174
 20
5.921593583486445
 10
368.2722803138174
 20
6.384092820486444
  0
LINE
  5
301
330
221
100
AcDbEntity
  8
0
  6
CONTINUOUS
 62
     2
100
AcDbLine
 10
368.2722803138174
 20
7.154927018486443
 30
0.0
 11
368.2722803138174
 21
5.304926865886443
 31
0.0
  0
LWPOLYLINE
  5
302
330
221
100
AcDbEntity
  8
0
  6
CONTINUOUS
 62
     2
100
AcDbPolyline
 90
       10
 70
     0
 43
0.0
 10
370.6310376380174
 20
6.384092820486444
 10
370.4344702552174
 20
6.075761063886443
 10
370.2379028724174
 20
5.921593583486445
 10
370.0413611244174
 20
6.075761063886443
 10
369.8447937415174
 20
6.384092820486444
 10
369.8447937415174
 20
6.692427781486444
 10
370.0413611244174
 20
7.000759538086445
 10
370.2379028724174
 20
7.154927018486443
 10
370.4344702552174
 20
7.000759538086445
 10
370.6310376380174
 20
6.692427781486444
  0
LINE
  5
303
330
221
100
AcDbEntity
  8
0
  6
CONTINUOUS
 62
     2
100
AcDbLine
 10
370.6310376380174
 20
7.154927018486443
 30
0.0
 11
370.6310376380174
 21
5.921593583486445
 31
0.0
  0
LINE
  5
304
330
221
100
AcDbEntity
  8
0
  6
CONTINUOUS
 62
     2
100
AcDbLine
 10
371.5155652259174
 20
5.921593583486445
 30
0.0
 11
371.5155652259174
 21
7.154927018486443
 31
0.0
  0
LWPOLYLINE
  5
305
330
221
100
AcDbEntity
  8
0
  6
CONTINUOUS
 62
     2
100
AcDbPolyline
 90
        4
 70
     0
 43
0.0
 10
371.5155652259174
 20
6.846595261886442
 10
371.7121326087174
 20
7.154927018486443
 10
371.9086999915174
 20
7.154927018486443
 10
372.0069836829174
 20
7.000759538086445
  0
LINE
  5
306
330
221
100
AcDbEntity
  8
0
  6
CONTINUOUS
 62
     2
100
AcDbLine
 10
373.3829040931174
 20
5.921593583486445
 30
0.0
 11
373.3829040931174
 21
7.771593736086444
 31
0.0
  0
LINE
  5
307
330
221
100
AcDbEntity
  8
0
  6
CONTINUOUS
 62
     2
100
AcDbLine
 10
373.0880786537174
 20
7.000759538086445
 30
0.0
 11
373.6777551673174
 21
7.000759538086445
 31
0.0
  0
LINE
  5
308
330
221
100
AcDbEntity
  8
0
  6
CONTINUOUS
 62
     2
100
AcDbLine
 10
374.9554175208174
 20
7.771593736086444
 30
0.0
 11
374.9554175208174
 21
7.617426255586444
 31
0.0
  0
LINE
  5
309
330
221
100
AcDbEntity
  8
0
  6
CONTINUOUS
 62
     2
100
AcDbLine
 10
374.9554175208174
 20
7.154927018486443
 30
0.0
 11
374.9554175208174
 21
5.921593583486445
 31
0.0
  0
LWPOLYLINE
  5
30A
330
221
100
AcDbEntity
  8
0
  6
CONTINUOUS
 62
     2
100
AcDbPolyline
 90
       10
 70
     0
 43
0.0
 10
376.9210400794174
 20
6.384092820486444
 10
376.7244726966174
 20
6.075761063886443
 10
376.5279053138174
 20
5.921593583486445
 10
376.3313635658174
 20
6.075761063886443
 10
376.1347961829174
 20
6.384092820486444
 10
376.1347961829174
 20
6.692427781486444
 10
376.3313635658174
 20
7.000759538086445
 10
376.5279053138174
 20
7.154927018486443
 10
376.7244726966174
 20
7.000759538086445
 10
376.9210400794174
 20
6.692427781486444
  0
LINE
  5
30B
330
221
100
AcDbEntity
  8
0
  6
CONTINUOUS
 62
     2
100
AcDbLine
 10
376.9210400794174
 20
7.154927018486443
 30
0.0
 11
376.9210400794174
 21
5.921593583486445
 31
0.0
  0
LINE
  5
30C
330
221
100
AcDbEntity
  8
0
  6
CONTINUOUS
 62
     2
100
AcDbLine
 10
378.1004187415174
 20
5.921593583486445
 30
0.0
 11
378.1004187415174
 21
7.771593736086444
 31
0.0
  0
LINE
  5
30D
330
221
100
AcDbEntity
  8
0
  6
CONTINUOUS
 62
     2
100
AcDbLine
 10
380.9505688880174
 20
5.921593583486445
 30
0.0
 11
380.9505688880174
 21
7.154927018486443
 31
0.0
  0
LWPOLYLINE
  5
30E
330
221
100
AcDbEntity
  8
0
  6
CONTINUOUS
 62
     2
100
AcDbPolyline
 90
        4
 70
     0
 43
0.0
 10
380.9505688880174
 20
6.846595261886442
 10
381.1471362708174
 20
7.154927018486443
 10
381.3437036537174
 20
7.154927018486443
 10
381.4419873451174
 20
7.000759538086445
  0
LWPOLYLINE
  5
30F
330
221
100
AcDbEntity
  8
0
  6
CONTINUOUS
 62
     2
100
AcDbPolyline
 90
       11
 70
     0
 43
0.0
 10
383.1127588294174
 20
6.229928544386443
 10
383.0144751380174
 20
6.075761063886443
 10
382.8179077552174
 20
5.921593583486445
 10
382.6213403724174
 20
6.075761063886443
 10
382.4247986244173
 20
6.384092820486444
 10
382.4247986244173
 20
6.692427781486444
 10
382.6213403724174
 20
7.000759538086445
 10
382.8179077552174
 20
7.154927018486443
 10
383.0144751380174
 20
7.000759538086445
 10
383.1127588294174
 20
6.692427781486444
 10
382.4247986244173
 20
6.692427781486444
  0
LWPOLYLINE
  5
310
330
221
100
AcDbEntity
  8
0
  6
CONTINUOUS
 62
     2
100
AcDbPolyline
 90
       10
 70
     0
 43
0.0
 10
383.9972864173174
 20
6.692427781486444
 10
384.1938538001174
 20
7.000759538086445
 10
384.3904211829174
 20
7.154927018486443
 10
384.5869885658174
 20
7.000759538086445
 10
384.7835303138174
 20
6.692427781486444
 10
384.7835303138174
 20
6.384092820486444
 10
384.5869885658174
 20
6.075761063886443
 10
384.3904211829174
 20
5.921593583486445
 10
384.1938538001174
 20
5.921593583486445
 10
383.9972864173174
 20
6.384092820486444
  0
LINE
  5
311
330
221
100
AcDbEntity
  8
0
  6
CONTINUOUS
 62
     2
100
AcDbLine
 10
383.9972864173174
 20
7.154927018486443
 30
0.0
 11
383.9972864173174
 21
5.304926865886443
 31
0.0
  0
LINE
  5
312
330
221
100
AcDbEntity
  8
0
  6
CONTINUOUS
 62
     2
100
AcDbLine
 10
385.6680579017174
 20
5.921593583486445
 30
0.0
 11
385.6680579017174
 21
7.154927018486443
 31
0.0
  0
LWPOLYLINE
  5
313
330
221
100
AcDbEntity
  8
0
  6
CONTINUOUS
 62
     2
100
AcDbPolyline
 90
        4
 70
     0
 43
0.0
 10
385.6680579017174
 20
6.846595261886442
 10
385.8646252845174
 20
7.154927018486443
 10
386.0611926673174
 20
7.154927018486443
 10
386.1594763587174
 20
7.000759538086445
  0
LWPOLYLINE
  5
314
330
221
100
AcDbEntity
  8
0
  6
CONTINUOUS
 62
     2
100
AcDbPolyline
 90
       11
 70
     0
 43
0.0
 10
387.9285315345174
 20
6.384092820486444
 10
387.7319641517174
 20
6.075761063886443
 10
387.5354224037174
 20
5.921593583486445
 10
387.3388550208174
 20
6.075761063886443
 10
387.1422876380174
 20
6.384092820486444
 10
387.1422876380174
 20
6.692427781486444
 10
387.3388550208174
 20
7.000759538086445
 10
387.5354224037174
 20
7.154927018486443
 10
387.7319641517174
 20
7.000759538086445
 10
387.9285315345174
 20
6.692427781486444
 10
387.9285315345174
 20
6.384092820486444
  0
LWPOLYLINE
  5
315
330
221
100
AcDbEntity
  8
0
  6
CONTINUOUS
 62
     2
100
AcDbPolyline
 90
       10
 70
     0
 43
0.0
 10
389.5010449622173
 20
6.384092820486444
 10
389.3044775794174
 20
6.075761063886443
 10
389.1079101966174
 20
5.921593583486445
 10
388.9113428138174
 20
6.075761063886443
 10
388.7148010658174
 20
6.384092820486444
 10
388.7148010658174
 20
6.692427781486444
 10
388.9113428138174
 20
7.000759538086445
 10
389.1079101966174
 20
7.154927018486443
 10
389.3044775794174
 20
7.000759538086445
 10
389.5010449622173
 20
6.692427781486444
  0
LINE
  5
316
330
221
100
AcDbEntity
  8
0
  6
CONTINUOUS
 62
     2
100
AcDbLine
 10
389.5010449622173
 20
7.771593736086444
 30
0.0
 11
389.5010449622173
 21
5.921593583486445
 31
0.0
  0
LWPOLYLINE
  5
317
330
221
100
AcDbEntity
  8
0
  6
CONTINUOUS
 62
     2
100
AcDbPolyline
 90
        5
 70
     0
 43
0.0
 10
390.3855725501174
 20
7.154927018486443
 10
390.3855725501174
 20
6.229928544386443
 10
390.5821399330174
 20
5.921593583486445
 10
390.7787073158174
 20
5.921593583486445
 10
390.9752490638174
 20
6.229928544386443
  0
LINE
  5
318
330
221
100
AcDbEntity
  8
0
  6
CONTINUOUS
 62
     2
100
AcDbLine
 10
390.9752490638174
 20
7.154927018486443
 30
0.0
 11
390.9752490638174
 21
5.921593583486445
 31
0.0
  0
LWPOLYLINE
  5
319
330
221
100
AcDbEntity
  8
0
  6
CONTINUOUS
 62
     2
100
AcDbPolyline
 90
        8
 70
     0
 43
0.0
 10
392.4494788001174
 20
6.075761063886443
 10
392.2529114173174
 20
5.921593583486445
 10
392.0563440345174
 20
6.075761063886443
 10
391.8597766517174
 20
6.384092820486444
 10
391.8597766517174
 20
6.692427781486444
 10
392.0563440345174
 20
7.000759538086445
 10
392.2529114173174
 20
7.154927018486443
 10
392.4494788001174
 20
7.000759538086445
  0
LINE
  5
31A
330
221
100
AcDbEntity
  8
0
  6
CONTINUOUS
 62
     2
100
AcDbLine
 10
393.8254248451174
 20
5.921593583486445
 30
0.0
 11
393.8254248451174
 21
7.771593736086444
 31
0.0
  0
LINE
  5
31B
330
221
100
AcDbEntity
  8
0
  6
CONTINUOUS
 62
     2
100
AcDbLine
 10
393.5305737708174
 20
7.000759538086445
 30
0.0
 11
394.1202502845174
 21
7.000759538086445
 31
0.0
  0
LINE
  5
31C
330
221
100
AcDbEntity
  8
0
  6
CONTINUOUS
 62
     2
100
AcDbLine
 10
395.3979126380174
 20
7.771593736086444
 30
0.0
 11
395.3979126380174
 21
7.617426255586444
 31
0.0
  0
LINE
  5
31D
330
221
100
AcDbEntity
  8
0
  6
CONTINUOUS
 62
     2
100
AcDbLine
 10
395.3979126380174
 20
7.154927018486443
 30
0.0
 11
395.3979126380174
 21
5.921593583486445
 31
0.0
  0
LWPOLYLINE
  5
31E
330
221
100
AcDbEntity
  8
0
  6
CONTINUOUS
 62
     2
100
AcDbPolyline
 90
       11
 70
     0
 43
0.0
 10
397.3635351966174
 20
6.384092820486444
 10
397.1669678138174
 20
6.075761063886443
 10
396.9704260658174
 20
5.921593583486445
 10
396.7738586830174
 20
6.075761063886443
 10
396.5772913001174
 20
6.384092820486444
 10
396.5772913001174
 20
6.692427781486444
 10
396.7738586830174
 20
7.000759538086445
 10
396.9704260658174
 20
7.154927018486443
 10
397.1669678138174
 20
7.000759538086445
 10
397.3635351966174
 20
6.692427781486444
 10
397.3635351966174
 20
6.384092820486444
  0
LINE
  5
31F
330
221
100
AcDbEntity
  8
0
  6
CONTINUOUS
 62
     2
100
AcDbLine
 10
398.2480627845174
 20
5.921593583486445
 30
0.0
 11
398.2480627845174
 21
7.154927018486443
 31
0.0
  0
LWPOLYLINE
  5
320
330
221
100
AcDbEntity
  8
0
  6
CONTINUOUS
 62
     2
100
AcDbPolyline
 90
        5
 70
     0
 43
0.0
 10
398.2480627845174
 20
6.846595261886442
 10
398.4446301673174
 20
7.154927018486443
 10
398.6411975501174
 20
7.154927018486443
 10
398.8377649330174
 20
6.846595261886442
 10
398.8377649330174
 20
5.921593583486445
  0
LWPOLYLINE
  5
321
330
221
100
AcDbEntity
  8
0
  6
CONTINUOUS
 62
     2
100
AcDbPolyline
 90
       14
 70
     0
 43
0.0
 10
400.3119690345174
 20
7.000759538086445
 10
400.2136853431174
 20
7.154927018486443
 10
400.0171435951174
 20
7.154927018486443
 10
399.9188599037174
 20
7.000759538086445
 10
399.9188599037174
 20
6.846595261886442
 10
400.1154016517174
 20
6.692427781486444
 10
400.3119690345174
 20
6.538260300986444
 10
400.4102527259174
 20
6.384092820486444
 10
400.4102527259174
 20
6.229928544386443
 10
400.3119690345174
 20
6.075761063886443
 10
400.2136853431174
 20
5.921593583486445
 10
400.0171435951174
 20
5.921593583486445
 10
399.9188599037174
 20
6.075761063886443
 10
399.8205762122174
 20
6.229928544386443
  0
LWPOLYLINE
  5
322
330
221
100
AcDbEntity
  8
0
  6
CONTINUOUS
 62
     2
100
AcDbPolyline
 90
       10
 70
     0
 43
0.0
 10
403.6535376380174
 20
6.384092820486444
 10
403.4569702552174
 20
6.075761063886443
 10
403.2604028724174
 20
5.921593583486445
 10
403.0638611244174
 20
6.075761063886443
 10
402.8672937415174
 20
6.384092820486444
 10
402.8672937415174
 20
6.692427781486444
 10
403.0638611244174
 20
7.000759538086445
 10
403.2604028724174
 20
7.154927018486443
 10
403.4569702552174
 20
7.000759538086445
 10
403.6535376380174
 20
6.692427781486444
  0
LINE
  5
323
330
221
100
AcDbEntity
  8
0
  6
CONTINUOUS
 62
     2
100
AcDbLine
 10
403.6535376380174
 20
7.154927018486443
 30
0.0
 11
403.6535376380174
 21
5.921593583486445
 31
0.0
  0
LINE
  5
324
330
221
100
AcDbEntity
  8
0
  6
CONTINUOUS
 62
     2
100
AcDbLine
 10
404.5380652259174
 20
5.921593583486445
 30
0.0
 11
404.5380652259174
 21
7.154927018486443
 31
0.0
  0
LWPOLYLINE
  5
325
330
221
100
AcDbEntity
  8
0
  6
CONTINUOUS
 62
     2
100
AcDbPolyline
 90
        4
 70
     0
 43
0.0
 10
404.5380652259174
 20
6.846595261886442
 10
404.7346326087174
 20
7.154927018486443
 10
404.9311999915174
 20
7.154927018486443
 10
405.0294836829174
 20
7.000759538086445
  0
LWPOLYLINE
  5
326
330
221
100
AcDbEntity
  8
0
  6
CONTINUOUS
 62
     2
100
AcDbPolyline
 90
       11
 70
     0
 43
0.0
 10
406.7002551673174
 20
6.229928544386443
 10
406.6019714759174
 20
6.075761063886443
 10
406.4054040931174
 20
5.921593583486445
 10
406.2088623451174
 20
6.075761063886443
 10
406.0122949622174
 20
6.384092820486444
 10
406.0122949622174
 20
6.692427781486444
 10
406.2088623451174
 20
7.000759538086445
 10
406.4054040931174
 20
7.154927018486443
 10
406.6019714759174
 20
7.000759538086445
 10
406.7002551673174
 20
6.692427781486444
 10
406.0122949622174
 20
6.692427781486444
  0
LWPOLYLINE
  5
327
330
221
100
AcDbEntity
  8
0
  6
CONTINUOUS
 62
     2
100
AcDbPolyline
 90
       10
 70
     0
 43
0.0
 10
409.1572961829174
 20
6.692427781486444
 10
409.3538635658174
 20
7.000759538086445
 10
409.5504053138174
 20
7.154927018486443
 10
409.7469726966174
 20
7.000759538086445
 10
409.9435400794174
 20
6.692427781486444
 10
409.9435400794174
 20
6.384092820486444
 10
409.7469726966174
 20
6.075761063886443
 10
409.5504053138174
 20
5.921593583486445
 10
409.3538635658174
 20
5.921593583486445
 10
409.1572961829174
 20
6.384092820486444
  0
LINE
  5
328
330
221
100
AcDbEntity
  8
0
  6
CONTINUOUS
 62
     2
100
AcDbLine
 10
409.1572961829174
 20
7.154927018486443
 30
0.0
 11
409.1572961829174
 21
5.304926865886443
 31
0.0
  0
LINE
  5
329
330
221
100
AcDbEntity
  8
0
  6
CONTINUOUS
 62
     2
100
AcDbLine
 10
410.8280676673174
 20
5.921593583486445
 30
0.0
 11
410.8280676673174
 21
7.154927018486443
 31
0.0
  0
LWPOLYLINE
  5
32A
330
221
100
AcDbEntity
  8
0
  6
CONTINUOUS
 62
     2
100
AcDbPolyline
 90
        4
 70
     0
 43
0.0
 10
410.8280676673174
 20
6.846595261886442
 10
411.0246350501174
 20
7.154927018486443
 10
411.2212024329174
 20
7.154927018486443
 10
411.3194861244174
 20
7.000759538086445
  0
LWPOLYLINE
  5
32B
330
221
100
AcDbEntity
  8
0
  6
CONTINUOUS
 62
     2
100
AcDbPolyline
 90
       11
 70
     0
 43
0.0
 10
413.0885413001174
 20
6.384092820486444
 10
412.8919739173174
 20
6.075761063886443
 10
412.6954065345174
 20
5.921593583486445
 10
412.4988391517174
 20
6.075761063886443
 10
412.3022974037174
 20
6.384092820486444
 10
412.3022974037174
 20
6.692427781486444
 10
412.4988391517174
 20
7.000759538086445
 10
412.6954065345174
 20
7.154927018486443
 10
412.8919739173174
 20
7.000759538086445
 10
413.0885413001174
 20
6.692427781486444
 10
413.0885413001174
 20
6.384092820486444
  0
LINE
  5
32C
330
221
100
AcDbEntity
  8
0
  6
CONTINUOUS
 62
     2
100
AcDbLine
 10
413.9730688880174
 20
5.921593583486445
 30
0.0
 11
413.9730688880174
 21
7.771593736086444
 31
0.0
  0
LWPOLYLINE
  5
32D
330
221
100
AcDbEntity
  8
0
  6
CONTINUOUS
 62
     2
100
AcDbPolyline
 90
        7
 70
     0
 43
0.0
 10
413.9730688880174
 20
6.846595261886442
 10
413.9730688880174
 20
7.000759538086445
 10
414.1696362708174
 20
7.154927018486443
 10
414.2679199622174
 20
7.154927018486443
 10
414.3662036537174
 20
7.154927018486443
 10
414.5627454017174
 20
6.846595261886442
 10
414.5627454017174
 20
5.921593583486445
  0
LINE
  5
32E
330
221
100
AcDbEntity
  8
0
  6
CONTINUOUS
 62
     2
100
AcDbLine
 10
415.8404077552174
 20
7.771593736086444
 30
0.0
 11
415.8404077552174
 21
7.617426255586444
 31
0.0
  0
LINE
  5
32F
330
221
100
AcDbEntity
  8
0
  6
CONTINUOUS
 62
     2
100
AcDbLine
 10
415.8404077552174
 20
7.154927018486443
 30
0.0
 11
415.8404077552174
 21
5.921593583486445
 31
0.0
  0
LWPOLYLINE
  5
330
330
221
100
AcDbEntity
  8
0
  6
CONTINUOUS
 62
     2
100
AcDbPolyline
 90
       10
 70
     0
 43
0.0
 10
417.0197864173174
 20
6.692427781486444
 10
417.2163538001174
 20
7.000759538086445
 10
417.4129211829174
 20
7.154927018486443
 10
417.6094885658174
 20
7.000759538086445
 10
417.8060303138174
 20
6.692427781486444
 10
417.8060303138174
 20
6.384092820486444
 10
417.6094885658174
 20
6.075761063886443
 10
417.4129211829174
 20
5.921593583486445
 10
417.2163538001174
 20
6.075761063886443
 10
417.0197864173174
 20
6.384092820486444
  0
LINE
  5
331
330
221
100
AcDbEntity
  8
0
  6
CONTINUOUS
 62
     2
100
AcDbLine
 10
417.0197864173174
 20
7.771593736086444
 30
0.0
 11
417.0197864173174
 21
5.921593583486445
 31
0.0
  0
LINE
  5
332
330
221
100
AcDbEntity
  8
0
  6
CONTINUOUS
 62
     2
100
AcDbLine
 10
418.9854089759174
 20
7.771593736086444
 30
0.0
 11
418.9854089759174
 21
7.617426255586444
 31
0.0
  0
LINE
  5
333
330
221
100
AcDbEntity
  8
0
  6
CONTINUOUS
 62
     2
100
AcDbLine
 10
418.9854089759174
 20
7.154927018486443
 30
0.0
 11
418.9854089759174
 21
5.921593583486445
 31
0.0
  0
LINE
  5
334
330
221
100
AcDbEntity
  8
0
  6
CONTINUOUS
 62
     2
100
AcDbLine
 10
420.5579224037174
 20
5.921593583486445
 30
0.0
 11
420.5579224037174
 21
7.771593736086444
 31
0.0
  0
LINE
  5
335
330
221
100
AcDbEntity
  8
0
  6
CONTINUOUS
 62
     2
100
AcDbLine
 10
420.2630713294174
 20
7.000759538086445
 30
0.0
 11
420.8527478431174
 21
7.000759538086445
 31
0.0
  0
LWPOLYLINE
  5
336
330
221
100
AcDbEntity
  8
0
  6
CONTINUOUS
 62
     2
100
AcDbPolyline
 90
       11
 70
     0
 43
0.0
 10
422.4252612708174
 20
6.229928544386443
 10
422.3269775794174
 20
6.075761063886443
 10
422.1304101966174
 20
5.921593583486445
 10
421.9338428138174
 20
6.075761063886443
 10
421.7373010658174
 20
6.384092820486444
 10
421.7373010658174
 20
6.692427781486444
 10
421.9338428138174
 20
7.000759538086445
 10
422.1304101966174
 20
7.154927018486443
 10
422.3269775794174
 20
7.000759538086445
 10
422.4252612708174
 20
6.692427781486444
 10
421.7373010658174
 20
6.692427781486444
  0
LWPOLYLINE
  5
337
330
221
100
AcDbEntity
  8
0
  6
CONTINUOUS
 62
     2
100
AcDbPolyline
 90
       10
 70
     0
 43
0.0
 10
424.0960327552174
 20
6.384092820486444
 10
423.8994653724174
 20
6.075761063886443
 10
423.7029236244174
 20
5.921593583486445
 10
423.5063562415174
 20
6.075761063886443
 10
423.3097888587174
 20
6.384092820486444
 10
423.3097888587174
 20
6.692427781486444
 10
423.5063562415174
 20
7.000759538086445
 10
423.7029236244174
 20
7.154927018486443
 10
423.8994653724174
 20
7.000759538086445
 10
424.0960327552174
 20
6.692427781486444
  0
LINE
  5
338
330
221
100
AcDbEntity
  8
0
  6
CONTINUOUS
 62
     2
100
AcDbLine
 10
424.0960327552174
 20
7.771593736086444
 30
0.0
 11
424.0960327552174
 21
5.921593583486445
 31
0.0
  0
LWPOLYLINE
  5
339
330
221
100
AcDbEntity
  8
0
  6
CONTINUOUS
 62
     2
100
AcDbPolyline
 90
        5
 70
     0
 43
0.0
 10
343.0140124915174
 20
4.379928391786443
 10
343.2105798744174
 20
3.146594956786444
 10
343.5054053138174
 20
4.379928391786443
 10
343.7019726966174
 20
3.146594956786444
 10
343.9968237708174
 20
4.379928391786443
  0
LINE
  5
33A
330
221
100
AcDbEntity
  8
0
  6
CONTINUOUS
 62
     2
100
AcDbLine
 10
345.0779187415174
 20
4.996595109286442
 30
0.0
 11
345.0779187415174
 21
4.842427628886444
 31
0.0
  0
LINE
  5
33B
330
221
100
AcDbEntity
  8
0
  6
CONTINUOUS
 62
     2
100
AcDbLine
 10
345.0779187415174
 20
4.379928391786443
 30
0.0
 11
345.0779187415174
 21
3.146594956786444
 31
0.0
  0
LINE
  5
33C
330
221
100
AcDbEntity
  8
0
  6
CONTINUOUS
 62
     2
100
AcDbLine
 10
346.6504065345174
 20
3.146594956786444
 30
0.0
 11
346.6504065345174
 21
4.996595109286442
 31
0.0
  0
LINE
  5
33D
330
221
100
AcDbEntity
  8
0
  6
CONTINUOUS
 62
     2
100
AcDbLine
 10
346.3555810951174
 20
4.225760911286443
 30
0.0
 11
346.9452576087174
 21
4.225760911286443
 31
0.0
  0
LINE
  5
33E
330
221
100
AcDbEntity
  8
0
  6
CONTINUOUS
 62
     2
100
AcDbLine
 10
347.9280688880174
 20
3.146594956786444
 30
0.0
 11
347.9280688880174
 21
4.996595109286442
 31
0.0
  0
LWPOLYLINE
  5
33F
330
221
100
AcDbEntity
  8
0
  6
CONTINUOUS
 62
     2
100
AcDbPolyline
 90
        7
 70
     0
 43
0.0
 10
347.9280688880174
 20
4.071593430886445
 10
347.9280688880174
 20
4.225760911286443
 10
348.1246362708174
 20
4.379928391786443
 10
348.2229199622174
 20
4.379928391786443
 10
348.3212036537174
 20
4.379928391786443
 10
348.5177454017174
 20
4.071593430886445
 10
348.5177454017174
 20
3.146594956786444
  0
LWPOLYLINE
  5
340
330
221
100
AcDbEntity
  8
0
  6
CONTINUOUS
 62
     2
100
AcDbPolyline
 90
       11
 70
     0
 43
0.0
 10
350.1885425208174
 20
3.609094193786444
 10
349.9919751380174
 20
3.300759232886445
 10
349.7954077552174
 20
3.146594956786444
 10
349.5988403724174
 20
3.300759232886445
 10
349.4022986244174
 20
3.609094193786444
 10
349.4022986244174
 20
3.917425950386445
 10
349.5988403724174
 20
4.225760911286443
 10
349.7954077552174
 20
4.379928391786443
 10
349.9919751380174
 20
4.225760911286443
 10
350.1885425208174
 20
3.917425950386445
 10
350.1885425208174
 20
3.609094193786444
  0
LWPOLYLINE
  5
341
330
221
100
AcDbEntity
  8
0
  6
CONTINUOUS
 62
     2
100
AcDbPolyline
 90
        5
 70
     0
 43
0.0
 10
351.0730701087174
 20
4.379928391786443
 10
351.0730701087174
 20
3.454926713286444
 10
351.2696374915174
 20
3.146594956786444
 10
351.4662048744174
 20
3.146594956786444
 10
351.6627466224174
 20
3.454926713286444
  0
LINE
  5
342
330
221
100
AcDbEntity
  8
0
  6
CONTINUOUS
 62
     2
100
AcDbLine
 10
351.6627466224174
 20
4.379928391786443
 30
0.0
 11
351.6627466224174
 21
3.146594956786444
 31
0.0
  0
LINE
  5
343
330
221
100
AcDbEntity
  8
0
  6
CONTINUOUS
 62
     2
100
AcDbLine
 10
352.9404089759174
 20
3.146594956786444
 30
0.0
 11
352.9404089759174
 21
4.996595109286442
 31
0.0
  0
LINE
  5
344
330
221
100
AcDbEntity
  8
0
  6
CONTINUOUS
 62
     2
100
AcDbLine
 10
352.6455579017174
 20
4.225760911286443
 30
0.0
 11
353.2352600501174
 21
4.225760911286443
 31
0.0
  0
LWPOLYLINE
  5
345
330
221
100
AcDbEntity
  8
0
  6
CONTINUOUS
 62
     2
100
AcDbPolyline
 90
       10
 70
     0
 43
0.0
 10
355.6923010658174
 20
3.917425950386445
 10
355.8888428138174
 20
4.225760911286443
 10
356.0854101966174
 20
4.379928391786443
 10
356.2819775794174
 20
4.225760911286443
 10
356.4785449622174
 20
3.917425950386445
 10
356.4785449622174
 20
3.609094193786444
 10
356.2819775794174
 20
3.300759232886445
 10
356.0854101966174
 20
3.146594956786444
 10
355.8888428138174
 20
3.146594956786444
 10
355.6923010658174
 20
3.609094193786444
  0
LINE
  5
346
330
221
100
AcDbEntity
  8
0
  6
CONTINUOUS
 62
     2
100
AcDbLine
 10
355.6923010658174
 20
4.379928391786443
 30
0.0
 11
355.6923010658174
 21
2.529928239186443
 31
0.0
  0
LINE
  5
347
330
221
100
AcDbEntity
  8
0
  6
CONTINUOUS
 62
     2
100
AcDbLine
 10
357.3630725501174
 20
3.146594956786444
 30
0.0
 11
357.3630725501174
 21
4.379928391786443
 31
0.0
  0
LWPOLYLINE
  5
348
330
221
100
AcDbEntity
  8
0
  6
CONTINUOUS
 62
     2
100
AcDbPolyline
 90
        4
 70
     0
 43
0.0
 10
357.3630725501174
 20
4.071593430886445
 10
357.5596399329174
 20
4.379928391786443
 10
357.7562073158174
 20
4.379928391786443
 10
357.8544653724174
 20
4.225760911286443
  0
LINE
  5
349
330
221
100
AcDbEntity
  8
0
  6
CONTINUOUS
 62
     2
100
AcDbLine
 10
359.2304114173174
 20
4.996595109286442
 30
0.0
 11
359.2304114173174
 21
4.842427628886444
 31
0.0
  0
LINE
  5
34A
330
221
100
AcDbEntity
  8
0
  6
CONTINUOUS
 62
     2
100
AcDbLine
 10
359.2304114173174
 20
4.379928391786443
 30
0.0
 11
359.2304114173174
 21
3.146594956786444
 31
0.0
  0
LWPOLYLINE
  5
34B
330
221
100
AcDbEntity
  8
0
  6
CONTINUOUS
 62
     2
100
AcDbPolyline
 90
       11
 70
     0
 43
0.0
 10
361.1960339759174
 20
3.609094193786444
 10
360.9994665931174
 20
3.300759232886445
 10
360.8029248451174
 20
3.146594956786444
 10
360.6063574622174
 20
3.300759232886445
 10
360.4097900794174
 20
3.609094193786444
 10
360.4097900794174
 20
3.917425950386445
 10
360.6063574622174
 20
4.225760911286443
 10
360.8029248451174
 20
4.379928391786443
 10
360.9994665931174
 20
4.225760911286443
 10
361.1960339759174
 20
3.917425950386445
 10
361.1960339759174
 20
3.609094193786444
  0
LINE
  5
34C
330
221
100
AcDbEntity
  8
0
  6
CONTINUOUS
 62
     2
100
AcDbLine
 10
362.0805615638174
 20
3.146594956786444
 30
0.0
 11
362.0805615638174
 21
4.379928391786443
 31
0.0
  0
LWPOLYLINE
  5
34D
330
221
100
AcDbEntity
  8
0
  6
CONTINUOUS
 62
     2
100
AcDbPolyline
 90
        4
 70
     0
 43
0.0
 10
362.0805615638174
 20
4.071593430886445
 10
362.2771289466174
 20
4.379928391786443
 10
362.4736963294174
 20
4.379928391786443
 10
362.5719800208174
 20
4.225760911286443
  0
LWPOLYLINE
  5
34E
330
221
100
AcDbEntity
  8
0
  6
CONTINUOUS
 62
     2
100
AcDbPolyline
 90
       10
 70
     0
 43
0.0
 10
365.9135486244174
 20
3.609094193786444
 10
365.7169812415174
 20
3.300759232886445
 10
365.5204138587174
 20
3.146594956786444
 10
365.3238464759174
 20
3.300759232886445
 10
365.1272790931174
 20
3.609094193786444
 10
365.1272790931174
 20
3.917425950386445
 10
365.3238464759174
 20
4.225760911286443
 10
365.5204138587174
 20
4.379928391786443
 10
365.7169812415174
 20
4.225760911286443
 10
365.9135486244174
 20
3.917425950386445
  0
LINE
  5
34F
330
221
100
AcDbEntity
  8
0
  6
CONTINUOUS
 62
     2
100
AcDbLine
 10
365.9135486244174
 20
4.379928391786443
 30
0.0
 11
365.9135486244174
 21
3.146594956786444
 31
0.0
  0
LWPOLYLINE
  5
350
330
221
100
AcDbEntity
  8
0
  6
CONTINUOUS
 62
     2
100
AcDbPolyline
 90
        5
 70
     0
 43
0.0
 10
366.7980762122174
 20
4.379928391786443
 10
366.7980762122174
 20
3.454926713286444
 10
366.9946435951174
 20
3.146594956786444
 10
367.1911853431174
 20
3.146594956786444
 10
367.3877527259174
 20
3.454926713286444
  0
LINE
  5
351
330
221
100
AcDbEntity
  8
0
  6
CONTINUOUS
 62
     2
100
AcDbLine
 10
367.3877527259174
 20
4.379928391786443
 30
0.0
 11
367.3877527259174
 21
3.146594956786444
 31
0.0
  0
LINE
  5
352
330
221
100
AcDbEntity
  8
0
  6
CONTINUOUS
 62
     2
100
AcDbLine
 10
368.6654150794174
 20
3.146594956786444
 30
0.0
 11
368.6654150794174
 21
4.996595109286442
 31
0.0
  0
LINE
  5
353
330
221
100
AcDbEntity
  8
0
  6
CONTINUOUS
 62
     2
100
AcDbLine
 10
368.3705640052174
 20
4.225760911286443
 30
0.0
 11
368.9602661537174
 21
4.225760911286443
 31
0.0
  0
LINE
  5
354
330
221
100
AcDbEntity
  8
0
  6
CONTINUOUS
 62
     2
100
AcDbLine
 10
369.9430774329174
 20
3.146594956786444
 30
0.0
 11
369.9430774329174
 21
4.996595109286442
 31
0.0
  0
LWPOLYLINE
  5
355
330
221
100
AcDbEntity
  8
0
  6
CONTINUOUS
 62
     2
100
AcDbPolyline
 90
        7
 70
     0
 43
0.0
 10
369.9430774329174
 20
4.071593430886445
 10
369.9430774329174
 20
4.225760911286443
 10
370.1396448158174
 20
4.379928391786443
 10
370.2379028724174
 20
4.379928391786443
 10
370.3361865638174
 20
4.379928391786443
 10
370.5327539466174
 20
4.071593430886445
 10
370.5327539466174
 20
3.146594956786444
  0
LWPOLYLINE
  5
356
330
221
100
AcDbEntity
  8
0
  6
CONTINUOUS
 62
     2
100
AcDbPolyline
 90
       11
 70
     0
 43
0.0
 10
372.2035510658174
 20
3.609094193786444
 10
372.0069836829174
 20
3.300759232886445
 10
371.8104163001174
 20
3.146594956786444
 10
371.6138489173174
 20
3.300759232886445
 10
371.4172815345174
 20
3.609094193786444
 10
371.4172815345174
 20
3.917425950386445
 10
371.6138489173174
 20
4.225760911286443
 10
371.8104163001174
 20
4.379928391786443
 10
372.0069836829174
 20
4.225760911286443
 10
372.2035510658174
 20
3.917425950386445
 10
372.2035510658174
 20
3.609094193786444
  0
LINE
  5
357
330
221
100
AcDbEntity
  8
0
  6
CONTINUOUS
 62
     2
100
AcDbLine
 10
373.0880786537174
 20
3.146594956786444
 30
0.0
 11
373.0880786537174
 21
4.379928391786443
 31
0.0
  0
LWPOLYLINE
  5
358
330
221
100
AcDbEntity
  8
0
  6
CONTINUOUS
 62
     2
100
AcDbPolyline
 90
        4
 70
     0
 43
0.0
 10
373.0880786537174
 20
4.071593430886445
 10
373.2846204017174
 20
4.379928391786443
 10
373.4811877845174
 20
4.379928391786443
 10
373.5794714759174
 20
4.225760911286443
  0
LINE
  5
359
330
221
100
AcDbEntity
  8
0
  6
CONTINUOUS
 62
     2
100
AcDbLine
 10
374.9554175208174
 20
4.996595109286442
 30
0.0
 11
374.9554175208174
 21
4.842427628886444
 31
0.0
  0
LINE
  5
35A
330
221
100
AcDbEntity
  8
0
  6
CONTINUOUS
 62
     2
100
AcDbLine
 10
374.9554175208174
 20
4.379928391786443
 30
0.0
 11
374.9554175208174
 21
3.146594956786444
 31
0.0
  0
LWPOLYLINE
  5
35B
330
221
100
AcDbEntity
  8
0
  6
CONTINUOUS
 62
     2
100
AcDbPolyline
 90
       14
 70
     0
 43
0.0
 10
376.7244726966174
 20
4.225760911286443
 10
376.6261890052174
 20
4.379928391786443
 10
376.4296216224174
 20
4.379928391786443
 10
376.3313635658174
 20
4.225760911286443
 10
376.3313635658174
 20
4.071593430886445
 10
376.5279053138174
 20
3.917425950386445
 10
376.7244726966174
 20
3.763261674286444
 10
376.8227563880174
 20
3.609094193786444
 10
376.8227563880174
 20
3.454926713286444
 10
376.7244726966174
 20
3.300759232886445
 10
376.6261890052174
 20
3.146594956786444
 10
376.4296216224174
 20
3.146594956786444
 10
376.3313635658174
 20
3.300759232886445
 10
376.2330798744174
 20
3.454926713286444
  0
LWPOLYLINE
  5
35C
330
221
100
AcDbEntity
  8
0
  6
CONTINUOUS
 62
     2
100
AcDbPolyline
 90
       10
 70
     0
 43
0.0
 10
378.4935278724174
 20
3.609094193786444
 10
378.2969861244174
 20
3.300759232886445
 10
378.1004187415174
 20
3.146594956786444
 10
377.9038513587174
 20
3.300759232886445
 10
377.7072839759174
 20
3.609094193786444
 10
377.7072839759174
 20
3.917425950386445
 10
377.9038513587174
 20
4.225760911286443
 10
378.1004187415174
 20
4.379928391786443
 10
378.2969861244174
 20
4.225760911286443
 10
378.4935278724174
 20
3.917425950386445
  0
LINE
  5
35D
330
221
100
AcDbEntity
  8
0
  6
CONTINUOUS
 62
     2
100
AcDbLine
 10
378.4935278724174
 20
4.379928391786443
 30
0.0
 11
378.4935278724174
 21
3.146594956786444
 31
0.0
  0
LINE
  5
35E
330
221
100
AcDbEntity
  8
0
  6
CONTINUOUS
 62
     2
100
AcDbLine
 10
379.6729065345174
 20
3.146594956786444
 30
0.0
 11
379.6729065345174
 21
4.996595109286442
 31
0.0
  0
LINE
  5
35F
330
221
100
AcDbEntity
  8
0
  6
CONTINUOUS
 62
     2
100
AcDbLine
 10
379.3780810951174
 20
4.225760911286443
 30
0.0
 11
379.9677576087174
 21
4.225760911286443
 31
0.0
  0
LINE
  5
360
330
221
100
AcDbEntity
  8
0
  6
CONTINUOUS
 62
     2
100
AcDbLine
 10
381.2454199622174
 20
4.996595109286442
 30
0.0
 11
381.2454199622174
 21
4.842427628886444
 31
0.0
  0
LINE
  5
361
330
221
100
AcDbEntity
  8
0
  6
CONTINUOUS
 62
     2
100
AcDbLine
 10
381.2454199622174
 20
4.379928391786443
 30
0.0
 11
381.2454199622174
 21
3.146594956786444
 31
0.0
  0
LWPOLYLINE
  5
362
330
221
100
AcDbEntity
  8
0
  6
CONTINUOUS
 62
     2
100
AcDbPolyline
 90
       11
 70
     0
 43
0.0
 10
383.2110425208174
 20
3.609094193786444
 10
383.0144751380174
 20
3.300759232886445
 10
382.8179077552174
 20
3.146594956786444
 10
382.6213403724174
 20
3.300759232886445
 10
382.4247986244173
 20
3.609094193786444
 10
382.4247986244173
 20
3.917425950386445
 10
382.6213403724174
 20
4.225760911286443
 10
382.8179077552174
 20
4.379928391786443
 10
383.0144751380174
 20
4.225760911286443
 10
383.2110425208174
 20
3.917425950386445
 10
383.2110425208174
 20
3.609094193786444
  0
LINE
  5
363
330
221
100
AcDbEntity
  8
0
  6
CONTINUOUS
 62
     2
100
AcDbLine
 10
384.0955701087174
 20
3.146594956786444
 30
0.0
 11
384.0955701087174
 21
4.379928391786443
 31
0.0
  0
LWPOLYLINE
  5
364
330
221
100
AcDbEntity
  8
0
  6
CONTINUOUS
 62
     2
100
AcDbPolyline
 90
        5
 70
     0
 43
0.0
 10
384.0955701087174
 20
4.071593430886445
 10
384.2921374915174
 20
4.379928391786443
 10
384.4887048744174
 20
4.379928391786443
 10
384.6852466224174
 20
4.071593430886445
 10
384.6852466224174
 20
3.146594956786444
  0
LWPOLYLINE
  5
365
330
221
100
AcDbEntity
  8
0
  6
CONTINUOUS
 62
     2
100
AcDbPolyline
 90
       11
 70
     0
 43
0.0
 10
387.9285315345174
 20
3.609094193786444
 10
387.7319641517174
 20
3.300759232886445
 10
387.5354224037174
 20
3.146594956786444
 10
387.3388550208174
 20
3.300759232886445
 10
387.1422876380174
 20
3.609094193786444
 10
387.1422876380174
 20
3.917425950386445
 10
387.3388550208174
 20
4.225760911286443
 10
387.5354224037174
 20
4.379928391786443
 10
387.7319641517174
 20
4.225760911286443
 10
387.9285315345174
 20
3.917425950386445
 10
387.9285315345174
 20
3.609094193786444
  0
LWPOLYLINE
  5
366
330
221
100
AcDbEntity
  8
0
  6
CONTINUOUS
 62
     2
100
AcDbPolyline
 90
        5
 70
     0
 43
0.0
 10
389.1079101966174
 20
3.146594956786444
 10
389.1079101966174
 20
4.688260148386444
 10
389.3044775794174
 20
4.996595109286442
 10
389.4027612708174
 20
4.996595109286442
 10
389.5010449622173
 20
4.842427628886444
  0
LINE
  5
367
330
221
100
AcDbEntity
  8
0
  6
CONTINUOUS
 62
     2
100
AcDbLine
 10
388.9113428138174
 20
4.225760911286443
 30
0.0
 11
389.3044775794174
 21
4.225760911286443
 31
0.0
  0
LWPOLYLINE
  5
368
330
221
100
AcDbEntity
  8
0
  6
CONTINUOUS
 62
     2
100
AcDbPolyline
 90
        3
 70
     0
 43
0.0
 10
391.8597766517174
 20
4.996595109286442
 10
391.8597766517174
 20
3.146594956786444
 10
392.6460461830174
 20
3.146594956786444
  0
LWPOLYLINE
  5
369
330
221
100
AcDbEntity
  8
0
  6
CONTINUOUS
 62
     2
100
AcDbPolyline
 90
       19
 70
     0
 43
0.0
 10
395.8893310951174
 20
3.609094193786444
 10
395.7910474037174
 20
3.454926713286444
 10
395.6927637122174
 20
3.300759232886445
 10
395.4961963294174
 20
3.146594956786444
 10
395.2996289466174
 20
3.146594956786444
 10
395.1030615638174
 20
3.300759232886445
 10
395.0047778724174
 20
3.454926713286444
 10
395.0047778724174
 20
3.763261674286444
 10
395.3979126380174
 20
4.225760911286443
 10
395.5944800208174
 20
4.534092667886444
 10
395.5944800208174
 20
4.842427628886444
 10
395.4961963294174
 20
4.996595109286442
 10
395.2996289466174
 20
4.996595109286442
 10
395.2013452552174
 20
4.842427628886444
 10
395.2013452552174
 20
4.534092667886444
 10
395.3979126380174
 20
4.225760911286443
 10
395.7910474037174
 20
3.454926713286444
 10
395.8893310951174
 20
3.300759232886445
 10
395.9875891517174
 20
3.300759232886445
  0
LWPOLYLINE
  5
36A
330
221
100
AcDbEntity
  8
0
  6
CONTINUOUS
 62
     2
100
AcDbPolyline
 90
        3
 70
     0
 43
0.0
 10
398.1497790931174
 20
4.996595109286442
 10
398.1497790931174
 20
3.146594956786444
 10
398.9360486244174
 20
3.146594956786444
  0
LWPOLYLINE
  5
36B
330
221
100
AcDbEntity
  8
0
  6
CONTINUOUS
 62
     2
100
AcDbPolyline
 90
        3
 70
     0
 43
0.0
 10
401.2947803138174
 20
4.996595109286442
 10
401.2947803138174
 20
3.146594956786444
 10
402.0810498451174
 20
3.146594956786444
  0
LWPOLYLINE
  5
36C
330
221
100
AcDbEntity
  8
0
  6
CONTINUOUS
 62
     2
100
AcDbPolyline
 90
        5
 70
     0
 43
0.0
 10
402.9655774329174
 20
4.379928391786443
 10
402.9655774329174
 20
3.454926713286444
 10
403.1621448158174
 20
3.146594956786444
 10
403.3586865638174
 20
3.146594956786444
 10
403.5552539466174
 20
3.454926713286444
  0
LINE
  5
36D
330
221
100
AcDbEntity
  8
0
  6
CONTINUOUS
 62
     2
100
AcDbLine
 10
403.5552539466174
 20
4.379928391786443
 30
0.0
 11
403.5552539466174
 21
3.146594956786444
 31
0.0
  0
LWPOLYLINE
  5
36E
330
221
100
AcDbEntity
  8
0
  6
CONTINUOUS
 62
     2
100
AcDbPolyline
 90
        8
 70
     0
 43
0.0
 10
405.0294836829174
 20
3.300759232886445
 10
404.8329163001174
 20
3.146594956786444
 10
404.6363489173174
 20
3.300759232886445
 10
404.4397815345174
 20
3.609094193786444
 10
404.4397815345174
 20
3.917425950386445
 10
404.6363489173174
 20
4.225760911286443
 10
404.8329163001174
 20
4.379928391786443
 10
405.0294836829174
 20
4.225760911286443
  0
LWPOLYLINE
  5
36F
330
221
100
AcDbEntity
  8
0
  6
CONTINUOUS
 62
     2
100
AcDbPolyline
 90
       11
 70
     0
 43
0.0
 10
406.7002551673174
 20
3.454926713286444
 10
406.6019714759174
 20
3.300759232886445
 10
406.4054040931174
 20
3.146594956786444
 10
406.2088623451174
 20
3.300759232886445
 10
406.0122949622174
 20
3.609094193786444
 10
406.0122949622174
 20
3.917425950386445
 10
406.2088623451174
 20
4.225760911286443
 10
406.4054040931174
 20
4.379928391786443
 10
406.6019714759174
 20
4.225760911286443
 10
406.7002551673174
 20
3.917425950386445
 10
406.0122949622174
 20
3.917425950386445
  0
LWPOLYLINE
  5
370
330
221
100
AcDbEntity
  8
0
  6
CONTINUOUS
 62
     2
100
AcDbPolyline
 90
       19
 70
     0
 43
0.0
 10
410.0418237708174
 20
3.609094193786444
 10
409.9435400794174
 20
3.454926713286444
 10
409.8452563880174
 20
3.300759232886445
 10
409.6486890052174
 20
3.146594956786444
 10
409.4521216224174
 20
3.146594956786444
 10
409.2555798744174
 20
3.300759232886445
 10
409.1572961829174
 20
3.454926713286444
 10
409.1572961829174
 20
3.763261674286444
 10
409.5504053138174
 20
4.225760911286443
 10
409.7469726966174
 20
4.534092667886444
 10
409.7469726966174
 20
4.842427628886444
 10
409.6486890052174
 20
4.996595109286442
 10
409.4521216224174
 20
4.996595109286442
 10
409.3538635658174
 20
4.842427628886444
 10
409.3538635658174
 20
4.534092667886444
 10
409.5504053138174
 20
4.225760911286443
 10
409.9435400794174
 20
3.454926713286444
 10
410.0418237708174
 20
3.300759232886445
 10
410.1401074622174
 20
3.300759232886445
  0
LWPOLYLINE
  5
371
330
221
100
AcDbEntity
  8
0
  6
CONTINUOUS
 62
     2
100
AcDbPolyline
 90
        3
 70
     0
 43
0.0
 10
412.3022974037174
 20
4.996595109286442
 10
412.3022974037174
 20
3.146594956786444
 10
413.0885413001174
 20
3.146594956786444
  0
LINE
  5
372
330
221
100
AcDbEntity
  8
0
  6
CONTINUOUS
 62
     2
100
AcDbLine
 10
414.2679199622174
 20
4.996595109286442
 30
0.0
 11
414.2679199622174
 21
4.842427628886444
 31
0.0
  0
LINE
  5
373
330
221
100
AcDbEntity
  8
0
  6
CONTINUOUS
 62
     2
100
AcDbLine
 10
414.2679199622174
 20
4.379928391786443
 30
0.0
 11
414.2679199622174
 21
3.146594956786444
 31
0.0
  0
LWPOLYLINE
  5
374
330
221
100
AcDbEntity
  8
0
  6
CONTINUOUS
 62
     2
100
AcDbPolyline
 90
       10
 70
     0
 43
0.0
 10
416.2335425208174
 20
3.609094193786444
 10
416.0369751380174
 20
3.300759232886445
 10
415.8404077552174
 20
3.146594956786444
 10
415.6438403724174
 20
3.300759232886445
 10
415.4472986244174
 20
3.609094193786444
 10
415.4472986244174
 20
3.917425950386445
 10
415.6438403724174
 20
4.225760911286443
 10
415.8404077552174
 20
4.379928391786443
 10
416.0369751380174
 20
4.225760911286443
 10
416.2335425208174
 20
3.917425950386445
  0
LWPOLYLINE
  5
375
330
221
100
AcDbEntity
  8
0
  6
CONTINUOUS
 62
     2
100
AcDbPolyline
 90
        6
 70
     0
 43
0.0
 10
416.2335425208174
 20
4.379928391786443
 10
416.2335425208174
 20
2.992427476286444
 10
416.1352588294174
 20
2.684092515286444
 10
416.0369751380174
 20
2.529928239186443
 10
415.6438403724174
 20
2.529928239186443
 10
415.5455823158174
 20
2.684092515286444
  0
LINE
  5
376
330
221
100
AcDbEntity
  8
0
  6
CONTINUOUS
 62
     2
100
AcDbLine
 10
417.1180701087174
 20
3.146594956786444
 30
0.0
 11
417.1180701087174
 21
4.996595109286442
 31
0.0
  0
LWPOLYLINE
  5
377
330
221
100
AcDbEntity
  8
0
  6
CONTINUOUS
 62
     2
100
AcDbPolyline
 90
        7
 70
     0
 43
0.0
 10
417.1180701087174
 20
4.071593430886445
 10
417.1180701087174
 20
4.225760911286443
 10
417.3146374915174
 20
4.379928391786443
 10
417.4129211829174
 20
4.379928391786443
 10
417.5112048744174
 20
4.379928391786443
 10
417.7077466224174
 20
4.071593430886445
 10
417.7077466224174
 20
3.146594956786444
  0
LINE
  5
378
330
221
100
AcDbEntity
  8
0
  6
CONTINUOUS
 62
     2
100
AcDbLine
 10
418.9854089759174
 20
3.146594956786444
 30
0.0
 11
418.9854089759174
 21
4.996595109286442
 31
0.0
  0
LINE
  5
379
330
221
100
AcDbEntity
  8
0
  6
CONTINUOUS
 62
     2
100
AcDbLine
 10
418.6905579017174
 20
4.225760911286443
 30
0.0
 11
419.2802600501174
 21
4.225760911286443
 31
0.0
  0
LWPOLYLINE
  5
37A
330
221
100
AcDbEntity
  8
0
  6
CONTINUOUS
 62
     2
100
AcDbPolyline
 90
       14
 70
     0
 43
0.0
 10
422.3269775794174
 20
4.225760911286443
 10
422.2286938880174
 20
4.379928391786443
 10
422.0321265052174
 20
4.379928391786443
 10
421.9338428138174
 20
4.225760911286443
 10
421.9338428138174
 20
4.071593430886445
 10
422.1304101966174
 20
3.917425950386445
 10
422.3269775794174
 20
3.763261674286444
 10
422.4252612708174
 20
3.609094193786444
 10
422.4252612708174
 20
3.454926713286444
 10
422.3269775794174
 20
3.300759232886445
 10
422.2286938880174
 20
3.146594956786444
 10
422.0321265052174
 20
3.146594956786444
 10
421.9338428138174
 20
3.300759232886445
 10
421.8355591224174
 20
3.454926713286444
  0
LWPOLYLINE
  5
37B
330
221
100
AcDbEntity
  8
0
  6
CONTINUOUS
 62
     2
100
AcDbPolyline
 90
        4
 70
     0
 43
0.0
 10
423.7029236244174
 20
3.146594956786444
 10
423.6046399329174
 20
3.146594956786444
 10
423.6046399329174
 20
3.300759232886445
 10
423.7029236244174
 20
3.146594956786444
  0
LINE
  5
37C
330
221
100
AcDbEntity
  8
0
  6
CONTINUOUS
 62
     2
100
AcDbLine
 10
424.9805603431174
 20
3.146594956786444
 30
0.0
 11
424.9805603431174
 21
4.379928391786443
 31
0.0
  0
LWPOLYLINE
  5
37D
330
221
100
AcDbEntity
  8
0
  6
CONTINUOUS
 62
     2
100
AcDbPolyline
 90
        4
 70
     0
 43
0.0
 10
424.9805603431174
 20
4.071593430886445
 10
425.1771277259174
 20
4.379928391786443
 10
425.3736951087174
 20
4.379928391786443
 10
425.4719788001174
 20
4.225760911286443
  0
LWPOLYLINE
  5
37E
330
221
100
AcDbEntity
  8
0
  6
CONTINUOUS
 62
     2
100
AcDbPolyline
 90
        4
 70
     0
 43
0.0
 10
426.8479248451174
 20
3.146594956786444
 10
426.7496411537174
 20
3.146594956786444
 10
426.7496411537174
 20
3.300759232886445
 10
426.8479248451174
 20
3.146594956786444
  0
LINE
  5
37F
330
221
100
AcDbEntity
  8
0
  6
CONTINUOUS
 62
     2
100
AcDbLine
 10
428.4204126380174
 20
3.146594956786444
 30
0.0
 11
428.4204126380174
 21
4.996595109286442
 31
0.0
  0
LWPOLYLINE
  5
380
330
221
100
AcDbEntity
  8
0
  6
CONTINUOUS
 62
     2
100
AcDbPolyline
 90
        4
 70
     0
 43
0.0
 10
429.9929260658174
 20
3.146594956786444
 10
429.8946423744174
 20
3.146594956786444
 10
429.8946423744174
 20
3.300759232886445
 10
429.9929260658174
 20
3.146594956786444
  0
LWPOLYLINE
  5
381
330
221
100
AcDbEntity
  8
0
  6
CONTINUOUS
 62
     2
100
AcDbPolyline
 90
        5
 70
     0
 43
0.0
 10
431.5654138587174
 20
3.146594956786444
 10
431.4671301673174
 20
3.300759232886445
 10
431.5654138587174
 20
3.300759232886445
 10
431.5654138587174
 20
3.146594956786444
 10
431.3688464759174
 20
2.838259995786444
  0
LINE
  5
382
330
221
100
AcDbEntity
  8
0
  6
CONTINUOUS
 62
     2
100
AcDbLine
 10
343.5054053138174
 20
2.221593278286445
 30
0.0
 11
343.5054053138174
 21
2.067425797786445
 31
0.0
  0
LINE
  5
383
330
221
100
AcDbEntity
  8
0
  6
CONTINUOUS
 62
     2
100
AcDbLine
 10
343.5054053138174
 20
1.604926560786442
 30
0.0
 11
343.5054053138174
 21
0.3715931256864433
 31
0.0
  0
LINE
  5
384
330
221
100
AcDbEntity
  8
0
  6
CONTINUOUS
 62
     2
100
AcDbLine
 10
344.7830676673174
 20
0.3715931256864433
 30
0.0
 11
344.7830676673174
 21
1.604926560786442
 31
0.0
  0
LWPOLYLINE
  5
385
330
221
100
AcDbEntity
  8
0
  6
CONTINUOUS
 62
     2
100
AcDbPolyline
 90
        5
 70
     0
 43
0.0
 10
344.7830676673174
 20
1.296594804186444
 10
344.9796350501174
 20
1.604926560786442
 10
345.1762024330174
 20
1.604926560786442
 10
345.3727698158174
 20
1.296594804186444
 10
345.3727698158174
 20
0.3715931256864433
  0
LWPOLYLINE
  5
386
330
221
100
AcDbEntity
  8
0
  6
CONTINUOUS
 62
     2
100
AcDbPolyline
 90
       10
 70
     0
 43
0.0
 10
348.6160290931174
 20
0.8340923627864445
 10
348.4194873451174
 20
0.5257606061864433
 10
348.2229199622174
 20
0.3715931256864433
 10
348.0263525794174
 20
0.5257606061864433
 10
347.8297851966174
 20
0.8340923627864445
 10
347.8297851966174
 20
1.142427323686444
 10
348.0263525794174
 20
1.450759080286444
 10
348.2229199622174
 20
1.604926560786442
 10
348.4194873451174
 20
1.450759080286444
 10
348.6160290931174
 20
1.142427323686444
  0
LINE
  5
387
330
221
100
AcDbEntity
  8
0
  6
CONTINUOUS
 62
     2
100
AcDbLine
 10
348.6160290931174
 20
1.604926560786442
 30
0.0
 11
348.6160290931174
 21
0.3715931256864433
 31
0.0
  0
LWPOLYLINE
  5
388
330
221
100
AcDbEntity
  8
0
  6
CONTINUOUS
 62
     2
100
AcDbPolyline
 90
        8
 70
     0
 43
0.0
 10
349.9919751380174
 20
0.5257606061864433
 10
349.7954077552174
 20
0.3715931256864433
 10
349.5988403724174
 20
0.5257606061864433
 10
349.4022986244174
 20
0.8340923627864445
 10
349.4022986244174
 20
1.142427323686444
 10
349.5988403724174
 20
1.450759080286444
 10
349.7954077552174
 20
1.604926560786442
 10
349.9919751380174
 20
1.450759080286444
  0
LWPOLYLINE
  5
389
330
221
100
AcDbEntity
  8
0
  6
CONTINUOUS
 62
     2
100
AcDbPolyline
 90
        8
 70
     0
 43
0.0
 10
351.5644885658174
 20
0.5257606061864433
 10
351.3679211830174
 20
0.3715931256864433
 10
351.1713538001174
 20
0.5257606061864433
 10
350.9747864173174
 20
0.8340923627864445
 10
350.9747864173174
 20
1.142427323686444
 10
351.1713538001174
 20
1.450759080286444
 10
351.3679211830174
 20
1.604926560786442
 10
351.5644885658174
 20
1.450759080286444
  0
LWPOLYLINE
  5
38A
330
221
100
AcDbEntity
  8
0
  6
CONTINUOUS
 62
     2
100
AcDbPolyline
 90
       11
 70
     0
 43
0.0
 10
353.3335437415174
 20
0.8340923627864445
 10
353.1369763587174
 20
0.5257606061864433
 10
352.9404089759174
 20
0.3715931256864433
 10
352.7438415931174
 20
0.5257606061864433
 10
352.5472998451174
 20
0.8340923627864445
 10
352.5472998451174
 20
1.142427323686444
 10
352.7438415931174
 20
1.450759080286444
 10
352.9404089759174
 20
1.604926560786442
 10
353.1369763587174
 20
1.450759080286444
 10
353.3335437415174
 20
1.142427323686444
 10
353.3335437415174
 20
0.8340923627864445
  0
LINE
  5
38B
330
221
100
AcDbEntity
  8
0
  6
CONTINUOUS
 62
     2
100
AcDbLine
 10
354.2180713294174
 20
0.3715931256864433
 30
0.0
 11
354.2180713294174
 21
1.604926560786442
 31
0.0
  0
LWPOLYLINE
  5
38C
330
221
100
AcDbEntity
  8
0
  6
CONTINUOUS
 62
     2
100
AcDbPolyline
 90
        4
 70
     0
 43
0.0
 10
354.2180713294174
 20
1.296594804186444
 10
354.4146387122174
 20
1.604926560786442
 10
354.6112060951174
 20
1.604926560786442
 10
354.7094641517174
 20
1.450759080286444
  0
LWPOLYLINE
  5
38D
330
221
100
AcDbEntity
  8
0
  6
CONTINUOUS
 62
     2
100
AcDbPolyline
 90
       10
 70
     0
 43
0.0
 10
356.4785449622174
 20
0.8340923627864445
 10
356.2819775794174
 20
0.5257606061864433
 10
356.0854101966174
 20
0.3715931256864433
 10
355.8888428138174
 20
0.5257606061864433
 10
355.6923010658174
 20
0.8340923627864445
 10
355.6923010658174
 20
1.142427323686444
 10
355.8888428138174
 20
1.450759080286444
 10
356.0854101966174
 20
1.604926560786442
 10
356.2819775794174
 20
1.450759080286444
 10
356.4785449622174
 20
1.142427323686444
  0
LINE
  5
38E
330
221
100
AcDbEntity
  8
0
  6
CONTINUOUS
 62
     2
100
AcDbLine
 10
356.4785449622174
 20
2.221593278286445
 30
0.0
 11
356.4785449622174
 21
0.3715931256864433
 31
0.0
  0
LWPOLYLINE
  5
38F
330
221
100
AcDbEntity
  8
0
  6
CONTINUOUS
 62
     2
100
AcDbPolyline
 90
       10
 70
     0
 43
0.0
 10
358.0510327552174
 20
0.8340923627864445
 10
357.8544653724174
 20
0.5257606061864433
 10
357.6579236244174
 20
0.3715931256864433
 10
357.4613562415174
 20
0.5257606061864433
 10
357.2647888587174
 20
0.8340923627864445
 10
357.2647888587174
 20
1.142427323686444
 10
357.4613562415174
 20
1.450759080286444
 10
357.6579236244174
 20
1.604926560786442
 10
357.8544653724174
 20
1.450759080286444
 10
358.0510327552174
 20
1.142427323686444
  0
LINE
  5
390
330
221
100
AcDbEntity
  8
0
  6
CONTINUOUS
 62
     2
100
AcDbLine
 10
358.0510327552174
 20
1.604926560786442
 30
0.0
 11
358.0510327552174
 21
0.3715931256864433
 31
0.0
  0
LINE
  5
391
330
221
100
AcDbEntity
  8
0
  6
CONTINUOUS
 62
     2
100
AcDbLine
 10
358.9355603431174
 20
0.3715931256864433
 30
0.0
 11
358.9355603431174
 21
1.604926560786442
 31
0.0
  0
LWPOLYLINE
  5
392
330
221
100
AcDbEntity
  8
0
  6
CONTINUOUS
 62
     2
100
AcDbPolyline
 90
        5
 70
     0
 43
0.0
 10
358.9355603431174
 20
1.296594804186444
 10
359.1321277259174
 20
1.604926560786442
 10
359.3286951087174
 20
1.604926560786442
 10
359.5252624915174
 20
1.296594804186444
 10
359.5252624915174
 20
0.3715931256864433
  0
LWPOLYLINE
  5
393
330
221
100
AcDbEntity
  8
0
  6
CONTINUOUS
 62
     2
100
AcDbPolyline
 90
        8
 70
     0
 43
0.0
 10
360.9994665931174
 20
0.5257606061864433
 10
360.8029248451174
 20
0.3715931256864433
 10
360.6063574622174
 20
0.5257606061864433
 10
360.4097900794174
 20
0.8340923627864445
 10
360.4097900794174
 20
1.142427323686444
 10
360.6063574622174
 20
1.450759080286444
 10
360.8029248451174
 20
1.604926560786442
 10
360.9994665931174
 20
1.450759080286444
  0
LWPOLYLINE
  5
394
330
221
100
AcDbEntity
  8
0
  6
CONTINUOUS
 62
     2
100
AcDbPolyline
 90
       11
 70
     0
 43
0.0
 10
362.6702637122174
 20
0.6799280865864432
 10
362.5719800208174
 20
0.5257606061864433
 10
362.3754126380174
 20
0.3715931256864433
 10
362.1788452552174
 20
0.5257606061864433
 10
361.9822778724174
 20
0.8340923627864445
 10
361.9822778724174
 20
1.142427323686444
 10
362.1788452552174
 20
1.450759080286444
 10
362.3754126380174
 20
1.604926560786442
 10
362.5719800208174
 20
1.450759080286444
 10
362.6702637122174
 20
1.142427323686444
 10
361.9822778724174
 20
1.142427323686444
  0
LWPOLYLINE
  5
395
330
221
100
AcDbEntity
  8
0
  6
CONTINUOUS
 62
     2
100
AcDbPolyline
 90
        5
 70
     0
 43
0.0
 10
365.0289954017174
 20
1.604926560786442
 10
365.2255627845174
 20
0.3715931256864433
 10
365.5204138587174
 20
1.604926560786442
 10
365.7169812415174
 20
0.3715931256864433
 10
366.0118323158174
 20
1.604926560786442
  0
LINE
  5
396
330
221
100
AcDbEntity
  8
0
  6
CONTINUOUS
 62
     2
100
AcDbLine
 10
367.0929016517174
 20
2.221593278286445
 30
0.0
 11
367.0929016517174
 21
2.067425797786445
 31
0.0
  0
LINE
  5
397
330
221
100
AcDbEntity
  8
0
  6
CONTINUOUS
 62
     2
100
AcDbLine
 10
367.0929016517174
 20
1.604926560786442
 30
0.0
 11
367.0929016517174
 21
0.3715931256864433
 31
0.0
  0
LINE
  5
398
330
221
100
AcDbEntity
  8
0
  6
CONTINUOUS
 62
     2
100
AcDbLine
 10
368.6654150794174
 20
0.3715931256864433
 30
0.0
 11
368.6654150794174
 21
2.221593278286445
 31
0.0
  0
LINE
  5
399
330
221
100
AcDbEntity
  8
0
  6
CONTINUOUS
 62
     2
100
AcDbLine
 10
368.3705640052174
 20
1.450759080286444
 30
0.0
 11
368.9602661537174
 21
1.450759080286444
 31
0.0
  0
LINE
  5
39A
330
221
100
AcDbEntity
  8
0
  6
CONTINUOUS
 62
     2
100
AcDbLine
 10
369.9430774329174
 20
0.3715931256864433
 30
0.0
 11
369.9430774329174
 21
2.221593278286445
 31
0.0
  0
LWPOLYLINE
  5
39B
330
221
100
AcDbEntity
  8
0
  6
CONTINUOUS
 62
     2
100
AcDbPolyline
 90
        7
 70
     0
 43
0.0
 10
369.9430774329174
 20
1.296594804186444
 10
369.9430774329174
 20
1.450759080286444
 10
370.1396448158174
 20
1.604926560786442
 10
370.2379028724174
 20
1.604926560786442
 10
370.3361865638174
 20
1.604926560786442
 10
370.5327539466174
 20
1.296594804186444
 10
370.5327539466174
 20
0.3715931256864433
  0
LINE
  5
39C
330
221
100
AcDbEntity
  8
0
  6
CONTINUOUS
 62
     2
100
AcDbLine
 10
373.3829040931174
 20
0.3715931256864433
 30
0.0
 11
373.3829040931174
 21
2.221593278286445
 31
0.0
  0
LINE
  5
39D
330
221
100
AcDbEntity
  8
0
  6
CONTINUOUS
 62
     2
100
AcDbLine
 10
373.0880786537174
 20
1.450759080286444
 30
0.0
 11
373.6777551673174
 21
1.450759080286444
 31
0.0
  0
LINE
  5
39E
330
221
100
AcDbEntity
  8
0
  6
CONTINUOUS
 62
     2
100
AcDbLine
 10
374.6605664466174
 20
0.3715931256864433
 30
0.0
 11
374.6605664466174
 21
2.221593278286445
 31
0.0
  0
LWPOLYLINE
  5
39F
330
221
100
AcDbEntity
  8
0
  6
CONTINUOUS
 62
     2
100
AcDbPolyline
 90
        7
 70
     0
 43
0.0
 10
374.6605664466174
 20
1.296594804186444
 10
374.6605664466174
 20
1.450759080286444
 10
374.8571338294174
 20
1.604926560786442
 10
374.9554175208174
 20
1.604926560786442
 10
375.0537012122174
 20
1.604926560786442
 10
375.2502685951174
 20
1.296594804186444
 10
375.2502685951174
 20
0.3715931256864433
  0
LWPOLYLINE
  5
3A0
330
221
100
AcDbEntity
  8
0
  6
CONTINUOUS
 62
     2
100
AcDbPolyline
 90
       11
 70
     0
 43
0.0
 10
376.8227563880174
 20
0.6799280865864432
 10
376.7244726966174
 20
0.5257606061864433
 10
376.5279053138174
 20
0.3715931256864433
 10
376.3313635658174
 20
0.5257606061864433
 10
376.1347961829174
 20
0.8340923627864445
 10
376.1347961829174
 20
1.142427323686444
 10
376.3313635658174
 20
1.450759080286444
 10
376.5279053138174
 20
1.604926560786442
 10
376.7244726966174
 20
1.450759080286444
 10
376.8227563880174
 20
1.142427323686444
 10
376.1347961829174
 20
1.142427323686444
  0
LINE
  5
3A1
330
221
100
AcDbEntity
  8
0
  6
CONTINUOUS
 62
     2
100
AcDbLine
 10
379.6729065345174
 20
0.3715931256864433
 30
0.0
 11
379.6729065345174
 21
2.221593278286445
 31
0.0
  0
LWPOLYLINE
  5
3A2
330
221
100
AcDbEntity
  8
0
  6
CONTINUOUS
 62
     2
100
AcDbPolyline
 90
       10
 70
     0
 43
0.0
 10
381.6385290931174
 20
0.8340923627864445
 10
381.4419873451174
 20
0.5257606061864433
 10
381.2454199622174
 20
0.3715931256864433
 10
381.0488525794174
 20
0.5257606061864433
 10
380.8522851966174
 20
0.8340923627864445
 10
380.8522851966174
 20
1.142427323686444
 10
381.0488525794174
 20
1.450759080286444
 10
381.2454199622174
 20
1.604926560786442
 10
381.4419873451174
 20
1.450759080286444
 10
381.6385290931174
 20
1.142427323686444
  0
LINE
  5
3A3
330
221
100
AcDbEntity
  8
0
  6
CONTINUOUS
 62
     2
100
AcDbLine
 10
381.6385290931174
 20
1.604926560786442
 30
0.0
 11
381.6385290931174
 21
0.3715931256864433
 31
0.0
  0
LWPOLYLINE
  5
3A4
330
221
100
AcDbEntity
  8
0
  6
CONTINUOUS
 62
     2
100
AcDbPolyline
 90
        5
 70
     0
 43
0.0
 10
382.3265149329174
 20
1.604926560786442
 10
382.5230823158174
 20
0.3715931256864433
 10
382.8179077552174
 20
1.604926560786442
 10
383.0144751380174
 20
0.3715931256864433
 10
383.3093262122174
 20
1.604926560786442
  0
LINE
  5
3A5
330
221
100
AcDbEntity
  8
0
  6
CONTINUOUS
 62
     2
100
AcDbLine
 10
385.9629089759174
 20
2.221593278286445
 30
0.0
 11
385.9629089759174
 21
2.067425797786445
 31
0.0
  0
LINE
  5
3A6
330
221
100
AcDbEntity
  8
0
  6
CONTINUOUS
 62
     2
100
AcDbLine
 10
385.9629089759174
 20
1.604926560786442
 30
0.0
 11
385.9629089759174
 21
0.3715931256864433
 31
0.0
  0
LINE
  5
3A7
330
221
100
AcDbEntity
  8
0
  6
CONTINUOUS
 62
     2
100
AcDbLine
 10
387.2405713294174
 20
0.3715931256864433
 30
0.0
 11
387.2405713294174
 21
1.604926560786442
 31
0.0
  0
LWPOLYLINE
  5
3A8
330
221
100
AcDbEntity
  8
0
  6
CONTINUOUS
 62
     2
100
AcDbPolyline
 90
        5
 70
     0
 43
0.0
 10
387.2405713294174
 20
1.296594804186444
 10
387.4371387122174
 20
1.604926560786442
 10
387.6337060951174
 20
1.604926560786442
 10
387.8302478431174
 20
1.296594804186444
 10
387.8302478431174
 20
0.3715931256864433
  0
LWPOLYLINE
  5
3A9
330
221
100
AcDbEntity
  8
0
  6
CONTINUOUS
 62
     2
100
AcDbPolyline
 90
        5
 70
     0
 43
0.0
 10
390.6804236244174
 20
0.3715931256864433
 10
390.6804236244174
 20
1.913261521686444
 10
390.8769653724174
 20
2.221593278286445
 10
390.9752490638174
 20
2.221593278286445
 10
391.0735327552174
 20
2.067425797786445
  0
LINE
  5
3AA
330
221
100
AcDbEntity
  8
0
  6
CONTINUOUS
 62
     2
100
AcDbLine
 10
390.4838562415174
 20
1.450759080286444
 30
0.0
 11
390.8769653724174
 21
1.450759080286444
 31
0.0
  0
LWPOLYLINE
  5
3AB
330
221
100
AcDbEntity
  8
0
  6
CONTINUOUS
 62
     2
100
AcDbPolyline
 90
       11
 70
     0
 43
0.0
 10
392.6460461830174
 20
0.8340923627864445
 10
392.4494788001174
 20
0.5257606061864433
 10
392.2529114173174
 20
0.3715931256864433
 10
392.0563440345174
 20
0.5257606061864433
 10
391.8597766517174
 20
0.8340923627864445
 10
391.8597766517174
 20
1.142427323686444
 10
392.0563440345174
 20
1.450759080286444
 10
392.2529114173174
 20
1.604926560786442
 10
392.4494788001174
 20
1.450759080286444
 10
392.6460461830174
 20
1.142427323686444
 10
392.6460461830174
 20
0.8340923627864445
  0
LINE
  5
3AC
330
221
100
AcDbEntity
  8
0
  6
CONTINUOUS
 62
     2
100
AcDbLine
 10
393.5305737708174
 20
0.3715931256864433
 30
0.0
 11
393.5305737708174
 21
1.604926560786442
 31
0.0
  0
LWPOLYLINE
  5
3AD
330
221
100
AcDbEntity
  8
0
  6
CONTINUOUS
 62
     2
100
AcDbPolyline
 90
        4
 70
     0
 43
0.0
 10
393.5305737708174
 20
1.296594804186444
 10
393.7271411537174
 20
1.604926560786442
 10
393.9236829017174
 20
1.604926560786442
 10
394.0219665931174
 20
1.450759080286444
  0
LWPOLYLINE
  5
3AE
330
221
100
AcDbEntity
  8
0
  6
CONTINUOUS
 62
     2
100
AcDbPolyline
 90
        8
 70
     0
 43
0.0
 10
395.5944800208174
 20
0.5257606061864433
 10
395.3979126380174
 20
0.3715931256864433
 10
395.2013452552174
 20
0.5257606061864433
 10
395.0047778724174
 20
0.8340923627864445
 10
395.0047778724174
 20
1.142427323686444
 10
395.2013452552174
 20
1.450759080286444
 10
395.3979126380174
 20
1.604926560786442
 10
395.5944800208174
 20
1.450759080286444
  0
LWPOLYLINE
  5
3AF
330
221
100
AcDbEntity
  8
0
  6
CONTINUOUS
 62
     2
100
AcDbPolyline
 90
       11
 70
     0
 43
0.0
 10
397.2652515052173
 20
0.6799280865864432
 10
397.1669678138174
 20
0.5257606061864433
 10
396.9704260658174
 20
0.3715931256864433
 10
396.7738586830174
 20
0.5257606061864433
 10
396.5772913001174
 20
0.8340923627864445
 10
396.5772913001174
 20
1.142427323686444
 10
396.7738586830174
 20
1.450759080286444
 10
396.9704260658174
 20
1.604926560786442
 10
397.1669678138174
 20
1.450759080286444
 10
397.2652515052173
 20
1.142427323686444
 10
396.5772913001174
 20
1.142427323686444
  0
LWPOLYLINE
  5
3B0
330
221
100
AcDbEntity
  8
0
  6
CONTINUOUS
 62
     2
100
AcDbPolyline
 90
        4
 70
     0
 43
0.0
 10
398.5429138587174
 20
0.3715931256864433
 10
398.4446301673174
 20
0.3715931256864433
 10
398.4446301673174
 20
0.5257606061864433
 10
398.5429138587174
 20
0.3715931256864433
  0
LWPOLYLINE
  5
3B1
330
221
100
AcDbEntity
  8
0
  6
CONTINUOUS
 62
     2
100
AcDbPolyline
 90
        3
 70
     0
 43
0.0
 10
343.0140124915174
 20
-2.403405501013555
 10
343.5054053138174
 20
-0.5534053484135555
 10
343.9968237708174
 20
-2.403405501013555
  0
LINE
  5
3B2
330
221
100
AcDbEntity
  8
0
  6
CONTINUOUS
 62
     2
100
AcDbLine
 10
343.2105798744174
 20
-1.786738783513556
 30
0.0
 11
343.8002563880174
 21
-1.786738783513556
 31
0.0
  0
LINE
  5
3B3
330
221
100
AcDbEntity
  8
0
  6
CONTINUOUS
 62
     2
100
AcDbLine
 10
345.0779187415174
 20
-2.403405501013555
 30
0.0
 11
345.0779187415174
 21
-0.5534053484135555
 31
0.0
  0
LINE
  5
3B4
330
221
100
AcDbEntity
  8
0
  6
CONTINUOUS
 62
     2
100
AcDbLine
 10
346.6504065345174
 20
-2.403405501013555
 30
0.0
 11
346.6504065345174
 21
-0.5534053484135555
 31
0.0
  0
LINE
  5
3B5
330
221
100
AcDbEntity
  8
0
  6
CONTINUOUS
 62
     2
100
AcDbLine
 10
349.5005823158174
 20
-2.403405501013555
 30
0.0
 11
349.5005823158174
 21
-1.170072065913557
 31
0.0
  0
LWPOLYLINE
  5
3B6
330
221
100
AcDbEntity
  8
0
  6
CONTINUOUS
 62
     2
100
AcDbPolyline
 90
        4
 70
     0
 43
0.0
 10
349.5005823158174
 20
-1.478407026913557
 10
349.6971240638174
 20
-1.170072065913557
 10
349.8936914466174
 20
-1.170072065913557
 10
349.9919751380174
 20
-1.324239546413557
  0
LINE
  5
3B7
330
221
100
AcDbEntity
  8
0
  6
CONTINUOUS
 62
     2
100
AcDbLine
 10
351.3679211830174
 20
-0.5534053484135555
 30
0.0
 11
351.3679211830174
 21
-0.7075728289135554
 31
0.0
  0
LINE
  5
3B8
330
221
100
AcDbEntity
  8
0
  6
CONTINUOUS
 62
     2
100
AcDbLine
 10
351.3679211830174
 20
-1.170072065913557
 30
0.0
 11
351.3679211830174
 21
-2.403405501013555
 31
0.0
  0
LWPOLYLINE
  5
3B9
330
221
100
AcDbEntity
  8
0
  6
CONTINUOUS
 62
     2
100
AcDbPolyline
 90
       10
 70
     0
 43
0.0
 10
353.3335437415174
 20
-1.940906263913556
 10
353.1369763587174
 20
-2.249238020513555
 10
352.9404089759174
 20
-2.403405501013555
 10
352.7438415931174
 20
-2.249238020513555
 10
352.5472998451174
 20
-1.940906263913556
 10
352.5472998451174
 20
-1.632571303013556
 10
352.7438415931174
 20
-1.324239546413557
 10
352.9404089759174
 20
-1.170072065913557
 10
353.1369763587174
 20
-1.324239546413557
 10
353.3335437415174
 20
-1.632571303013556
  0
LWPOLYLINE
  5
3BA
330
221
100
AcDbEntity
  8
0
  6
CONTINUOUS
 62
     2
100
AcDbPolyline
 90
        6
 70
     0
 43
0.0
 10
353.3335437415174
 20
-1.170072065913557
 10
353.3335437415174
 20
-2.557572981513557
 10
353.2352600501174
 20
-2.865904738113557
 10
353.1369763587174
 20
-3.020072218513556
 10
352.7438415931174
 20
-3.020072218513556
 10
352.6455579017174
 20
-2.865904738113557
  0
LINE
  5
3BB
330
221
100
AcDbEntity
  8
0
  6
CONTINUOUS
 62
     2
100
AcDbLine
 10
354.2180713294174
 20
-2.403405501013555
 30
0.0
 11
354.2180713294174
 21
-0.5534053484135555
 31
0.0
  0
LWPOLYLINE
  5
3BC
330
221
100
AcDbEntity
  8
0
  6
CONTINUOUS
 62
     2
100
AcDbPolyline
 90
        7
 70
     0
 43
0.0
 10
354.2180713294174
 20
-1.478407026913557
 10
354.2180713294174
 20
-1.324239546413557
 10
354.4146387122174
 20
-1.170072065913557
 10
354.5129224037174
 20
-1.170072065913557
 10
354.6112060951174
 20
-1.170072065913557
 10
354.8077478431174
 20
-1.478407026913557
 10
354.8077478431174
 20
-2.403405501013555
  0
LINE
  5
3BD
330
221
100
AcDbEntity
  8
0
  6
CONTINUOUS
 62
     2
100
AcDbLine
 10
356.0854101966174
 20
-2.403405501013555
 30
0.0
 11
356.0854101966174
 21
-0.5534053484135555
 31
0.0
  0
LINE
  5
3BE
330
221
100
AcDbEntity
  8
0
  6
CONTINUOUS
 62
     2
100
AcDbLine
 10
355.7905591224174
 20
-1.324239546413557
 30
0.0
 11
356.3802612708174
 21
-1.324239546413557
 31
0.0
  0
LWPOLYLINE
  5
3BF
330
221
100
AcDbEntity
  8
0
  6
CONTINUOUS
 62
     2
100
AcDbPolyline
 90
       14
 70
     0
 43
0.0
 10
357.8544653724174
 20
-1.324239546413557
 10
357.7562073158174
 20
-1.170072065913557
 10
357.5596399329174
 20
-1.170072065913557
 10
357.4613562415174
 20
-1.324239546413557
 10
357.4613562415174
 20
-1.478407026913557
 10
357.6579236244174
 20
-1.632571303013556
 10
357.8544653724174
 20
-1.786738783513556
 10
357.9527490638174
 20
-1.940906263913556
 10
357.9527490638174
 20
-2.095073744413556
 10
357.8544653724174
 20
-2.249238020513555
 10
357.7562073158174
 20
-2.403405501013555
 10
357.5596399329174
 20
-2.403405501013555
 10
357.4613562415174
 20
-2.249238020513555
 10
357.3630725501174
 20
-2.095073744413556
  0
LINE
  5
3C0
330
221
100
AcDbEntity
  8
0
  6
CONTINUOUS
 62
     2
100
AcDbLine
 10
360.5080737708174
 20
-2.403405501013555
 30
0.0
 11
360.5080737708174
 21
-1.170072065913557
 31
0.0
  0
LWPOLYLINE
  5
3C1
330
221
100
AcDbEntity
  8
0
  6
CONTINUOUS
 62
     2
100
AcDbPolyline
 90
        4
 70
     0
 43
0.0
 10
360.5080737708174
 20
-1.478407026913557
 10
360.7046411537174
 20
-1.170072065913557
 10
360.9011829017174
 20
-1.170072065913557
 10
360.9994665931174
 20
-1.324239546413557
  0
LWPOLYLINE
  5
3C2
330
221
100
AcDbEntity
  8
0
  6
CONTINUOUS
 62
     2
100
AcDbPolyline
 90
       11
 70
     0
 43
0.0
 10
362.6702637122174
 20
-2.095073744413556
 10
362.5719800208174
 20
-2.249238020513555
 10
362.3754126380174
 20
-2.403405501013555
 10
362.1788452552174
 20
-2.249238020513555
 10
361.9822778724174
 20
-1.940906263913556
 10
361.9822778724174
 20
-1.632571303013556
 10
362.1788452552174
 20
-1.324239546413557
 10
362.3754126380174
 20
-1.170072065913557
 10
362.5719800208174
 20
-1.324239546413557
 10
362.6702637122174
 20
-1.632571303013556
 10
361.9822778724174
 20
-1.632571303013556
  0
LWPOLYLINE
  5
3C3
330
221
100
AcDbEntity
  8
0
  6
CONTINUOUS
 62
     2
100
AcDbPolyline
 90
       14
 70
     0
 43
0.0
 10
364.1444678138174
 20
-1.324239546413557
 10
364.0461841224174
 20
-1.170072065913557
 10
363.8496423744174
 20
-1.170072065913557
 10
363.7513586829174
 20
-1.324239546413557
 10
363.7513586829174
 20
-1.478407026913557
 10
363.9479260658174
 20
-1.632571303013556
 10
364.1444678138174
 20
-1.786738783513556
 10
364.2427515052174
 20
-1.940906263913556
 10
364.2427515052174
 20
-2.095073744413556
 10
364.1444678138174
 20
-2.249238020513555
 10
364.0461841224174
 20
-2.403405501013555
 10
363.8496423744174
 20
-2.403405501013555
 10
363.7513586829174
 20
-2.249238020513555
 10
363.6530749915174
 20
-2.095073744413556
  0
LWPOLYLINE
  5
3C4
330
221
100
AcDbEntity
  8
0
  6
CONTINUOUS
 62
     2
100
AcDbPolyline
 90
       11
 70
     0
 43
0.0
 10
365.8152649329174
 20
-2.095073744413556
 10
365.7169812415174
 20
-2.249238020513555
 10
365.5204138587174
 20
-2.403405501013555
 10
365.3238464759174
 20
-2.249238020513555
 10
365.1272790931174
 20
-1.940906263913556
 10
365.1272790931174
 20
-1.632571303013556
 10
365.3238464759174
 20
-1.324239546413557
 10
365.5204138587174
 20
-1.170072065913557
 10
365.7169812415174
 20
-1.324239546413557
 10
365.8152649329174
 20
-1.632571303013556
 10
365.1272790931174
 20
-1.632571303013556
  0
LINE
  5
3C5
330
221
100
AcDbEntity
  8
0
  6
CONTINUOUS
 62
     2
100
AcDbLine
 10
366.7980762122174
 20
-2.403405501013555
 30
0.0
 11
366.7980762122174
 21
-1.170072065913557
 31
0.0
  0
LWPOLYLINE
  5
3C6
330
221
100
AcDbEntity
  8
0
  6
CONTINUOUS
 62
     2
100
AcDbPolyline
 90
        4
 70
     0
 43
0.0
 10
366.7980762122174
 20
-1.478407026913557
 10
366.9946435951174
 20
-1.170072065913557
 10
367.1911853431174
 20
-1.170072065913557
 10
367.2894690345174
 20
-1.324239546413557
  0
LWPOLYLINE
  5
3C7
330
221
100
AcDbEntity
  8
0
  6
CONTINUOUS
 62
     2
100
AcDbPolyline
 90
        3
 70
     0
 43
0.0
 10
368.3705640052174
 20
-1.170072065913557
 10
368.6654150794174
 20
-2.403405501013555
 10
368.9602661537174
 20
-1.170072065913557
  0
LWPOLYLINE
  5
3C8
330
221
100
AcDbEntity
  8
0
  6
CONTINUOUS
 62
     2
100
AcDbPolyline
 90
       11
 70
     0
 43
0.0
 10
370.5327539466174
 20
-2.095073744413556
 10
370.4344702552174
 20
-2.249238020513555
 10
370.2379028724174
 20
-2.403405501013555
 10
370.0413611244174
 20
-2.249238020513555
 10
369.8447937415174
 20
-1.940906263913556
 10
369.8447937415174
 20
-1.632571303013556
 10
370.0413611244174
 20
-1.324239546413557
 10
370.2379028724174
 20
-1.170072065913557
 10
370.4344702552174
 20
-1.324239546413557
 10
370.5327539466174
 20
-1.632571303013556
 10
369.8447937415174
 20
-1.632571303013556
  0
LWPOLYLINE
  5
3C9
330
221
100
AcDbEntity
  8
0
  6
CONTINUOUS
 62
     2
100
AcDbPolyline
 90
       10
 70
     0
 43
0.0
 10
372.2035510658174
 20
-1.940906263913556
 10
372.0069836829174
 20
-2.249238020513555
 10
371.8104163001174
 20
-2.403405501013555
 10
371.6138489173174
 20
-2.249238020513555
 10
371.4172815345174
 20
-1.940906263913556
 10
371.4172815345174
 20
-1.632571303013556
 10
371.6138489173174
 20
-1.324239546413557
 10
371.8104163001174
 20
-1.170072065913557
 10
372.0069836829174
 20
-1.324239546413557
 10
372.2035510658174
 20
-1.632571303013556
  0
LINE
  5
3CA
330
221
100
AcDbEntity
  8
0
  6
CONTINUOUS
 62
     2
100
AcDbLine
 10
372.2035510658174
 20
-0.5534053484135555
 30
0.0
 11
372.2035510658174
 21
-2.403405501013555
 31
0.0
  0
LWPOLYLINE
  5
3CB
330
221
100
AcDbEntity
  8
0
  6
CONTINUOUS
 62
     2
100
AcDbPolyline
 90
        4
 70
     0
 43
0.0
 10
373.3829040931174
 20
-2.403405501013555
 10
373.2846204017174
 20
-2.403405501013555
 10
373.2846204017174
 20
-2.249238020513555
 10
373.3829040931174
 20
-2.403405501013555
  0
INSERT
  5
3CC
330
221
100
AcDbEntity
  8
0
  6
CONTINUOUS
 62
     2
100
AcDbBlockReference
  2
*T6
 10
341.2316634365174
 20
36.52159380118644
 30
0.0
  0
LINE
  5
3FE
330
221
100
AcDbEntity
  8
7_ALL_FEATURES
  6
CONTINUOUS
 62
     7
100
AcDbLine
 10
150.3177306978408
 20
34.07628452063219
 30
0.0
 11
150.7438173866408
 21
69.29779471283217
 31
0.0
  0
LINE
  5
3FF
330
221
100
AcDbEntity
  8
7_ALL_FEATURES
  6
CONTINUOUS
 62
     7
100
AcDbLine
 10
156.1480543878408
 20
74.94293671723219
 30
0.0
 11
150.7438173866408
 21
69.29779471283217
 31
0.0
  0
LINE
  5
400
330
221
100
AcDbEntity
  8
7_ALL_FEATURES
  6
CONTINUOUS
 62
     7
100
AcDbLine
 10
156.1480543878408
 20
74.94293671723219
 30
0.0
 11
156.3129669455408
 21
75.08309745993219
 31
0.0
  0
LINE
  5
401
330
221
100
AcDbEntity
  8
7_ALL_FEATURES
  6
CONTINUOUS
 62
     7
100
AcDbLine
 10
150.3177306978408
 20
34.07628452063219
 30
0.0
 11
150.3834250954408
 21
33.89129832683219
 31
0.0
  0
LINE
  5
402
330
221
100
AcDbEntity
  8
7_ALL_FEATURES
  6
CONTINUOUS
 62
     7
100
AcDbLine
 10
156.1480543878408
 20
74.94293671723219
 30
0.0
 11
155.7219676991408
 21
39.72142652513217
 31
0.0
  0
LINE
  5
403
330
221
100
AcDbEntity
  8
7_ALL_FEATURES
  6
CONTINUOUS
 62
     7
100
AcDbLine
 10
156.4751655752408
 20
74.99891737323219
 30
0.0
 11
156.0490788865408
 21
39.77740718113218
 31
0.0
  0
LINE
  5
404
330
221
100
AcDbEntity
  8
7_ALL_FEATURES
  6
CONTINUOUS
 62
     7
100
AcDbLine
 10
157.0893265980408
 20
33.42475552763219
 30
0.0
 11
157.0950593044408
 21
33.89863697583218
 31
0.0
  0
LINE
  5
405
330
221
100
AcDbEntity
  8
7_ALL_FEATURES
  6
CONTINUOUS
 62
     9
100
AcDbLine
 10
157.7078068883408
 20
32.93871080043218
 30
0.0
 11
157.7078929454408
 21
32.94582452063219
 31
0.0
  0
LINE
  5
406
330
221
100
AcDbEntity
  8
7_ALL_FEATURES
  6
CONTINUOUS
 62
     7
100
AcDbLine
 10
161.2390085811408
 20
37.75941813813218
 30
0.0
 11
161.2409992569408
 21
37.92397292783218
 31
0.0
  0
LINE
  5
407
330
221
100
AcDbEntity
  8
7_ALL_FEATURES
  6
CONTINUOUS
 62
     7
100
AcDbLine
 10
162.2203421431408
 20
37.92736010613218
 30
0.0
 11
162.2213952931409
 21
38.01441641053218
 31
0.0
  0
LINE
  5
408
330
221
100
AcDbEntity
  8
7_ALL_FEATURES
  6
CONTINUOUS
 62
     9
100
AcDbLine
 10
157.6085887282408
 20
32.61356386403217
 30
0.0
 11
157.7078068883408
 21
32.93871080043218
 31
0.0
  0
LINE
  5
409
330
221
100
AcDbEntity
  8
7_ALL_FEATURES
  6
CONTINUOUS
 62
     7
100
AcDbLine
 10
156.3129669455408
 20
75.08309745993219
 30
0.0
 11
156.3813752710408
 21
75.12245209533219
 31
0.0
  0
LINE
  5
40A
330
221
100
AcDbEntity
  8
7_ALL_FEATURES
  6
CONTINUOUS
 62
     7
100
AcDbLine
 10
155.9498607263408
 20
39.45226024463219
 30
0.0
 11
155.8841663288408
 21
39.63724643853217
 31
0.0
  0
LINE
  5
40B
330
221
100
AcDbEntity
  8
7_ALL_FEATURES
  6
CONTINUOUS
 62
     7
100
AcDbLine
 10
157.0893265980408
 20
33.42475552763219
 30
0.0
 11
157.4916347670408
 21
32.98786085223217
 31
0.0
  0
LINE
  5
40C
330
221
100
AcDbEntity
  8
7_ALL_FEATURES
  6
CONTINUOUS
 62
     7
100
AcDbLine
 10
155.7219676991408
 20
39.72142652513217
 30
0.0
 11
150.3177306978408
 21
34.07628452063219
 31
0.0
  0
LINE
  5
40D
330
221
100
AcDbEntity
  8
7_ALL_FEATURES
  6
CONTINUOUS
 62
     7
100
AcDbLine
 10
155.9498607263408
 20
39.45226024463219
 30
0.0
 11
150.5456237251408
 21
33.80711824013218
 31
0.0
  0
LINE
  5
40E
330
221
100
AcDbEntity
  8
7_ALL_FEATURES
  6
CONTINUOUS
 62
     7
100
AcDbLine
 10
279.4135319612408
 20
9.288644784932174
 30
0.0
 11
280.3948655232408
 21
9.456586752932182
 31
0.0
  0
LINE
  5
410
330
221
100
AcDbEntity
  8
7_ALL_FEATURES
  6
CONTINUOUS
 62
     7
100
AcDbLine
 10
156.7235107564408
 20
33.57473214983217
 30
0.0
 11
160.5643791966409
 21
37.58681521723219
 31
0.0
  0
LINE
  5
411
330
221
100
AcDbEntity
  8
7_ALL_FEATURES
  6
CONTINUOUS
 62
     7
100
AcDbLine
 10
156.9568316395408
 20
33.75424752783218
 30
0.0
 11
160.7793340639408
 21
37.74714587653217
 31
0.0
  0
LINE
  5
412
330
221
100
AcDbEntity
  8
7_ALL_FEATURES
  6
CONTINUOUS
 62
     7
100
AcDbLine
 10
161.2390085811408
 20
37.75941813813218
 30
0.0
 11
157.0893265980408
 21
33.42475552763219
 31
0.0
  0
LINE
  5
413
330
221
100
AcDbEntity
  8
7_ALL_FEATURES
  6
CONTINUOUS
 62
     7
100
AcDbLine
 10
155.8841663288408
 20
39.63724643853217
 30
0.0
 11
156.0490788865408
 21
39.77740718113218
 31
0.0
  0
LINE
  5
418
330
221
100
AcDbEntity
  8
7_ALL_FEATURES
  6
CONTINUOUS
 62
     7
100
AcDbLine
 10
150.3834250954408
 20
33.89129832683219
 30
0.0
 11
150.5456237251408
 21
33.80711824013218
 31
0.0
  0
LINE
  5
419
330
221
100
AcDbEntity
  8
7_ALL_FEATURES
  6
CONTINUOUS
 62
     9
100
AcDbLine
 10
160.5643791966409
 20
37.58681521723219
 30
0.0
 11
160.7497090631408
 21
37.72940665873217
 31
0.0
  0
LINE
  5
41A
330
221
100
AcDbEntity
  8
7_ALL_FEATURES
  6
CONTINUOUS
 62
     9
100
AcDbLine
 10
156.7235107564408
 20
33.57473214983217
 30
0.0
 11
156.9568316395408
 21
33.75424752783218
 31
0.0
  0
LINE
  5
41B
330
221
100
AcDbEntity
  8
7_ALL_FEATURES
  6
CONTINUOUS
 62
     7
100
AcDbLine
 10
155.7219676991408
 20
39.72142652513217
 30
0.0
 11
155.8841663288408
 21
39.63724643853217
 31
0.0
  0
LINE
  5
41C
330
221
100
AcDbEntity
  8
7_ALL_FEATURES
  6
CONTINUOUS
 62
     7
100
AcDbLine
 10
285.6812994501408
 20
7.539403817232184
 30
0.0
 11
150.5456237251408
 21
33.80711824013218
 31
0.0
  0
LINE
  5
41D
330
221
100
AcDbEntity
  8
7_ALL_FEATURES
  6
CONTINUOUS
 62
     7
100
AcDbLine
 10
278.9078471435408
 20
9.035376515032183
 30
0.0
 11
157.6085887282408
 21
32.61356386403217
 31
0.0
  0
LINE
  5
41E
330
221
100
AcDbEntity
  8
7_ALL_FEATURES
  6
CONTINUOUS
 62
     7
100
AcDbLine
 10
279.0070653036408
 20
9.360523451532174
 30
0.0
 11
157.7078068883408
 21
32.93871080043218
 31
0.0
  0
LINE
  5
41F
330
221
100
AcDbEntity
  8
7_ALL_FEATURES
  6
CONTINUOUS
 62
     7
100
AcDbLine
 10
157.4916347670408
 20
32.98786085223217
 30
0.0
 11
279.4135319612408
 21
9.288644784932174
 31
0.0
  0
LINE
  5
421
330
221
100
AcDbEntity
  8
7_ALL_FEATURES
  6
CONTINUOUS
 62
     7
100
AcDbLine
 10
284.1422393374409
 20
14.22814403883218
 30
0.0
 11
162.2203421431408
 21
37.92736010613218
 31
0.0
  0
LINE
  5
422
330
221
100
AcDbEntity
  8
7_ALL_FEATURES
  6
CONTINUOUS
 62
     7
100
AcDbLine
 10
162.7233130330408
 20
37.95628754683219
 30
0.0
 11
284.0225714482409
 21
14.37810019783218
 31
0.0
  0
LINE
  5
423
330
221
100
AcDbEntity
  8
7_ALL_FEATURES
  6
CONTINUOUS
 62
     7
100
AcDbLine
 10
155.9498607263408
 20
39.45226024463219
 30
0.0
 11
291.0855364514408
 21
13.18454582163218
 31
0.0
  0
LINE
  5
424
330
221
100
AcDbEntity
  8
7_ALL_FEATURES
  6
CONTINUOUS
 62
     7
100
AcDbLine
 10
156.0490788865408
 20
39.77740718113218
 30
0.0
 11
291.1847546115408
 21
13.50969275813218
 31
0.0
  0
LINE
  5
428
330
221
100
AcDbEntity
  8
7_ALL_FEATURES
  6
CONTINUOUS
 62
     7
100
AcDbLine
 10
156.4751655752408
 20
74.99891737323219
 30
0.0
 11
156.3129669455408
 21
75.08309745993219
 31
0.0
  0
LINE
  5
42A
330
221
100
AcDbEntity
  8
7_ALL_FEATURES
  6
CONTINUOUS
 62
     7
100
AcDbLine
 10
162.2203421431408
 20
37.92736010613218
 30
0.0
 11
161.2390085811408
 21
37.75941813813218
 31
0.0
  0
LINE
  5
42B
330
221
100
AcDbEntity
  8
7_ALL_FEATURES
  6
CONTINUOUS
 62
     7
100
AcDbLine
 10
153.8493850506408
 20
67.90240477983218
 30
0.0
 11
153.8692368141408
 21
67.89854598793218
 31
0.0
  0
LINE
  5
42C
330
221
100
AcDbEntity
  8
7_ALL_FEATURES
  6
CONTINUOUS
 62
     7
100
AcDbLine
 10
291.6108413002408
 20
48.73120295033218
 30
0.0
 11
156.4751655752408
 21
74.99891737323219
 31
0.0
  0
LINE
  5
42D
330
221
100
AcDbEntity
  8
7_ALL_FEATURES
  6
CONTINUOUS
 62
     7
100
AcDbLine
 10
291.5170509960408
 20
48.85473767233219
 30
0.0
 11
156.3813752710408
 21
75.12245209533219
 31
0.0
  0
LINE
  5
42F
330
221
100
AcDbEntity
  8
7_ALL_FEATURES
  6
CONTINUOUS
 62
     9
100
AcDbLine
 10
281.0667809798408
 20
9.404848844532182
 30
0.0
 11
280.8388879526408
 21
9.674015125032184
 31
0.0
  0
LINE
  5
430
330
221
100
AcDbEntity
  8
7_ALL_FEATURES
  6
CONTINUOUS
 62
     7
100
AcDbLine
 10
291.6108413002408
 20
48.73120295033218
 30
0.0
 11
291.6792496257409
 21
48.77055758573218
 31
0.0
  0
LINE
  5
431
330
221
100
AcDbEntity
  8
7_ALL_FEATURES
  6
CONTINUOUS
 62
     7
100
AcDbLine
 10
284.5445475064408
 20
13.79124936353217
 30
0.0
 11
284.1422393374409
 21
14.22814403883218
 31
0.0
  0
LINE
  5
432
330
221
100
AcDbEntity
  8
7_ALL_FEATURES
  6
CONTINUOUS
 62
     9
100
AcDbLine
 10
284.9076494200409
 20
13.41693191203218
 30
0.0
 11
284.6797563928408
 21
13.68609819253219
 31
0.0
  0
LINE
  5
433
330
221
100
AcDbEntity
  8
7_ALL_FEATURES
  6
CONTINUOUS
 62
     7
100
AcDbLine
 10
291.5170509960408
 20
48.85473767233219
 30
0.0
 11
291.6792496257409
 21
48.77055758573218
 31
0.0
  0
LINE
  5
434
330
221
100
AcDbEntity
  8
7_ALL_FEATURES
  6
CONTINUOUS
 62
     7
100
AcDbLine
 10
291.1847546115408
 20
13.50969275813218
 30
0.0
 11
291.2504490090408
 21
13.32470656433217
 31
0.0
  0
LINE
  5
435
330
221
100
AcDbEntity
  8
7_ALL_FEATURES
  6
CONTINUOUS
 62
     9
100
AcDbLine
 10
279.0071513607408
 20
9.367637171732184
 30
0.0
 11
279.0070653036408
 21
9.360523451532174
 31
0.0
  0
LINE
  5
436
330
221
100
AcDbEntity
  8
7_ALL_FEATURES
  6
CONTINUOUS
 62
     9
100
AcDbLine
 10
280.8388879526408
 20
9.674015125032184
 30
0.0
 11
280.8419067311409
 21
9.923555744032186
 31
0.0
  0
LINE
  5
437
330
221
100
AcDbEntity
  8
7_ALL_FEATURES
  6
CONTINUOUS
 62
     7
100
AcDbLine
 10
284.1422393374409
 20
14.22814403883218
 30
0.0
 11
284.1437326723408
 21
14.35158725243218
 31
0.0
  0
LINE
  5
438
330
221
100
AcDbEntity
  8
7_ALL_FEATURES
  6
CONTINUOUS
 62
     7
100
AcDbLine
 10
291.3188573345408
 20
13.36406119973218
 30
0.0
 11
291.2504490090408
 21
13.32470656433217
 31
0.0
  0
LINE
  5
439
330
221
100
AcDbEntity
  8
7_ALL_FEATURES
  6
CONTINUOUS
 62
     7
100
AcDbLine
 10
285.6812994501408
 20
7.539403817232184
 30
0.0
 11
285.7497077756408
 21
7.578758452632187
 31
0.0
  0
LINE
  5
43A
330
221
100
AcDbEntity
  8
7_ALL_FEATURES
  6
CONTINUOUS
 62
     7
100
AcDbLine
 10
284.5445475064408
 20
13.79124936353217
 30
0.0
 11
284.5496936468408
 21
14.21664364243217
 31
0.0
  0
LINE
  5
43B
330
221
100
AcDbEntity
  8
7_ALL_FEATURES
  6
CONTINUOUS
 62
     9
100
AcDbLine
 10
284.6797563928408
 20
13.68609819253219
 30
0.0
 11
284.6853356132409
 21
14.14729205523219
 31
0.0
  0
LINE
  5
43C
330
221
100
AcDbEntity
  8
7_ALL_FEATURES
  6
CONTINUOUS
 62
     9
100
AcDbLine
 10
278.9078471435408
 20
9.035376515032183
 30
0.0
 11
279.0070653036408
 21
9.360523451532174
 31
0.0
  0
LINE
  5
43D
330
221
100
AcDbEntity
  8
7_ALL_FEATURES
  6
CONTINUOUS
 62
     7
100
AcDbLine
 10
280.3948655232408
 20
9.456586752932182
 30
0.0
 11
284.5445475064408
 21
13.79124936353217
 31
0.0
  0
LINE
  5
43E
330
221
100
AcDbEntity
  8
7_ALL_FEATURES
  6
CONTINUOUS
 62
     7
100
AcDbLine
 10
284.6797563928408
 20
13.68609819253219
 30
0.0
 11
280.8388879526408
 21
9.674015125032184
 31
0.0
  0
LINE
  5
43F
330
221
100
AcDbEntity
  8
7_ALL_FEATURES
  6
CONTINUOUS
 62
     7
100
AcDbLine
 10
284.9076494200409
 20
13.41693191203218
 30
0.0
 11
281.0667809798408
 21
9.404848844532182
 31
0.0
  0
LINE
  5
440
330
221
100
AcDbEntity
  8
7_ALL_FEATURES
  6
CONTINUOUS
 62
     7
100
AcDbLine
 10
291.2504490090408
 20
13.32470656433217
 30
0.0
 11
291.0855364514408
 21
13.18454582163218
 31
0.0
  0
LINE
  5
441
330
221
100
AcDbEntity
  8
7_ALL_FEATURES
  6
CONTINUOUS
 62
     7
100
AcDbLine
 10
285.9146203332408
 20
7.718919195232175
 30
0.0
 11
285.7497077756408
 21
7.578758452632187
 31
0.0
  0
LINE
  5
442
330
221
100
AcDbEntity
  8
7_ALL_FEATURES
  6
CONTINUOUS
 62
     7
100
AcDbLine
 10
291.1847546115408
 20
13.50969275813218
 30
0.0
 11
291.6108413002408
 21
48.73120295033218
 31
0.0
  0
LINE
  5
443
330
221
100
AcDbEntity
  8
7_ALL_FEATURES
  6
CONTINUOUS
 62
     7
100
AcDbLine
 10
291.3188573345408
 20
13.36406119973218
 30
0.0
 11
291.7449440232408
 21
48.58557139183219
 31
0.0
  0
LINE
  5
444
330
221
100
AcDbEntity
  8
7_ALL_FEATURES
  6
CONTINUOUS
 62
     7
100
AcDbLine
 10
291.0855364514408
 20
13.18454582163218
 30
0.0
 11
285.6812994501408
 21
7.539403817232184
 31
0.0
  0
LINE
  5
445
330
221
100
AcDbEntity
  8
7_ALL_FEATURES
  6
CONTINUOUS
 62
     7
100
AcDbLine
 10
291.3188573345408
 20
13.36406119973218
 30
0.0
 11
285.9146203332408
 21
7.718919195232175
 31
0.0
  0
LINE
  5
446
330
221
100
AcDbEntity
  8
7_ALL_FEATURES
  6
CONTINUOUS
 62
     7
100
AcDbLine
 10
291.6792496257409
 20
48.77055758573218
 30
0.0
 11
291.7449440232408
 21
48.58557139183219
 31
0.0
  0
LINE
  5
447
330
221
100
AcDbEntity
  8
7_ALL_FEATURES
  6
CONTINUOUS
 62
     7
100
AcDbLine
 10
55.4325892547245
 20
126.9594457244717
 30
0.0
 11
55.4325892547245
 21
98.95944572447172
 31
0.0
  0
LINE
  5
448
330
221
100
AcDbEntity
  8
7_ALL_FEATURES
  6
CONTINUOUS
 62
     7
100
AcDbLine
 10
55.93258925472452
 20
126.9594457244717
 30
0.0
 11
55.93258925472452
 21
98.95944572447172
 31
0.0
  0
LINE
  5
449
330
221
100
AcDbEntity
  8
7_ALL_FEATURES
  6
CONTINUOUS
 62
     7
100
AcDbLine
 10
57.4325892547245
 20
119.4594457244717
 30
0.0
 11
57.4325892547245
 21
106.4594457244717
 31
0.0
  0
LINE
  5
44A
330
221
100
AcDbEntity
  8
7_ALL_FEATURES
  6
CONTINUOUS
 62
     7
100
AcDbLine
 10
57.9325892547245
 20
119.4594457244717
 30
0.0
 11
57.9325892547245
 21
106.4594457244717
 31
0.0
  0
LINE
  5
44B
330
221
100
AcDbEntity
  8
7_ALL_FEATURES
  6
CONTINUOUS
 62
     7
100
AcDbLine
 10
58.43258925472452
 20
106.9594457244717
 30
0.0
 11
58.43258925472452
 21
118.9594457244717
 31
0.0
  0
LINE
  5
44C
330
221
100
AcDbEntity
  8
7_ALL_FEATURES
  6
CONTINUOUS
 62
     9
100
AcDbLine
 10
63.9325892547245
 20
100.4594457244718
 30
0.0
 11
63.9325892547245
 21
99.95944572447172
 31
0.0
  0
LINE
  5
44D
330
221
100
AcDbEntity
  8
7_ALL_FEATURES
  6
CONTINUOUS
 62
     9
100
AcDbLine
 10
63.9325892547245
 20
125.4594457244718
 30
0.0
 11
63.9325892547245
 21
125.9594457244718
 31
0.0
  0
LINE
  5
44E
330
221
100
AcDbEntity
  8
02___PRT_ALL_AXES
  6
CONTINUOUS
 62
     7
100
AcDbLine
 10
77.9325892547245
 20
115.4594457244718
 30
0.0
 11
77.9325892547245
 21
110.4594457244718
 31
0.0
  0
LINE
  5
44F
330
221
100
AcDbEntity
  8
02___PRT_ALL_AXES
  6
CONTINUOUS
 62
     7
100
AcDbLine
 10
82.9325892547245
 20
110.4594457244718
 30
0.0
 11
82.9325892547245
 21
115.4594457244718
 31
0.0
  0
LINE
  5
450
330
221
100
AcDbEntity
  8
7_ALL_FEATURES
  6
CONTINUOUS
 62
     7
100
AcDbLine
 10
55.4325892547245
 20
98.95944572447172
 30
0.0
 11
55.93258925472452
 21
98.45944572447178
 31
0.0
  0
LINE
  5
451
330
221
100
AcDbEntity
  8
7_ALL_FEATURES
  6
CONTINUOUS
 62
     7
100
AcDbLine
 10
63.48921358172451
 20
112.9594457244718
 30
0.0
 11
64.21090141822451
 21
111.7094457244718
 31
0.0
  0
LINE
  5
452
330
221
100
AcDbEntity
  8
7_ALL_FEATURES
  6
CONTINUOUS
 62
     7
100
AcDbLine
 10
66.37596492772451
 20
112.9594457244718
 30
0.0
 11
65.65427709122451
 21
114.2094457244718
 31
0.0
  0
LINE
  5
453
330
221
100
AcDbEntity
  8
7_ALL_FEATURES
  6
CONTINUOUS
 62
     7
100
AcDbLine
 10
64.21090141822451
 20
114.2094457244718
 30
0.0
 11
63.48921358172451
 21
112.9594457244718
 31
0.0
  0
LINE
  5
454
330
221
100
AcDbEntity
  8
7_ALL_FEATURES
  6
CONTINUOUS
 62
     7
100
AcDbLine
 10
65.65427709122451
 20
111.7094457244718
 30
0.0
 11
66.37596492772451
 21
112.9594457244718
 31
0.0
  0
LINE
  5
455
330
221
100
AcDbEntity
  8
7_ALL_FEATURES
  6
CONTINUOUS
 62
     7
100
AcDbLine
 10
55.93258925472452
 20
127.4594457244717
 30
0.0
 11
55.4325892547245
 21
126.9594457244717
 31
0.0
  0
LINE
  5
456
330
221
100
AcDbEntity
  8
7_ALL_FEATURES
  6
CONTINUOUS
 62
     7
100
AcDbLine
 10
97.4325892547245
 20
122.9594457244718
 30
0.0
 11
97.4325892547245
 21
115.9594457244718
 31
0.0
  0
LINE
  5
457
330
221
100
AcDbEntity
  8
7_ALL_FEATURES
  6
CONTINUOUS
 62
     7
100
AcDbLine
 10
55.93258925472452
 20
126.9594457244717
 30
0.0
 11
55.68258925472452
 21
127.2094457244718
 31
0.0
  0
LINE
  5
458
330
221
100
AcDbEntity
  8
06___PRT_ALL_SURFS
  6
CONTINUOUS
 62
     7
100
AcDbLine
 10
113.2817448812245
 20
109.4196433959717
 30
0.0
 11
113.2817448812245
 21
109.1738776269717
 31
0.0
  0
LINE
  5
459
330
221
100
AcDbEntity
  8
02___PRT_ALL_AXES
  6
CONTINUOUS
 62
     7
100
AcDbLine
 10
113.5825892547245
 20
107.9594457244718
 30
0.0
 11
113.5825892547245
 21
108.2094457244717
 31
0.0
  0
LINE
  5
45A
330
221
100
AcDbEntity
  8
02___PRT_ALL_AXES
  6
CONTINUOUS
 62
     7
100
AcDbLine
 10
114.2825892547245
 20
108.2094457244717
 30
0.0
 11
114.2825892547245
 21
107.9594457244718
 31
0.0
  0
LINE
  5
45B
330
221
100
AcDbEntity
  8
06___PRT_ALL_SURFS
  6
CONTINUOUS
 62
     7
100
AcDbLine
 10
114.3721244972245
 20
109.4196427974718
 30
0.0
 11
114.3721244972245
 21
109.2246084607217
 31
0.0
  0
LINE
  5
45C
330
221
100
AcDbEntity
  8
06___PRT_ALL_SURFS
  6
CONTINUOUS
 62
     7
100
AcDbLine
 10
114.5834336282245
 20
109.4196427974718
 30
0.0
 11
114.5834336282245
 21
109.1738776269717
 31
0.0
  0
LINE
  5
45D
330
221
100
AcDbEntity
  8
7_ALL_FEATURES
  6
CONTINUOUS
 62
     7
100
AcDbLine
 10
55.93258925472452
 20
98.95944572447172
 30
0.0
 11
55.68258925472452
 21
98.70944572447172
 31
0.0
  0
LINE
  5
45E
330
221
100
AcDbEntity
  8
02___PRT_ALL_AXES
  6
CONTINUOUS
 62
     7
100
AcDbLine
 10
120.4325892547245
 20
108.9594457244717
 30
0.0
 11
120.4325892547245
 21
107.9594457244718
 31
0.0
  0
LINE
  5
45F
330
221
100
AcDbEntity
  8
06___PRT_ALL_SURFS
  6
CONTINUOUS
 62
     7
100
AcDbLine
 10
111.8888426577245
 20
108.6976299214717
 30
0.0
 11
112.0098017894745
 21
108.4881225597217
 31
0.0
  0
LINE
  5
460
330
221
100
AcDbEntity
  8
06___PRT_ALL_SURFS
  6
CONTINUOUS
 62
     7
100
AcDbLine
 10
112.8331394042245
 20
109.2428192112217
 30
0.0
 11
112.9344433252245
 21
109.0673556729717
 31
0.0
  0
LINE
  5
461
330
221
100
AcDbEntity
  8
06___PRT_ALL_SURFS
  6
CONTINUOUS
 62
     7
100
AcDbLine
 10
113.0161384794745
 20
109.3484737764717
 30
0.0
 11
113.1370040702245
 21
109.1391284324717
 31
0.0
  0
LINE
  5
462
330
221
100
AcDbEntity
  8
7_ALL_FEATURES
  6
CONTINUOUS
 62
     7
100
AcDbLine
 10
112.4892135817245
 20
118.9594457244717
 30
0.0
 11
113.2109014182245
 21
117.7094457244717
 31
0.0
  0
LINE
  5
463
330
221
100
AcDbEntity
  8
7_ALL_FEATURES
  6
CONTINUOUS
 62
     7
100
AcDbLine
 10
125.9325892547245
 20
123.9594457244717
 30
0.0
 11
125.9325892547245
 21
125.4594457244718
 31
0.0
  0
LINE
  5
464
330
221
100
AcDbEntity
  8
7_ALL_FEATURES
  6
CONTINUOUS
 62
     9
100
AcDbLine
 10
126.5736101754745
 20
123.9594457244717
 30
0.0
 11
126.5736101754745
 21
125.4594457244718
 31
0.0
  0
LINE
  5
465
330
221
100
AcDbEntity
  8
02___PRT_ALL_AXES
  6
CONTINUOUS
 62
     7
100
AcDbLine
 10
126.9325892547245
 20
109.4594457244717
 30
0.0
 11
126.9325892547245
 21
107.9594457244718
 31
0.0
  0
LINE
  5
466
330
221
100
AcDbEntity
  8
7_ALL_FEATURES
  6
CONTINUOUS
 62
     9
100
AcDbLine
 10
131.7915683339745
 20
123.9594457244717
 30
0.0
 11
131.7915683339745
 21
125.4594457244718
 31
0.0
  0
LINE
  5
467
330
221
100
AcDbEntity
  8
02___PRT_ALL_AXES
  6
CONTINUOUS
 62
     7
100
AcDbLine
 10
132.3325892547245
 20
109.4594457244717
 30
0.0
 11
132.3325892547245
 21
107.9594457244718
 31
0.0
  0
LINE
  5
468
330
221
100
AcDbEntity
  8
7_ALL_FEATURES
  6
CONTINUOUS
 62
     7
100
AcDbLine
 10
132.4325892547245
 20
108.4009641644718
 30
0.0
 11
132.4325892547245
 21
125.4594457244718
 31
0.0
  0
LINE
  5
469
330
221
100
AcDbEntity
  8
7_ALL_FEATURES
  6
CONTINUOUS
 62
     9
100
AcDbLine
 10
134.4325892547245
 20
108.4009641644718
 30
0.0
 11
134.4325892547245
 21
125.4594457244718
 31
0.0
  0
LINE
  5
46A
330
221
100
AcDbEntity
  8
7_ALL_FEATURES
  6
CONTINUOUS
 62
     7
100
AcDbLine
 10
113.2109014182245
 20
120.2094457244717
 30
0.0
 11
112.4892135817245
 21
118.9594457244717
 31
0.0
  0
LINE
  5
46B
330
221
100
AcDbEntity
  8
7_ALL_FEATURES
  6
CONTINUOUS
 62
     7
100
AcDbLine
 10
114.6542770912245
 20
117.7094457244717
 30
0.0
 11
115.3759649277245
 21
118.9594457244717
 31
0.0
  0
LINE
  5
46C
330
221
100
AcDbEntity
  8
06___PRT_ALL_SURFS
  6
CONTINUOUS
 62
     7
100
AcDbLine
 10
111.3789272934745
 20
108.0557911222217
 30
0.0
 11
111.3233022522245
 21
107.9594457244718
 31
0.0
  0
LINE
  5
46D
330
221
100
AcDbEntity
  8
06___PRT_ALL_SURFS
  6
CONTINUOUS
 62
     7
100
AcDbLine
 10
111.6944055759745
 20
108.5031920222218
 30
0.0
 11
111.5887510107245
 21
108.3201929467218
 31
0.0
  0
LINE
  5
46E
330
221
100
AcDbEntity
  8
06___PRT_ALL_SURFS
  6
CONTINUOUS
 62
     7
100
AcDbLine
 10
114.8490403292245
 20
109.3484742949718
 30
0.0
 11
114.7281744392245
 21
109.1391284324717
 31
0.0
  0
LINE
  5
46F
330
221
100
AcDbEntity
  8
06___PRT_ALL_SURFS
  6
CONTINUOUS
 62
     7
100
AcDbLine
 10
115.7933364772245
 20
108.8032839684717
 30
0.0
 11
115.6919595609745
 21
108.6276939989717
 31
0.0
  0
LINE
  5
470
330
221
100
AcDbEntity
  8
06___PRT_ALL_SURFS
  6
CONTINUOUS
 62
     7
100
AcDbLine
 10
115.9763355524745
 20
108.6976294032217
 30
0.0
 11
115.8553767199745
 21
108.4881225597217
 31
0.0
  0
LINE
  5
471
330
221
100
AcDbEntity
  8
7_ALL_FEATURES
  6
CONTINUOUS
 62
     7
100
AcDbLine
 10
115.3759649277245
 20
118.9594457244717
 30
0.0
 11
114.6542770912245
 21
120.2094457244717
 31
0.0
  0
LINE
  5
473
330
221
100
AcDbEntity
  8
7_ALL_FEATURES
  6
CONTINUOUS
 62
     9
100
AcDbLine
 10
134.2854164414745
 20
107.9594457244718
 30
0.0
 11
134.4325892547245
 21
108.4009641644718
 31
0.0
  0
LINE
  5
475
330
221
100
AcDbEntity
  8
06___PRT_ALL_SURFS
  6
CONTINUOUS
 62
     7
100
AcDbLine
 10
111.5887510107245
 20
108.3201929467218
 30
0.0
 11
111.7643409802245
 21
108.2188160304717
 31
0.0
  0
LINE
  5
476
330
221
100
AcDbEntity
  8
06___PRT_ALL_SURFS
  6
CONTINUOUS
 62
     7
100
AcDbLine
 10
111.6944055759745
 20
108.5031920222218
 30
0.0
 11
111.9039124194745
 21
108.3822331897218
 31
0.0
  0
LINE
  5
477
330
221
100
AcDbEntity
  8
06___PRT_ALL_SURFS
  6
CONTINUOUS
 62
     7
100
AcDbLine
 10
115.9763355524745
 20
108.6976294032217
 30
0.0
 11
115.7933364772245
 21
108.8032839684717
 31
0.0
  0
LINE
  5
478
330
221
100
AcDbEntity
  8
06___PRT_ALL_SURFS
  6
CONTINUOUS
 62
     7
100
AcDbLine
 10
115.5289346524745
 20
109.0131076857216
 30
0.0
 11
115.3459355769745
 21
109.1187622509717
 31
0.0
  0
LINE
  5
479
330
221
100
AcDbEntity
  8
06___PRT_ALL_SURFS
  6
CONTINUOUS
 62
     7
100
AcDbLine
 10
112.5192258224745
 20
109.1187523727217
 30
0.0
 11
112.3362267472245
 21
109.0130978072218
 31
0.0
  0
LINE
  5
47A
330
221
100
AcDbEntity
  8
06___PRT_ALL_SURFS
  6
CONTINUOUS
 62
     7
100
AcDbLine
 10
113.0161384794745
 20
109.3484737764717
 30
0.0
 11
112.8331394042245
 21
109.2428192112217
 31
0.0
  0
LINE
  5
47B
330
221
100
AcDbEntity
  8
06___PRT_ALL_SURFS
  6
CONTINUOUS
 62
     7
100
AcDbLine
 10
116.1707734517245
 20
108.5031923214717
 30
0.0
 11
115.9612660899745
 21
108.3822331897218
 31
0.0
  0
LINE
  5
47C
330
221
100
AcDbEntity
  8
02___PRT_ALL_AXES
  6
CONTINUOUS
 62
     7
100
AcDbLine
 10
120.4325892547245
 20
108.4594457244718
 30
0.0
 11
114.7716884274745
 21
109.8573734132218
 31
0.0
  0
LINE
  5
47D
330
221
100
AcDbEntity
  8
7_ALL_FEATURES
  6
CONTINUOUS
 62
     9
100
AcDbLine
 10
134.4325892547245
 20
108.4009641644718
 30
0.0
 11
135.7571445749745
 21
107.9594457244718
 31
0.0
  0
LINE
  5
47E
330
221
100
AcDbEntity
  8
7_ALL_FEATURES
  6
CONTINUOUS
 62
     7
100
AcDbLine
 10
348.9325892547245
 20
98.45944572447178
 30
0.0
 11
55.93258925472452
 21
98.45944572447178
 31
0.0
  0
LINE
  5
47F
330
221
100
AcDbEntity
  8
7_ALL_FEATURES
  6
CONTINUOUS
 62
     7
100
AcDbLine
 10
348.9325892547245
 20
98.95944572447172
 30
0.0
 11
55.93258925472452
 21
98.95944572447172
 31
0.0
  0
LINE
  5
480
330
221
100
AcDbEntity
  8
7_ALL_FEATURES
  6
CONTINUOUS
 62
     7
100
AcDbLine
 10
63.9325892547245
 20
99.95944572447172
 30
0.0
 11
340.9325892547245
 21
99.95944572447172
 31
0.0
  0
LINE
  5
481
330
221
100
AcDbEntity
  8
7_ALL_FEATURES
  6
CONTINUOUS
 62
     7
100
AcDbLine
 10
63.9325892547245
 20
100.4594457244718
 30
0.0
 11
340.9325892547245
 21
100.4594457244718
 31
0.0
  0
LINE
  5
482
330
221
100
AcDbEntity
  8
7_ALL_FEATURES
  6
CONTINUOUS
 62
     7
100
AcDbLine
 10
340.4325892547245
 20
100.9594457244718
 30
0.0
 11
206.0033034689745
 21
100.9594457244718
 31
0.0
  0
LINE
  5
483
330
221
100
AcDbEntity
  8
7_ALL_FEATURES
  6
CONTINUOUS
 62
     7
100
AcDbLine
 10
203.4325892547245
 20
100.9594457244718
 30
0.0
 11
64.43258925472452
 21
100.9594457244718
 31
0.0
  0
LINE
  5
485
330
221
100
AcDbEntity
  8
7_ALL_FEATURES
  6
CONTINUOUS
 62
     7
100
AcDbLine
 10
204.5171351389745
 20
101.9594457244717
 30
0.0
 11
200.3480433704745
 21
101.9594457244717
 31
0.0
  0
LINE
  5
486
330
221
100
AcDbEntity
  8
7_ALL_FEATURES
  6
CONTINUOUS
 62
     9
100
AcDbLine
 10
57.9325892547245
 20
106.4594457244717
 30
0.0
 11
57.4325892547245
 21
106.4594457244717
 31
0.0
  0
LINE
  5
487
330
221
100
AcDbEntity
  8
7_ALL_FEATURES
  6
CONTINUOUS
 62
     9
100
AcDbLine
 10
346.9325892547245
 20
106.4594457244717
 30
0.0
 11
347.4325892547245
 21
106.4594457244717
 31
0.0
  0
LINE
  5
488
330
221
100
AcDbEntity
  8
7_ALL_FEATURES
  6
CONTINUOUS
 62
     7
100
AcDbLine
 10
105.4325892547245
 20
107.9594457244718
 30
0.0
 11
299.4325892547245
 21
107.9594457244718
 31
0.0
  0
LINE
  5
489
330
221
100
AcDbEntity
  8
02___PRT_ALL_AXES
  6
CONTINUOUS
 62
     7
100
AcDbLine
 10
113.5825892547245
 20
108.2094457244717
 30
0.0
 11
114.2825892547245
 21
108.2094457244717
 31
0.0
  0
LINE
  5
48A
330
221
100
AcDbEntity
  8
7_ALL_FEATURES
  6
CONTINUOUS
 62
     9
100
AcDbLine
 10
134.4325892547245
 20
108.4009641644718
 30
0.0
 11
132.4325892547245
 21
108.4009641644718
 31
0.0
  0
LINE
  5
48B
330
221
100
AcDbEntity
  8
7_ALL_FEATURES
  6
CONTINUOUS
 62
     7
100
AcDbLine
 10
102.0898699724745
 20
108.9594457244717
 30
0.0
 11
101.6308856097245
 21
108.9594457244717
 31
0.0
  0
LINE
  5
48C
330
221
100
AcDbEntity
  8
02___PRT_ALL_AXES
  6
CONTINUOUS
 62
     7
100
AcDbLine
 10
120.4325892547245
 20
108.9594457244717
 30
0.0
 11
126.9325892547245
 21
108.9594457244717
 31
0.0
  0
LINE
  5
48D
330
221
100
AcDbEntity
  8
06___PRT_ALL_SURFS
  6
CONTINUOUS
 62
     7
100
AcDbLine
 10
114.5834336282245
 20
109.4196427974718
 30
0.0
 11
114.3721244972245
 21
109.4196427974718
 31
0.0
  0
LINE
  5
48E
330
221
100
AcDbEntity
  8
02___PRT_ALL_AXES
  6
CONTINUOUS
 62
     7
100
AcDbLine
 10
126.9325892547245
 20
109.4594457244717
 30
0.0
 11
132.3325892547245
 21
109.4594457244717
 31
0.0
  0
LINE
  5
48F
330
221
100
AcDbEntity
  8
06___PRT_ALL_SURFS
  6
CONTINUOUS
 62
     7
100
AcDbLine
 10
114.0382339417245
 20
109.4691545544718
 30
0.0
 11
113.8269248109745
 21
109.4691545544718
 31
0.0
  0
LINE
  5
490
330
221
100
AcDbEntity
  8
02___PRT_ALL_AXES
  6
CONTINUOUS
 62
     7
100
AcDbLine
 10
321.9325892547245
 20
110.4594457244718
 30
0.0
 11
326.9325892547245
 21
110.4594457244718
 31
0.0
  0
LINE
  5
492
330
221
100
AcDbEntity
  8
7_ALL_FEATURES
  6
CONTINUOUS
 62
     7
100
AcDbLine
 10
203.4325892547245
 20
101.9594457244717
 30
0.0
 11
203.4325892547245
 21
100.9594457244718
 31
0.0
  0
LINE
  5
493
330
221
100
AcDbEntity
  8
7_ALL_FEATURES
  6
CONTINUOUS
 62
     7
100
AcDbLine
 10
64.21090141822451
 20
111.7094457244718
 30
0.0
 11
65.65427709122451
 21
111.7094457244718
 31
0.0
  0
LINE
  5
494
330
221
100
AcDbEntity
  8
7_ALL_FEATURES
  6
CONTINUOUS
 62
     7
100
AcDbLine
 10
339.2109014182245
 20
111.7094457244718
 30
0.0
 11
340.6542770912245
 21
111.7094457244718
 31
0.0
  0
LINE
  5
495
330
221
100
AcDbEntity
  8
7_ALL_FEATURES
  6
CONTINUOUS
 62
     7
100
AcDbLine
 10
340.6542770912245
 20
114.2094457244718
 30
0.0
 11
339.2109014182245
 21
114.2094457244718
 31
0.0
  0
LINE
  5
496
330
221
100
AcDbEntity
  8
7_ALL_FEATURES
  6
CONTINUOUS
 62
     7
100
AcDbLine
 10
65.65427709122451
 20
114.2094457244718
 30
0.0
 11
64.21090141822451
 21
114.2094457244718
 31
0.0
  0
LINE
  5
497
330
221
100
AcDbEntity
  8
02___PRT_ALL_AXES
  6
CONTINUOUS
 62
     7
100
AcDbLine
 10
326.9325892547245
 20
115.4594457244718
 30
0.0
 11
321.9325892547245
 21
115.4594457244718
 31
0.0
  0
LINE
  5
498
330
221
100
AcDbEntity
  8
7_ALL_FEATURES
  6
CONTINUOUS
 62
     7
100
AcDbLine
 10
97.4325892547245
 20
116.9594457244717
 30
0.0
 11
102.0898699724745
 21
116.9594457244717
 31
0.0
  0
LINE
  5
499
330
221
100
AcDbEntity
  8
7_ALL_FEATURES
  6
CONTINUOUS
 62
     7
100
AcDbLine
 10
97.4325892547245
 20
117.4594457244717
 30
0.0
 11
101.7362785199745
 21
117.4594457244717
 31
0.0
  0
LINE
  5
49A
330
221
100
AcDbEntity
  8
7_ALL_FEATURES
  6
CONTINUOUS
 62
     7
100
AcDbLine
 10
113.2109014182245
 20
117.7094457244717
 30
0.0
 11
114.6542770912245
 21
117.7094457244717
 31
0.0
  0
LINE
  5
49B
330
221
100
AcDbEntity
  8
7_ALL_FEATURES
  6
CONTINUOUS
 62
     9
100
AcDbLine
 10
57.9325892547245
 20
119.4594457244717
 30
0.0
 11
57.4325892547245
 21
119.4594457244717
 31
0.0
  0
LINE
  5
49C
330
221
100
AcDbEntity
  8
7_ALL_FEATURES
  6
CONTINUOUS
 62
     9
100
AcDbLine
 10
346.9325892547245
 20
119.4594457244717
 30
0.0
 11
347.4325892547245
 21
119.4594457244717
 31
0.0
  0
LINE
  5
49D
330
221
100
AcDbEntity
  8
7_ALL_FEATURES
  6
CONTINUOUS
 62
     7
100
AcDbLine
 10
114.6542770912245
 20
120.2094457244717
 30
0.0
 11
113.2109014182245
 21
120.2094457244717
 31
0.0
  0
LINE
  5
4A1
330
221
100
AcDbEntity
  8
7_ALL_FEATURES
  6
CONTINUOUS
 62
     7
100
AcDbLine
 10
125.9325892547245
 20
123.9594457244717
 30
0.0
 11
132.4325892547245
 21
123.9594457244717
 31
0.0
  0
LINE
  5
4A2
330
221
100
AcDbEntity
  8
7_ALL_FEATURES
  6
CONTINUOUS
 62
     7
100
AcDbLine
 10
244.4325892547245
 20
123.9594457244717
 30
0.0
 11
247.8586998987245
 21
123.9594457244717
 31
0.0
  0
LINE
  5
4A3
330
221
100
AcDbEntity
  8
7_ALL_FEATURES
  6
CONTINUOUS
 62
     7
100
AcDbLine
 10
64.43258925472452
 20
124.9594457244717
 30
0.0
 11
95.4325892547245
 21
124.9594457244717
 31
0.0
  0
LINE
  5
4A4
330
221
100
AcDbEntity
  8
7_ALL_FEATURES
  6
CONTINUOUS
 62
     7
100
AcDbLine
 10
309.4325892547245
 20
124.9594457244717
 30
0.0
 11
340.4325892547245
 21
124.9594457244717
 31
0.0
  0
LINE
  5
4A5
330
221
100
AcDbEntity
  8
7_ALL_FEATURES
  6
CONTINUOUS
 62
     7
100
AcDbLine
 10
340.9325892547245
 20
125.4594457244718
 30
0.0
 11
63.9325892547245
 21
125.4594457244718
 31
0.0
  0
LINE
  5
4A6
330
221
100
AcDbEntity
  8
7_ALL_FEATURES
  6
CONTINUOUS
 62
     7
100
AcDbLine
 10
340.9325892547245
 20
125.9594457244718
 30
0.0
 11
63.9325892547245
 21
125.9594457244718
 31
0.0
  0
LINE
  5
4A7
330
221
100
AcDbEntity
  8
7_ALL_FEATURES
  6
CONTINUOUS
 62
     7
100
AcDbLine
 10
55.93258925472452
 20
126.9594457244717
 30
0.0
 11
348.9325892547245
 21
126.9594457244717
 31
0.0
  0
LINE
  5
4A8
330
221
100
AcDbEntity
  8
7_ALL_FEATURES
  6
CONTINUOUS
 62
     7
100
AcDbLine
 10
55.93258925472452
 20
127.4594457244717
 30
0.0
 11
348.9325892547245
 21
127.4594457244717
 31
0.0
  0
LINE
  5
4A9
330
221
100
AcDbEntity
  8
7_ALL_FEATURES
  6
CONTINUOUS
 62
     9
100
AcDbLine
 10
242.4325892547245
 20
107.9594457244718
 30
0.0
 11
242.4325892547245
 21
125.4423653227217
 31
0.0
  0
LINE
  5
4AD
330
221
100
AcDbEntity
  8
7_ALL_FEATURES
  6
CONTINUOUS
 62
     7
100
AcDbLine
 10
244.4325892547245
 20
107.9594457244718
 30
0.0
 11
244.4325892547245
 21
125.2054456659718
 31
0.0
  0
LINE
  5
4AE
330
221
100
AcDbEntity
  8
7_ALL_FEATURES
  6
CONTINUOUS
 62
     9
100
AcDbLine
 10
245.0736101754745
 20
125.0523121149717
 30
0.0
 11
245.0736101754745
 21
123.9594457244717
 31
0.0
  0
LINE
  5
4B0
330
221
100
AcDbEntity
  8
7_ALL_FEATURES
  6
CONTINUOUS
 62
     7
100
AcDbLine
 10
348.9325892547245
 20
98.95944572447172
 30
0.0
 11
349.1825892547245
 21
98.70944572447172
 31
0.0
  0
LINE
  5
4B1
330
221
100
AcDbEntity
  8
7_ALL_FEATURES
  6
CONTINUOUS
 62
     7
100
AcDbLine
 10
349.1825892547245
 20
127.2094457244718
 30
0.0
 11
348.9325892547245
 21
126.9594457244717
 31
0.0
  0
LINE
  5
4B2
330
221
100
AcDbEntity
  8
7_ALL_FEATURES
  6
CONTINUOUS
 62
     7
100
AcDbLine
 10
307.4325892547245
 20
122.9594457244718
 30
0.0
 11
307.4325892547245
 21
115.9594457244718
 31
0.0
  0
LINE
  5
4B3
330
221
100
AcDbEntity
  8
7_ALL_FEATURES
  6
CONTINUOUS
 62
     7
100
AcDbLine
 10
348.9325892547245
 20
127.4594457244717
 30
0.0
 11
349.4325892547245
 21
126.9594457244717
 31
0.0
  0
LINE
  5
4B4
330
221
100
AcDbEntity
  8
7_ALL_FEATURES
  6
CONTINUOUS
 62
     7
100
AcDbLine
 10
349.4325892547245
 20
98.95944572447172
 30
0.0
 11
348.9325892547245
 21
98.45944572447178
 31
0.0
  0
LINE
  5
4B5
330
221
100
AcDbEntity
  8
7_ALL_FEATURES
  6
CONTINUOUS
 62
     7
100
AcDbLine
 10
338.4892135817245
 20
112.9594457244718
 30
0.0
 11
339.2109014182245
 21
111.7094457244718
 31
0.0
  0
LINE
  5
4B6
330
221
100
AcDbEntity
  8
7_ALL_FEATURES
  6
CONTINUOUS
 62
     7
100
AcDbLine
 10
341.3759649277245
 20
112.9594457244718
 30
0.0
 11
340.6542770912245
 21
114.2094457244718
 31
0.0
  0
LINE
  5
4B7
330
221
100
AcDbEntity
  8
7_ALL_FEATURES
  6
CONTINUOUS
 62
     7
100
AcDbLine
 10
339.2109014182245
 20
114.2094457244718
 30
0.0
 11
338.4892135817245
 21
112.9594457244718
 31
0.0
  0
LINE
  5
4B8
330
221
100
AcDbEntity
  8
7_ALL_FEATURES
  6
CONTINUOUS
 62
     7
100
AcDbLine
 10
340.6542770912245
 20
111.7094457244718
 30
0.0
 11
341.3759649277245
 21
112.9594457244718
 31
0.0
  0
LINE
  5
4B9
330
221
100
AcDbEntity
  8
7_ALL_FEATURES
  6
CONTINUOUS
 62
     9
100
AcDbLine
 10
340.9325892547245
 20
100.4594457244718
 30
0.0
 11
340.9325892547245
 21
99.95944572447172
 31
0.0
  0
LINE
  5
4BA
330
221
100
AcDbEntity
  8
7_ALL_FEATURES
  6
CONTINUOUS
 62
     9
100
AcDbLine
 10
340.9325892547245
 20
125.4594457244718
 30
0.0
 11
340.9325892547245
 21
125.9594457244718
 31
0.0
  0
LINE
  5
4BB
330
221
100
AcDbEntity
  8
7_ALL_FEATURES
  6
CONTINUOUS
 62
     7
100
AcDbLine
 10
346.4325892547245
 20
118.9594457244717
 30
0.0
 11
346.4325892547245
 21
106.9594457244717
 31
0.0
  0
LINE
  5
4BC
330
221
100
AcDbEntity
  8
7_ALL_FEATURES
  6
CONTINUOUS
 62
     7
100
AcDbLine
 10
346.9325892547245
 20
106.4594457244717
 30
0.0
 11
346.9325892547245
 21
119.4594457244717
 31
0.0
  0
LINE
  5
4BD
330
221
100
AcDbEntity
  8
7_ALL_FEATURES
  6
CONTINUOUS
 62
     7
100
AcDbLine
 10
347.4325892547245
 20
106.4594457244717
 30
0.0
 11
347.4325892547245
 21
119.4594457244717
 31
0.0
  0
LINE
  5
4BE
330
221
100
AcDbEntity
  8
7_ALL_FEATURES
  6
CONTINUOUS
 62
     7
100
AcDbLine
 10
348.9325892547245
 20
126.9594457244717
 30
0.0
 11
348.9325892547245
 21
98.95944572447172
 31
0.0
  0
LINE
  5
4BF
330
221
100
AcDbEntity
  8
7_ALL_FEATURES
  6
CONTINUOUS
 62
     7
100
AcDbLine
 10
349.4325892547245
 20
126.9594457244717
 30
0.0
 11
349.4325892547245
 21
98.95944572447172
 31
0.0
  0
LINE
  5
4C5
330
221
100
AcDbEntity
  8
7_ALL_FEATURES
  6
CONTINUOUS
 62
     7
100
AcDbLine
 10
55.4325892547245
 20
276.1940271955169
 30
0.0
 11
55.4325892547245
 21
197.6940271955168
 31
0.0
  0
LINE
  5
4C6
330
221
100
AcDbEntity
  8
7_ALL_FEATURES
  6
CONTINUOUS
 62
     7
100
AcDbLine
 10
55.93258925472452
 20
276.1940271955169
 30
0.0
 11
55.93258925472452
 21
197.6940271955168
 31
0.0
  0
LINE
  5
4C7
330
221
100
AcDbEntity
  8
7_ALL_FEATURES
  6
CONTINUOUS
 62
     7
100
AcDbLine
 10
55.4325892547245
 20
276.1940271955169
 30
0.0
 11
55.93258925472452
 21
276.6940271955168
 31
0.0
  0
LINE
  5
4C8
330
221
100
AcDbEntity
  8
7_ALL_FEATURES
  6
CONTINUOUS
 62
     7
100
AcDbLine
 10
55.93258925472452
 20
197.1940271955168
 30
0.0
 11
55.4325892547245
 21
197.6940271955168
 31
0.0
  0
LINE
  5
4C9
330
221
100
AcDbEntity
  8
7_ALL_FEATURES
  6
CONTINUOUS
 62
     7
100
AcDbLine
 10
55.68258925472452
 20
197.4440271955168
 30
0.0
 11
55.93258925472452
 21
197.6940271955168
 31
0.0
  0
LINE
  5
4CA
330
221
100
AcDbEntity
  8
7_ALL_FEATURES
  6
CONTINUOUS
 62
     7
100
AcDbLine
 10
55.68258925472452
 20
276.4440271955168
 30
0.0
 11
55.93258925472452
 21
276.1940271955169
 31
0.0
  0
LINE
  5
4CC
330
221
100
AcDbEntity
  8
7_ALL_FEATURES
  6
CONTINUOUS
 62
     7
100
AcDbLine
 10
55.93258925472452
 20
197.1940271955168
 30
0.0
 11
348.9325892547245
 21
197.1940271955168
 31
0.0
  0
LINE
  5
4CD
330
221
100
AcDbEntity
  8
7_ALL_FEATURES
  6
CONTINUOUS
 62
     7
100
AcDbLine
 10
55.93258925472452
 20
197.6940271955168
 30
0.0
 11
348.9325892547245
 21
197.6940271955168
 31
0.0
  0
LINE
  5
4D1
330
221
100
AcDbEntity
  8
7_ALL_FEATURES
  6
CONTINUOUS
 62
     7
100
AcDbLine
 10
348.9325892547245
 20
276.1940271955169
 30
0.0
 11
55.93258925472452
 21
276.1940271955169
 31
0.0
  0
LINE
  5
4D2
330
221
100
AcDbEntity
  8
7_ALL_FEATURES
  6
CONTINUOUS
 62
     7
100
AcDbLine
 10
348.9325892547245
 20
276.6940271955168
 30
0.0
 11
55.93258925472452
 21
276.6940271955168
 31
0.0
  0
LINE
  5
4D5
330
221
100
AcDbEntity
  8
7_ALL_FEATURES
  6
CONTINUOUS
 62
     7
100
AcDbLine
 10
349.1825892547245
 20
276.4440271955168
 30
0.0
 11
348.9325892547245
 21
276.1940271955169
 31
0.0
  0
LINE
  5
4D6
330
221
100
AcDbEntity
  8
7_ALL_FEATURES
  6
CONTINUOUS
 62
     7
100
AcDbLine
 10
348.9325892547245
 20
197.6940271955168
 30
0.0
 11
349.1825892547245
 21
197.4440271955168
 31
0.0
  0
LINE
  5
4D7
330
221
100
AcDbEntity
  8
7_ALL_FEATURES
  6
CONTINUOUS
 62
     7
100
AcDbLine
 10
349.4325892547245
 20
197.6940271955168
 30
0.0
 11
348.9325892547245
 21
197.1940271955168
 31
0.0
  0
LINE
  5
4D8
330
221
100
AcDbEntity
  8
7_ALL_FEATURES
  6
CONTINUOUS
 62
     7
100
AcDbLine
 10
349.4325892547245
 20
276.1940271955169
 30
0.0
 11
348.9325892547245
 21
276.6940271955168
 31
0.0
  0
LINE
  5
4D9
330
221
100
AcDbEntity
  8
7_ALL_FEATURES
  6
CONTINUOUS
 62
     7
100
AcDbLine
 10
348.9325892547245
 20
197.6940271955168
 30
0.0
 11
348.9325892547245
 21
276.1940271955169
 31
0.0
  0
LINE
  5
4DA
330
221
100
AcDbEntity
  8
7_ALL_FEATURES
  6
CONTINUOUS
 62
     7
100
AcDbLine
 10
349.4325892547245
 20
197.6940271955168
 30
0.0
 11
349.4325892547245
 21
276.1940271955169
 31
0.0
  0
LINE
  5
4DD
330
221
100
AcDbEntity
  8
7_ALL_FEATURES
  6
CONTINUOUS
 62
     7
100
AcDbLine
 10
390.5949956123763
 20
197.1940271955167
 30
0.0
 11
418.5949956123762
 21
197.1940271955167
 31
0.0
  0
LINE
  5
4DE
330
221
100
AcDbEntity
  8
7_ALL_FEATURES
  6
CONTINUOUS
 62
     7
100
AcDbLine
 10
390.5949956123763
 20
197.6940271955166
 30
0.0
 11
418.5949956123762
 21
197.6940271955166
 31
0.0
  0
LINE
  5
4DF
330
221
100
AcDbEntity
  8
7_ALL_FEATURES
  6
CONTINUOUS
 62
     7
100
AcDbLine
 10
390.0949956123762
 20
276.1940271955166
 30
0.0
 11
390.5949956123763
 21
276.6940271955166
 31
0.0
  0
LINE
  5
4E0
330
221
100
AcDbEntity
  8
7_ALL_FEATURES
  6
CONTINUOUS
 62
     7
100
AcDbLine
 10
390.0949956123762
 20
197.6940271955166
 30
0.0
 11
390.5949956123763
 21
197.1940271955167
 31
0.0
  0
LINE
  5
4E1
330
221
100
AcDbEntity
  8
7_ALL_FEATURES
  6
CONTINUOUS
 62
     7
100
AcDbLine
 10
403.5949956123762
 20
267.5213774645167
 30
0.0
 11
404.5949956123763
 21
268.0987277337667
 31
0.0
  0
LINE
  5
4E2
330
221
100
AcDbEntity
  8
7_ALL_FEATURES
  6
CONTINUOUS
 62
     7
100
AcDbLine
 10
405.5949956123763
 20
266.3666769262666
 30
0.0
 11
404.5949956123763
 21
265.7893266570166
 31
0.0
  0
LINE
  5
4E3
330
221
100
AcDbEntity
  8
7_ALL_FEATURES
  6
CONTINUOUS
 62
     7
100
AcDbLine
 10
418.5949956123762
 20
276.1940271955166
 30
0.0
 11
418.8449956123762
 21
276.4440271955166
 31
0.0
  0
LINE
  5
4E4
330
221
100
AcDbEntity
  8
7_ALL_FEATURES
  6
CONTINUOUS
 62
     7
100
AcDbLine
 10
418.5949956123762
 20
197.6940271955166
 30
0.0
 11
418.8449956123762
 21
197.4440271955166
 31
0.0
  0
LINE
  5
4E5
330
221
100
AcDbEntity
  8
7_ALL_FEATURES
  6
CONTINUOUS
 62
     7
100
AcDbLine
 10
390.0949956123762
 20
197.6940271955166
 30
0.0
 11
390.0949956123762
 21
276.1940271955166
 31
0.0
  0
LINE
  5
4E6
330
221
100
AcDbEntity
  8
7_ALL_FEATURES
  6
CONTINUOUS
 62
     7
100
AcDbLine
 10
390.5949956123763
 20
197.6940271955166
 30
0.0
 11
390.5949956123763
 21
276.1940271955166
 31
0.0
  0
LINE
  5
4E7
330
221
100
AcDbEntity
  8
7_ALL_FEATURES
  6
CONTINUOUS
 62
     7
100
AcDbLine
 10
403.5949956123762
 20
267.5213774645167
 30
0.0
 11
403.5949956123762
 21
266.3666769262666
 31
0.0
  0
LINE
  5
4E8
330
221
100
AcDbEntity
  8
7_ALL_FEATURES
  6
CONTINUOUS
 62
     7
100
AcDbLine
 10
405.5949956123763
 20
266.3666769262666
 30
0.0
 11
405.5949956123763
 21
267.5213774645167
 31
0.0
  0
LINE
  5
4E9
330
221
100
AcDbEntity
  8
7_ALL_FEATURES
  6
CONTINUOUS
 62
     7
100
AcDbLine
 10
418.5949956123762
 20
276.1940271955166
 30
0.0
 11
418.5949956123762
 21
197.6940271955166
 31
0.0
  0
LINE
  5
4EA
330
221
100
AcDbEntity
  8
7_ALL_FEATURES
  6
CONTINUOUS
 62
     7
100
AcDbLine
 10
419.0949956123763
 20
276.1940271955166
 30
0.0
 11
419.0949956123763
 21
197.6940271955166
 31
0.0
  0
LINE
  5
4EB
330
221
100
AcDbEntity
  8
7_ALL_FEATURES
  6
CONTINUOUS
 62
     7
100
AcDbLine
 10
390.5949956123763
 20
197.6940271955166
 30
0.0
 11
390.3449956123763
 21
197.4440271955166
 31
0.0
  0
LINE
  5
4EC
330
221
100
AcDbEntity
  8
7_ALL_FEATURES
  6
CONTINUOUS
 62
     7
100
AcDbLine
 10
390.3449956123763
 20
276.4440271955166
 30
0.0
 11
390.5949956123763
 21
276.1940271955166
 31
0.0
  0
LINE
  5
4ED
330
221
100
AcDbEntity
  8
7_ALL_FEATURES
  6
CONTINUOUS
 62
     7
100
AcDbLine
 10
404.5949956123763
 20
265.7893266570166
 30
0.0
 11
403.5949956123762
 21
266.3666769262666
 31
0.0
  0
LINE
  5
4EE
330
221
100
AcDbEntity
  8
7_ALL_FEATURES
  6
CONTINUOUS
 62
     7
100
AcDbLine
 10
404.5949956123763
 20
268.0987277337667
 30
0.0
 11
405.5949956123763
 21
267.5213774645167
 31
0.0
  0
LINE
  5
4EF
330
221
100
AcDbEntity
  8
7_ALL_FEATURES
  6
CONTINUOUS
 62
     7
100
AcDbLine
 10
390.5949956123763
 20
276.1940271955166
 30
0.0
 11
418.5949956123762
 21
276.1940271955166
 31
0.0
  0
LINE
  5
4F0
330
221
100
AcDbEntity
  8
7_ALL_FEATURES
  6
CONTINUOUS
 62
     7
100
AcDbLine
 10
418.5949956123762
 20
197.1940271955167
 30
0.0
 11
419.0949956123763
 21
197.6940271955166
 31
0.0
  0
LINE
  5
4F1
330
221
100
AcDbEntity
  8
7_ALL_FEATURES
  6
CONTINUOUS
 62
     7
100
AcDbLine
 10
390.5949956123763
 20
276.6940271955166
 30
0.0
 11
418.5949956123762
 21
276.6940271955166
 31
0.0
  0
LINE
  5
4F3
330
221
100
AcDbEntity
  8
7_ALL_FEATURES
  6
CONTINUOUS
 62
     7
100
AcDbLine
 10
418.5949956123762
 20
276.6940271955166
 30
0.0
 11
419.0949956123763
 21
276.1940271955166
 31
0.0
  0
ARC
  5
4F4
330
221
100
AcDbEntity
  8
7_ALL_FEATURES
  6
CONTINUOUS
 62
     7
100
AcDbCircle
 10
279.5424253602408
 20
12.12846529133218
 30
0.0
 40
2.8192396881
100
AcDbArc
 50
259.0533323205001
 51
262.8142357192996
  0
ARC
  5
4F5
330
221
100
AcDbEntity
  8
7_ALL_FEATURES
  6
CONTINUOUS
 62
     7
100
AcDbCircle
 10
158.0817281109408
 20
35.00428112413218
 30
0.0
 40
2.0980585285
100
AcDbArc
 50
252.9411749622003
 51
253.5210505155999
  0
ARC
  5
4F6
330
221
100
AcDbEntity
  8
7_ALL_FEATURES
  6
CONTINUOUS
 62
     7
100
AcDbCircle
 10
152.8536450657408
 20
67.44751609993219
 30
0.0
 40
1.0947245446
100
AcDbArc
 50
22.62003739760049
 51
24.5525703697004
  0
ARC
  5
4F7
330
221
100
AcDbEntity
  8
7_ALL_FEATURES
  6
CONTINUOUS
 62
     7
100
AcDbCircle
 10
153.1247995797408
 20
68.72252242463219
 30
0.0
 40
1.0943569143
100
AcDbArc
 50
311.4610494929993
 51
313.2497124592994
  0
ARC
  5
4F8
330
221
100
AcDbEntity
  8
7_ALL_FEATURES
  6
CONTINUOUS
 62
     7
100
AcDbCircle
 10
152.8426311437408
 20
67.22847689933218
 30
0.0
 40
0.7444980993
100
AcDbArc
 50
316.2611839633005
 51
317.8449304910002
  0
ARC
  5
4F9
330
221
100
AcDbEntity
  8
7_ALL_FEATURES
  6
CONTINUOUS
 62
     7
100
AcDbCircle
 10
153.3100036877408
 20
66.93100238153218
 30
0.0
 40
0.2193710419
100
AcDbArc
 50
287.7325820220024
 51
292.621489482199
  0
ARC
  5
4FA
330
221
100
AcDbEntity
  8
7_ALL_FEATURES
  6
CONTINUOUS
 62
     7
100
AcDbCircle
 10
137.3337613204745
 20
83.6641026077217
 30
0.0
 40
43.38186557474999
100
AcDbArc
 50
144.3321355001999
 51
144.6552318009
  0
ARC
  5
4FB
330
221
100
AcDbEntity
  8
7_ALL_FEATURES
  6
CONTINUOUS
 62
     7
100
AcDbCircle
 10
113.9325888367245
 20
112.9594467322217
 30
0.0
 40
13.000000419
100
AcDbArc
 50
247.4424419191999
 51
254.0576343857001
  0
ARC
  5
4FC
330
221
100
AcDbEntity
  8
7_ALL_FEATURES
  6
CONTINUOUS
 62
     7
100
AcDbCircle
 10
84.4325898207245
 20
112.9594463492218
 30
0.0
 40
13.0000000135
100
AcDbArc
 50
285.9422833616
 51
292.5575607092
  0
ARC
  5
4FD
330
221
100
AcDbEntity
  8
7_ALL_FEATURES
  6
CONTINUOUS
 62
     7
100
AcDbCircle
 10
84.43258925472452
 20
112.9594457244718
 30
0.0
 40
13.0
100
AcDbArc
 50
247.4379038003001
 51
254.0577015872999
  0
ARC
  5
4FE
330
221
100
AcDbEntity
  8
7_ALL_FEATURES
  6
CONTINUOUS
 62
     7
100
AcDbCircle
 10
84.43258925472452
 20
112.9594457244718
 30
0.0
 40
13.0
100
AcDbArc
 50
105.9422985382001
 51
112.5620961969
  0
ARC
  5
4FF
330
221
100
AcDbEntity
  8
7_ALL_FEATURES
  6
CONTINUOUS
 62
     7
100
AcDbCircle
 10
84.43258898797451
 20
112.9594463117217
 30
0.0
 40
12.9999996975
100
AcDbArc
 50
67.44242852780002
 51
74.05771074150009
  0
ARC
  5
500
330
221
100
AcDbEntity
  8
7_ALL_FEATURES
  6
CONTINUOUS
 62
     7
100
AcDbCircle
 10
113.9325889582245
 20
112.9594465524718
 30
0.0
 40
12.999999096
100
AcDbArc
 50
105.9423683514001
 51
159.7477559504001
  0
ARC
  5
501
330
221
100
AcDbEntity
  8
7_ALL_FEATURES
  6
CONTINUOUS
 62
     7
100
AcDbCircle
 10
113.9325888367245
 20
112.9594467322217
 30
0.0
 40
12.50000054225
100
AcDbArc
 50
253.8295584668
 51
270.0000019159
  0
ARC
  5
502
330
221
100
AcDbEntity
  8
7_ALL_FEATURES
  6
CONTINUOUS
 62
     7
100
AcDbCircle
 10
84.43258925472452
 20
112.9594457244718
 30
0.0
 40
12.5
100
AcDbArc
 50
253.8301592498999
 51
286.1704383516
  0
ARC
  5
503
330
221
100
AcDbEntity
  8
7_ALL_FEATURES
  6
CONTINUOUS
 62
     7
100
AcDbCircle
 10
84.43258898797451
 20
112.9594463117217
 30
0.0
 40
12.49999969675
100
AcDbArc
 50
73.82955656500012
 51
106.169838069
  0
ARC
  5
504
330
221
100
AcDbEntity
  8
7_ALL_FEATURES
  6
CONTINUOUS
 62
     7
100
AcDbCircle
 10
113.9325889582245
 20
112.9594465524718
 30
0.0
 40
12.49999920225
100
AcDbArc
 50
89.99999864079997
 51
200.0865403060998
  0
ARC
  5
505
330
221
100
AcDbEntity
  8
7_ALL_FEATURES
  6
CONTINUOUS
 62
     7
100
AcDbCircle
 10
63.9325892547245
 20
106.4594457244717
 30
0.0
 40
6.5
100
AcDbArc
 50
180.0
 51
270.0
  0
ARC
  5
506
330
221
100
AcDbEntity
  8
7_ALL_FEATURES
  6
CONTINUOUS
 62
     7
100
AcDbCircle
 10
64.43258925472452
 20
106.9594457244717
 30
0.0
 40
6.0
100
AcDbArc
 50
180.0
 51
270.0
  0
ARC
  5
507
330
221
100
AcDbEntity
  8
7_ALL_FEATURES
  6
CONTINUOUS
 62
     7
100
AcDbCircle
 10
63.9325892547245
 20
106.4594457244717
 30
0.0
 40
6.0
100
AcDbArc
 50
180.0
 51
270.0
  0
CIRCLE
  5
508
330
221
100
AcDbEntity
  8
7_ALL_FEATURES
  6
CONTINUOUS
 62
     7
100
AcDbCircle
 10
64.9325892547245
 20
112.9594457244718
 30
0.0
 40
4.35
  0
CIRCLE
  5
509
330
221
100
AcDbEntity
  8
02___PRT_ALL_AXES
  6
CONTINUOUS
 62
     7
100
AcDbCircle
 10
64.9325892547245
 20
112.9594457244718
 30
0.0
 40
4.0
  0
ARC
  5
50A
330
221
100
AcDbEntity
  8
06___PRT_ALL_SURFS
  6
CONTINUOUS
 62
     7
100
AcDbCircle
 10
113.4325650187245
 20
106.2910098857217
 30
0.0
 40
3.52696076875
100
AcDbArc
 50
28.2364382356004
 51
30.0247256891998
  0
ARC
  5
50B
330
221
100
AcDbEntity
  8
02___PRT_ALL_AXES
  6
CONTINUOUS
 62
     7
100
AcDbCircle
 10
113.9325892547245
 20
106.4594457244717
 30
0.0
 40
3.5
100
AcDbArc
 50
76.12864986470017
 51
154.6038938723001
  0
ARC
  5
50C
330
221
100
AcDbEntity
  8
02___PRT_ALL_AXES
  6
CONTINUOUS
 62
     7
100
AcDbCircle
 10
113.9325892547245
 20
106.4594457244717
 30
0.0
 40
2.8
100
AcDbArc
 50
32.49733124610119
 51
147.5026687538991
  0
ARC
  5
50D
330
221
100
AcDbEntity
  8
02___PRT_ALL_AXES
  6
CONTINUOUS
 62
     7
100
AcDbCircle
 10
80.4325892547245
 20
110.4594457244718
 30
0.0
 40
2.5
100
AcDbArc
 50
180.0
 51
0.0
  0
ARC
  5
50E
330
221
100
AcDbEntity
  8
7_ALL_FEATURES
  6
CONTINUOUS
 62
     7
100
AcDbCircle
 10
134.4325892547245
 20
108.4009641644718
 30
0.0
 40
2.0
100
AcDbArc
 50
180.0
 51
192.763073886301
  0
ARC
  5
50F
330
221
100
AcDbEntity
  8
7_ALL_FEATURES
  6
CONTINUOUS
 62
     7
100
AcDbCircle
 10
137.9633578654745
 20
142.7036032667217
 30
0.0
 40
44.15505385750001
100
AcDbArc
 50
214.8699852528999
 51
215.6646372662999
  0
ARC
  5
510
330
221
100
AcDbEntity
  8
7_ALL_FEATURES
  6
CONTINUOUS
 62
     7
100
AcDbCircle
 10
105.4325892547245
 20
115.9594457244718
 30
0.0
 40
8.0
100
AcDbArc
 50
180.0
 51
270.0
  0
ARC
  5
511
330
221
100
AcDbEntity
  8
7_ALL_FEATURES
  6
CONTINUOUS
 62
     7
100
AcDbCircle
 10
63.9325892547245
 20
119.4594457244717
 30
0.0
 40
6.5
100
AcDbArc
 50
90.0
 51
180.0
  0
ARC
  5
512
330
221
100
AcDbEntity
  8
7_ALL_FEATURES
  6
CONTINUOUS
 62
     7
100
AcDbCircle
 10
64.43258925472452
 20
118.9594457244717
 30
0.0
 40
6.0
100
AcDbArc
 50
90.0
 51
180.0
  0
ARC
  5
513
330
221
100
AcDbEntity
  8
7_ALL_FEATURES
  6
CONTINUOUS
 62
     7
100
AcDbCircle
 10
63.9325892547245
 20
119.4594457244717
 30
0.0
 40
6.0
100
AcDbArc
 50
90.0
 51
180.0
  0
ARC
  5
514
330
221
100
AcDbEntity
  8
7_ALL_FEATURES
  6
CONTINUOUS
 62
     7
100
AcDbCircle
 10
84.43258925472452
 20
120.2594457244717
 30
0.0
 40
5.2
100
AcDbArc
 50
207.4688431702993
 51
252.9729079617997
  0
ARC
  5
515
330
221
100
AcDbEntity
  8
7_ALL_FEATURES
  6
CONTINUOUS
 62
     7
100
AcDbCircle
 10
84.43258925472452
 20
120.2594457244717
 30
0.0
 40
5.2
100
AcDbArc
 50
64.75979205210027
 51
115.2402079374998
  0
ARC
  5
516
330
221
100
AcDbEntity
  8
7_ALL_FEATURES
  6
CONTINUOUS
 62
     7
100
AcDbCircle
 10
84.43258925472452
 20
120.2594457244717
 30
0.0
 40
4.699999999999999
100
AcDbArc
 50
209.5046087680002
 51
250.6138737955001
  0
ARC
  5
517
330
221
100
AcDbEntity
  8
02___PRT_ALL_AXES
  6
CONTINUOUS
 62
     7
100
AcDbCircle
 10
84.43258925472452
 20
120.2594457244717
 30
0.0
 40
4.600000000000001
100
AcDbArc
 50
210.0431160642995
 51
249.9078197193995
  0
CIRCLE
  5
518
330
221
100
AcDbEntity
  8
02___PRT_ALL_AXES
  6
CONTINUOUS
 62
     7
100
AcDbCircle
 10
113.9325892547245
 20
118.9594457244717
 30
0.0
 40
4.0
  0
CIRCLE
  5
519
330
221
100
AcDbEntity
  8
02___PRT_ALL_AXES
  6
CONTINUOUS
 62
     7
100
AcDbCircle
 10
113.9325892547245
 20
118.9594457244717
 30
0.0
 40
3.8
  0
ARC
  5
51A
330
221
100
AcDbEntity
  8
02___PRT_ALL_AXES
  6
CONTINUOUS
 62
     7
100
AcDbCircle
 10
80.4325892547245
 20
115.4594457244718
 30
0.0
 40
2.5
100
AcDbArc
 50
0.0
 51
180.0
  0
ARC
  5
51B
330
221
100
AcDbEntity
  8
7_ALL_FEATURES
  6
CONTINUOUS
 62
     7
100
AcDbCircle
 10
95.4325892547245
 20
122.9594457244718
 30
0.0
 40
2.0
100
AcDbArc
 50
0.0
 51
90.0
  0
CIRCLE
  5
51C
330
221
100
AcDbEntity
  8
02___PRT_ALL_AXES
  6
CONTINUOUS
 62
     7
100
AcDbCircle
 10
113.9325892547245
 20
118.9594457244717
 30
0.0
 40
1.965
  0
ARC
  5
51D
330
221
100
AcDbEntity
  8
7_ALL_FEATURES
  6
CONTINUOUS
 62
     7
100
AcDbCircle
 10
270.4325874482245
 20
112.9594481284718
 30
0.0
 40
12.99999967775
100
AcDbArc
 50
247.4379399776
 51
254.0576419604
  0
ARC
  5
51E
330
221
100
AcDbEntity
  8
7_ALL_FEATURES
  6
CONTINUOUS
 62
     7
100
AcDbCircle
 10
270.4325874482245
 20
112.9594481284718
 30
0.0
 40
12.99999967775
100
AcDbArc
 50
105.9423638604001
 51
202.6329087037
  0
ARC
  5
51F
330
221
100
AcDbEntity
  8
7_ALL_FEATURES
  6
CONTINUOUS
 62
     7
100
AcDbCircle
 10
320.4325910664745
 20
112.9594433332218
 30
0.0
 40
12.99999966825
100
AcDbArc
 50
67.43793992879984
 51
74.0576419670999
  0
ARC
  5
520
330
221
100
AcDbEntity
  8
7_ALL_FEATURES
  6
CONTINUOUS
 62
     7
100
AcDbCircle
 10
320.4325910664745
 20
112.9594433332218
 30
0.0
 40
12.99999966825
100
AcDbArc
 50
285.9423638224998
 51
292.5621169382002
  0
ARC
  5
521
330
221
100
AcDbEntity
  8
7_ALL_FEATURES
  6
CONTINUOUS
 62
     7
100
AcDbCircle
 10
241.9325910664745
 20
112.9594433332218
 30
0.0
 40
12.99999966825
100
AcDbArc
 50
337.3671142081001
 51
74.0576419670999
  0
ARC
  5
522
330
221
100
AcDbEntity
  8
7_ALL_FEATURES
  6
CONTINUOUS
 62
     7
100
AcDbCircle
 10
241.9325910664745
 20
112.9594433332218
 30
0.0
 40
12.99999966825
100
AcDbArc
 50
285.9423638224998
 51
292.5621169381999
  0
ARC
  5
523
330
221
100
AcDbEntity
  8
7_ALL_FEATURES
  6
CONTINUOUS
 62
     7
100
AcDbCircle
 10
270.4325874482245
 20
112.9594481284718
 30
0.0
 40
12.49999882475
100
AcDbArc
 50
89.99999171970022
 51
203.579738097
  0
ARC
  5
524
330
221
100
AcDbEntity
  8
7_ALL_FEATURES
  6
CONTINUOUS
 62
     7
100
AcDbCircle
 10
270.4325874482245
 20
112.9594481284718
 30
0.0
 40
12.49999882475
100
AcDbArc
 50
253.7952052192
 51
270.0000082802998
  0
ARC
  5
525
330
221
100
AcDbEntity
  8
7_ALL_FEATURES
  6
CONTINUOUS
 62
     7
100
AcDbCircle
 10
320.4325910664745
 20
112.9594433332218
 30
0.0
 40
12.4999988215
100
AcDbArc
 50
269.9999916955
 51
286.2048006728998
  0
ARC
  5
526
330
221
100
AcDbEntity
  8
7_ALL_FEATURES
  6
CONTINUOUS
 62
     7
100
AcDbCircle
 10
320.4325910664745
 20
112.9594433332218
 30
0.0
 40
12.4999988215
100
AcDbArc
 50
73.79520522569973
 51
90.00000830450004
  0
ARC
  5
527
330
221
100
AcDbEntity
  8
7_ALL_FEATURES
  6
CONTINUOUS
 62
     7
100
AcDbCircle
 10
241.9325910664745
 20
112.9594433332218
 30
0.0
 40
12.4999988215
100
AcDbArc
 50
269.9999916955
 51
286.2048006729
  0
ARC
  5
528
330
221
100
AcDbEntity
  8
7_ALL_FEATURES
  6
CONTINUOUS
 62
     7
100
AcDbCircle
 10
241.9325910664745
 20
112.9594433332218
 30
0.0
 40
12.4999988215
100
AcDbArc
 50
336.4202821892001
 51
90.00000830450004
  0
ARC
  5
529
330
221
100
AcDbEntity
  8
7_ALL_FEATURES
  6
CONTINUOUS
 62
     7
100
AcDbCircle
 10
340.9325892547245
 20
106.4594457244717
 30
0.0
 40
6.5
100
AcDbArc
 50
270.0
 51
0.0
  0
ARC
  5
52A
330
221
100
AcDbEntity
  8
7_ALL_FEATURES
  6
CONTINUOUS
 62
     7
100
AcDbCircle
 10
340.4325892547245
 20
106.9594457244717
 30
0.0
 40
6.0
100
AcDbArc
 50
270.0
 51
0.0
  0
ARC
  5
52B
330
221
100
AcDbEntity
  8
7_ALL_FEATURES
  6
CONTINUOUS
 62
     7
100
AcDbCircle
 10
340.9325892547245
 20
106.4594457244717
 30
0.0
 40
6.0
100
AcDbArc
 50
270.0
 51
0.0
  0
ARC
  5
52C
330
221
100
AcDbEntity
  8
02___PRT_ALL_AXES
  6
CONTINUOUS
 62
     7
100
AcDbCircle
 10
202.4325892547245
 20
97.45944572447172
 30
0.0
 40
5.0
100
AcDbArc
 50
44.4270040008
 51
135.5729959992
  0
CIRCLE
  5
52D
330
221
100
AcDbEntity
  8
7_ALL_FEATURES
  6
CONTINUOUS
 62
     7
100
AcDbCircle
 10
339.9325892547245
 20
112.9594457244718
 30
0.0
 40
4.35
  0
CIRCLE
  5
52E
330
221
100
AcDbEntity
  8
02___PRT_ALL_AXES
  6
CONTINUOUS
 62
     7
100
AcDbCircle
 10
339.9325892547245
 20
112.9594457244718
 30
0.0
 40
4.0
  0
ARC
  5
52F
330
221
100
AcDbEntity
  8
02___PRT_ALL_AXES
  6
CONTINUOUS
 62
     7
100
AcDbCircle
 10
326.9325892547245
 20
112.9594457244718
 30
0.0
 40
2.5
100
AcDbArc
 50
270.0
 51
90.0
  0
ARC
  5
530
330
221
100
AcDbEntity
  8
02___PRT_ALL_AXES
  6
CONTINUOUS
 62
     7
100
AcDbCircle
 10
321.9325892547245
 20
112.9594457244718
 30
0.0
 40
2.5
100
AcDbArc
 50
90.0
 51
270.0
  0
ARC
  5
531
330
221
100
AcDbEntity
  8
7_ALL_FEATURES
  6
CONTINUOUS
 62
     7
100
AcDbCircle
 10
299.4325892547245
 20
115.9594457244718
 30
0.0
 40
8.0
100
AcDbArc
 50
270.0
 51
0.0
  0
ARC
  5
532
330
221
100
AcDbEntity
  8
7_ALL_FEATURES
  6
CONTINUOUS
 62
     7
100
AcDbCircle
 10
340.9325892547245
 20
119.4594457244717
 30
0.0
 40
6.5
100
AcDbArc
 50
0.0
 51
90.0
  0
ARC
  5
533
330
221
100
AcDbEntity
  8
7_ALL_FEATURES
  6
CONTINUOUS
 62
     7
100
AcDbCircle
 10
340.4325892547245
 20
118.9594457244717
 30
0.0
 40
6.0
100
AcDbArc
 50
0.0
 51
90.0
  0
ARC
  5
534
330
221
100
AcDbEntity
  8
7_ALL_FEATURES
  6
CONTINUOUS
 62
     7
100
AcDbCircle
 10
340.9325892547245
 20
119.4594457244717
 30
0.0
 40
6.0
100
AcDbArc
 50
0.0
 51
90.0
  0
ARC
  5
535
330
221
100
AcDbEntity
  8
7_ALL_FEATURES
  6
CONTINUOUS
 62
     7
100
AcDbCircle
 10
309.4325892547245
 20
122.9594457244718
 30
0.0
 40
2.0
100
AcDbArc
 50
90.0
 51
180.0
  0
CIRCLE
  5
536
330
221
100
AcDbEntity
  8
7_ALL_FEATURES
  6
CONTINUOUS
 62
     7
100
AcDbCircle
 10
404.5949956123763
 20
266.9440271955166
 30
0.0
 40
2.8
  0
CIRCLE
  5
537
330
221
100
AcDbEntity
  8
7_ALL_FEATURES
  6
CONTINUOUS
 62
     7
100
AcDbCircle
 10
404.5949956123763
 20
266.9440271955166
 30
0.0
 40
2.5
  0
CIRCLE
  5
538
330
221
100
AcDbEntity
  8
7_ALL_FEATURES
  6
CONTINUOUS
 62
     7
100
AcDbCircle
 10
404.5949956123763
 20
266.9440271955166
 30
0.0
 40
2.2
  0
CIRCLE
  5
539
330
221
100
AcDbEntity
  8
7_ALL_FEATURES
  6
CONTINUOUS
 62
     7
100
AcDbCircle
 10
404.5949956123763
 20
266.9440271955166
 30
0.0
 40
1.699999929
  0
CIRCLE
  5
53A
330
221
100
AcDbEntity
  8
02___PRT_ALL_AXES
  6
CONTINUOUS
 62
     7
100
AcDbCircle
 10
404.5949956123763
 20
266.9440271955166
 30
0.0
 40
1.65
  0
CIRCLE
  5
53B
330
221
100
AcDbEntity
  8
7_ALL_FEATURES
  6
CONTINUOUS
 62
     7
100
AcDbCircle
 10
404.5949956123763
 20
266.9440271955166
 30
0.0
 40
1.3
  0
SPLINE
  5
53C
330
221
100
AcDbEntity
  8
7_ALL_FEATURES
  6
CONTINUOUS
 62
     7
100
AcDbSpline
210
0.0
220
0.0
230
1.0
 70
     8
 71
     3
 72
    17
 73
    13
 74
     0
 42
0.000000001
 43
0.0000001
 40
0.0
 40
0.0
 40
0.0
 40
0.0
 40
0.0489280638
 40
0.1029557945
 40
0.2242124284
 40
0.3586676006
 40
0.4999914528
 40
0.6413165819
 40
0.7757750331
 40
0.8970375635
 40
0.9510676157
 40
1.0
 40
1.0
 40
1.0
 40
1.0
 10
153.6733612208408
 20
67.21530477503217
 30
0.0
 10
153.6677237354408
 20
67.23753004803217
 30
0.0
 10
153.6581860615408
 20
67.28489897873217
 30
0.0
 10
153.6453228143408
 20
67.38925216863217
 30
0.0
 10
153.6416162960408
 20
67.53469999133219
 30
0.0
 10
153.6545700436408
 20
67.72052363153219
 30
0.0
 10
153.6842951085408
 20
67.91393478293219
 30
0.0
 10
153.7291825977408
 20
68.10440043883219
 30
0.0
 10
153.7867795318408
 20
68.28155194343219
 30
0.0
 10
153.8446995866408
 20
68.41502704963219
 30
0.0
 10
153.8957150873408
 20
68.50697108543218
 30
0.0
 10
153.9223028921408
 20
68.54732171713218
 30
0.0
 10
153.9358558485408
 20
68.56581912843217
 30
0.0
  0
SPLINE
  5
53D
330
221
100
AcDbEntity
  8
7_ALL_FEATURES
  6
CONTINUOUS
 62
     7
100
AcDbSpline
210
0.0
220
0.0
230
1.0
 70
     8
 71
     3
 72
    14
 73
    10
 74
     0
 42
0.000000001
 43
0.0000001
 40
0.0
 40
0.0
 40
0.0
 40
0.0
 40
0.1006895058
 40
0.2142667857
 40
0.3382148625
 40
0.4695210231
 40
0.7406065767
 40
0.8734889575
 40
1.0
 40
1.0
 40
1.0
 40
1.0
 10
153.9296950951408
 20
68.37816047573219
 30
0.0
 10
153.9144846760408
 20
68.35528947843218
 30
0.0
 10
153.8852738300408
 20
68.30450572493217
 30
0.0
 10
153.8467485898408
 20
68.22057604003217
 30
0.0
 10
153.8117227654408
 20
68.12616028013218
 30
0.0
 10
153.7706870533408
 20
67.98849796263218
 30
0.0
 10
153.7415398589408
 20
67.84499915333217
 30
0.0
 10
153.7252421878408
 20
67.70115198363217
 30
0.0
 10
153.7217520641408
 20
67.63040925083217
 30
0.0
 10
153.7213346043408
 20
67.59590086703219
 30
0.0
  0
SPLINE
  5
53E
330
221
100
AcDbEntity
  8
7_ALL_FEATURES
  6
CONTINUOUS
 62
     7
100
AcDbSpline
210
0.0
220
0.0
230
1.0
 70
     8
 71
     3
 72
     9
 73
     5
 74
     0
 42
0.000000001
 43
0.0000001
 40
0.0
 40
0.0
 40
0.0
 40
0.0
 40
0.5330881466
 40
1.0
 40
1.0
 40
1.0
 40
1.0
 10
153.7213346043408
 20
67.59590086703219
 30
0.0
 10
153.7208939653408
 20
67.55947641873217
 30
0.0
 10
153.7227342192408
 20
67.49108022233219
 30
0.0
 10
153.7314749232408
 20
67.42310984423219
 30
0.0
 10
153.7378943427408
 20
67.39185718173218
 30
0.0
  0
SPLINE
  5
53F
330
221
100
AcDbEntity
  8
7_ALL_FEATURES
  6
CONTINUOUS
 62
     7
100
AcDbSpline
210
0.0
220
0.0
230
1.0
 70
     8
 71
     3
 72
    11
 73
     7
 74
     0
 42
0.000000001
 43
0.0000001
 40
0.0
 40
0.0
 40
0.0
 40
0.0
 40
0.2861443442
 40
0.5508820785
 40
0.7897399715
 40
1.0
 40
1.0
 40
1.0
 40
1.0
 10
284.0225714482409
 20
14.37810019783218
 30
0.0
 10
284.1044595896408
 20
14.36218275563218
 30
0.0
 10
284.2609881333408
 20
14.32521766203217
 30
0.0
 10
284.4795249889409
 20
14.25149414883218
 30
0.0
 10
284.6685275191408
 20
14.16329004803218
 30
0.0
 10
284.7788908355408
 20
14.09153519773218
 30
0.0
 10
284.8267291851408
 20
14.05320855333218
 30
0.0
  0
SPLINE
  5
540
330
221
100
AcDbEntity
  8
7_ALL_FEATURES
  6
CONTINUOUS
 62
     7
100
AcDbSpline
210
0.0
220
0.0
230
1.0
 70
     8
 71
     3
 72
     9
 73
     5
 74
     0
 42
0.000000001
 43
0.0000001
 40
0.0
 40
0.0
 40
0.0
 40
0.0
 40
0.2635299669
 40
1.0
 40
1.0
 40
1.0
 40
1.0
 10
153.3805302235408
 20
66.71375173013217
 30
0.0
 10
153.3753898818408
 20
66.70838224713219
 30
0.0
 10
153.3555673212408
 20
66.68831737883218
 30
0.0
 10
153.3344159277408
 20
66.66952970263219
 30
0.0
 10
153.3180033449408
 20
66.65679535603218
 30
0.0
  0
SPLINE
  5
541
330
221
100
AcDbEntity
  8
7_ALL_FEATURES
  6
CONTINUOUS
 62
     7
100
AcDbSpline
210
0.0
220
0.0
230
1.0
 70
     8
 71
     3
 72
     9
 73
     5
 74
     0
 42
0.000000001
 43
0.0000001
 40
0.0
 40
0.0
 40
0.0
 40
0.0
 40
0.5283139604
 40
1.0
 40
1.0
 40
1.0
 40
1.0
 10
284.7004196115408
 20
14.13970162953218
 30
0.0
 10
284.7275676909408
 20
14.10723972623218
 30
0.0
 10
284.7720278080408
 20
14.03883253803218
 30
0.0
 10
284.7887120806408
 20
13.95796480213218
 30
0.0
 10
284.7882550135408
 20
13.92018567713218
 30
0.0
  0
SPLINE
  5
542
330
221
100
AcDbEntity
  8
7_ALL_FEATURES
  6
CONTINUOUS
 62
     7
100
AcDbSpline
210
0.0
220
0.0
230
1.0
 70
     8
 71
     3
 72
    13
 73
     9
 74
     0
 42
0.000000001
 43
0.0000001
 40
0.0
 40
0.0
 40
0.0
 40
0.0
 40
0.0940865837
 40
0.2019228835
 40
0.3219437435
 40
0.4516417426
 40
0.7269861116
 40
1.0
 40
1.0
 40
1.0
 40
1.0
 10
160.6539378506408
 20
37.66614372423219
 30
0.0
 10
160.7072481687408
 20
37.70677791373218
 30
0.0
 10
160.8311443598408
 20
37.78163538003218
 30
0.0
 10
161.0433210436408
 20
37.87017310263218
 30
0.0
 10
161.2887057399408
 20
37.94043585883217
 30
0.0
 10
161.6571229634408
 20
38.00788927523217
 30
0.0
 10
162.1417036740409
 20
38.03292417383219
 30
0.0
 10
162.5323813581408
 20
37.99340090483219
 30
0.0
 10
162.7233130330408
 20
37.95628754683219
 30
0.0
  0
SPLINE
  5
543
330
221
100
AcDbEntity
  8
7_ALL_FEATURES
  6
CONTINUOUS
 62
     7
100
AcDbSpline
210
0.0
220
0.0
230
1.0
 70
     8
 71
     3
 72
    10
 73
     6
 74
     0
 42
0.000000001
 43
0.0000001
 40
0.0
 40
0.0
 40
0.0
 40
0.0
 40
0.2301953092
 40
0.4691646546
 40
1.0
 40
1.0
 40
1.0
 40
1.0
 10
156.8483330188408
 20
33.52016004313218
 30
0.0
 10
156.8485775724408
 20
33.54037374463218
 30
0.0
 10
156.8537529684408
 20
33.58165720903217
 30
0.0
 10
156.8832764670408
 20
33.66492116833219
 30
0.0
 10
156.9245950336408
 20
33.72057390883218
 30
0.0
 10
156.9568316395408
 20
33.75424752783218
 30
0.0
  0
SPLINE
  5
544
330
221
100
AcDbEntity
  8
7_ALL_FEATURES
  6
CONTINUOUS
 62
     7
100
AcDbSpline
210
0.0
220
0.0
230
1.0
 70
     8
 71
     3
 72
     9
 73
     5
 74
     0
 42
0.000000001
 43
0.0000001
 40
0.0
 40
0.0
 40
0.0
 40
0.0
 40
0.514844737
 40
1.0
 40
1.0
 40
1.0
 40
1.0
 10
153.3768185692408
 20
66.72205400123218
 30
0.0
 10
153.3633928393408
 20
66.71777511333218
 30
0.0
 10
153.3363238881408
 20
66.71211593263217
 30
0.0
 10
153.3086157906408
 20
66.71359791273218
 30
0.0
 10
153.2955811799408
 20
66.71613124543217
 30
0.0
  0
SPLINE
  5
545
330
221
100
AcDbEntity
  8
7_ALL_FEATURES
  6
CONTINUOUS
 62
     7
100
AcDbSpline
210
0.0
220
0.0
230
1.0
 70
     8
 71
     3
 72
     9
 73
     5
 74
     0
 42
0.000000001
 43
0.0000001
 40
0.0
 40
0.0
 40
0.0
 40
0.0
 40
0.2342417833
 40
1.0
 40
1.0
 40
1.0
 40
1.0
 10
153.8156206503408
 20
69.21681446373219
 30
0.0
 10
153.8196562875408
 20
69.20987861533217
 30
0.0
 10
153.8361132373408
 20
69.1798203718322
 30
0.0
 10
153.8496601035408
 20
69.14822179343219
 30
0.0
 10
153.8587808638408
 20
69.12362563583218
 30
0.0
  0
SPLINE
  5
546
330
221
100
AcDbEntity
  8
7_ALL_FEATURES
  6
CONTINUOUS
 62
     7
100
AcDbSpline
210
0.0
220
0.0
230
1.0
 70
     8
 71
     3
 72
    17
 73
    13
 74
     0
 42
0.000000001
 43
0.0000001
 40
0.0
 40
0.0
 40
0.0
 40
0.0
 40
0.0454142189
 40
0.0970718694
 40
0.2169895677
 40
0.3538450572
 40
0.4996420196
 40
0.6454903066
 40
0.7824948739
 40
0.9026438713
 40
0.9544386041
 40
1.0
 40
1.0
 40
1.0
 40
1.0
 10
153.8587808638408
 20
69.12362563583218
 30
0.0
 10
153.8720006165408
 20
69.08797563383217
 30
0.0
 10
153.8947646787408
 20
69.00971403103219
 30
0.0
 10
153.9275225831408
 20
68.83081473713219
 30
0.0
 10
153.9423427946408
 20
68.57208221603219
 30
0.0
 10
153.9242144578408
 20
68.23505143833219
 30
0.0
 10
153.8714348569408
 20
67.87969333433219
 30
0.0
 10
153.7875758649408
 20
67.53023412503217
 30
0.0
 10
153.6783768528408
 20
67.21048767803217
 30
0.0
 10
153.5678668975408
 20
66.97560199913218
 30
0.0
 10
153.4705602033408
 20
66.82143945073219
 30
0.0
 10
153.4201576002408
 20
66.75708779573219
 30
0.0
 10
153.3945507548408
 20
66.72881485073219
 30
0.0
  0
SPLINE
  5
547
330
221
100
AcDbEntity
  8
7_ALL_FEATURES
  6
CONTINUOUS
 62
     7
100
AcDbSpline
210
0.0
220
0.0
230
1.0
 70
     8
 71
     3
 72
     9
 73
     5
 74
     0
 42
0.000000001
 43
0.0000001
 40
0.0
 40
0.0
 40
0.0
 40
0.0
 40
0.479655889
 40
1.0
 40
1.0
 40
1.0
 40
1.0
 10
153.7726036064408
 20
69.17019896093217
 30
0.0
 10
153.7881602899408
 20
69.1671754526322
 30
0.0
 10
153.8196987951408
 20
69.15535435263217
 30
0.0
 10
153.8461201962408
 20
69.1347940975322
 30
0.0
 10
153.8584494148408
 20
69.12281248573217
 30
0.0
  0
SPLINE
  5
548
330
221
100
AcDbEntity
  8
7_ALL_FEATURES
  6
CONTINUOUS
 62
     7
100
AcDbSpline
210
0.0
220
0.0
230
1.0
 70
     8
 71
     3
 72
    10
 73
     6
 74
     0
 42
0.000000001
 43
0.0000001
 40
0.0
 40
0.0
 40
0.0
 40
0.0
 40
0.2301953092
 40
0.4691646546
 40
1.0
 40
1.0
 40
1.0
 40
1.0
 10
284.7882550135408
 20
13.92018567713218
 30
0.0
 10
284.7880104600408
 20
13.89997197573219
 30
0.0
 10
284.7828350639408
 20
13.85868851133218
 30
0.0
 10
284.7533115653408
 20
13.77542455193218
 30
0.0
 10
284.7119929987408
 20
13.71977181153218
 30
0.0
 10
284.6797563928408
 20
13.68609819253219
 30
0.0
  0
SPLINE
  5
549
330
221
100
AcDbEntity
  8
7_ALL_FEATURES
  6
CONTINUOUS
 62
     7
100
AcDbSpline
210
0.0
220
0.0
230
1.0
 70
     8
 71
     3
 72
    26
 73
    22
 74
     0
 42
0.000000001
 43
0.0000001
 40
0.0
 40
0.0
 40
0.0
 40
0.0
 40
0.0197801395
 40
0.0373349746
 40
0.0531995853
 40
0.0681607444
 40
0.0831811071
 40
0.0992107178
 40
0.1170076397
 40
0.1370781689
 40
0.1849563981
 40
0.2435415148
 40
0.3119669005
 40
0.388551157
 40
0.4711002854
 40
0.5570974853
 40
0.7285463591
 40
0.808734271
 40
0.881930402
 40
0.9461414185
 40
1.0
 40
1.0
 40
1.0
 40
1.0
 10
153.3180033449408
 20
66.65679535603218
 30
0.0
 10
153.3021438390408
 20
66.64449013573218
 30
0.0
 10
153.2706444089408
 20
66.6231256731322
 30
0.0
 10
153.2210700105408
 20
66.60090693523219
 30
0.0
 10
153.1724656042408
 20
66.59106252473217
 30
0.0
 10
153.1254372259408
 20
66.59419544183217
 30
0.0
 10
153.0810271170408
 20
66.61045304063217
 30
0.0
 10
153.0400901468408
 20
66.63923784403218
 30
0.0
 10
153.0028855571408
 20
66.67978376653218
 30
0.0
 10
152.9555972804408
 20
66.75320978473218
 30
0.0
 10
152.9090683381408
 20
66.87410554423218
 30
0.0
 10
152.8727843395408
 20
67.04824258023217
 30
0.0
 10
152.8542681651408
 20
67.25441824203219
 30
0.0
 10
152.8542970590408
 20
67.48558490423218
 30
0.0
 10
152.8729608546408
 20
67.73387641823217
 30
0.0
 10
152.9219572424408
 20
68.07557403593219
 30
0.0
 10
153.0023410861408
 20
68.40989900223218
 30
0.0
 10
153.1125802833408
 20
68.72081927963217
 30
0.0
 10
153.2030647558408
 20
68.92261083783217
 30
0.0
 10
153.2998205065408
 20
69.09123719163219
 30
0.0
 10
153.3731293892408
 20
69.18688731883219
 30
0.0
 10
153.4109262166408
 20
69.22636901773217
 30
0.0
  0
SPLINE
  5
54A
330
221
100
AcDbEntity
  8
7_ALL_FEATURES
  6
CONTINUOUS
 62
     7
100
AcDbSpline
210
0.0
220
0.0
230
1.0
 70
     8
 71
     3
 72
    22
 73
    18
 74
     0
 42
0.000000001
 43
0.0000001
 40
0.0
 40
0.0
 40
0.0
 40
0.0
 40
0.0140662167
 40
0.0288313761
 40
0.062546365
 40
0.104199379
 40
0.1546963437
 40
0.2137963639
 40
0.2805861422
 40
0.3537202247
 40
0.4315616266
 40
0.5938687731
 40
0.7520500368
 40
0.8248890021
 40
0.8913043968
 40
0.9499694858
 40
1.0
 40
1.0
 40
1.0
 40
1.0
 10
153.2955811799408
 20
66.71613124543217
 30
0.0
 10
153.2839122045408
 20
66.71839916103218
 30
0.0
 10
153.2604844915408
 20
66.72604929873219
 30
0.0
 10
153.2150908603408
 20
66.75391897493219
 30
0.0
 10
153.1645642898408
 20
66.81308439953219
 30
0.0
 10
153.1184603835408
 20
66.90961208093219
 30
0.0
 10
153.0834260693408
 20
67.03301333733219
 30
0.0
 10
153.0603804376408
 20
67.18054697883218
 30
0.0
 10
153.0498569874408
 20
67.34860535823219
 30
0.0
 10
153.0522249190408
 20
67.53277332653218
 30
0.0
 10
153.0728727887408
 20
67.79687318953219
 30
0.0
 10
153.1288240986408
 20
68.12956415593217
 30
0.0
 10
153.2194970849408
 20
68.45024476303217
 30
0.0
 10
153.3115304500408
 20
68.68434997483217
 30
0.0
 10
153.3845135111408
 20
68.83508637953219
 30
0.0
 10
153.4612898793408
 20
68.96185582863217
 30
0.0
 10
153.5184238746408
 20
69.03432773993217
 30
0.0
 10
153.5476620329408
 20
69.06486924943218
 30
0.0
  0
SPLINE
  5
54B
330
221
100
AcDbEntity
  8
02___PRT_ALL_AXES
  6
CONTINUOUS
 62
     7
100
AcDbSpline
210
0.0
220
0.0
230
1.0
 70
     8
 71
     3
 72
    15
 73
    11
 74
     0
 42
0.000000001
 43
0.0000001
 40
0.0
 40
0.0
 40
0.0
 40
0.0
 40
0.1030149977
 40
0.224309159
 40
0.3587249252
 40
0.4999696726
 40
0.6412186879
 40
0.7756469307
 40
0.8969607256
 40
1.0
 40
1.0
 40
1.0
 40
1.0
 10
153.6818091636408
 20
67.23556503983218
 30
0.0
 10
153.6704114941408
 20
67.2809033008322
 30
0.0
 10
153.6554739985408
 20
67.38208700853218
 30
0.0
 10
153.6513619835408
 20
67.54505888323217
 30
0.0
 10
153.6639814521408
 20
67.72500960923219
 30
0.0
 10
153.6927601818408
 20
67.91220326213218
 30
0.0
 10
153.7361842115408
 20
68.09655667123218
 30
0.0
 10
153.7918810546408
 20
68.26815298033219
 30
0.0
 10
153.8567344959408
 20
68.41774949333217
 30
0.0
 10
153.9084830721408
 20
68.50599539913219
 30
0.0
 10
153.9360320911408
 20
68.54377828563219
 30
0.0
  0
SPLINE
  5
54C
330
221
100
AcDbEntity
  8
7_ALL_FEATURES
  6
CONTINUOUS
 62
     7
100
AcDbSpline
210
0.0
220
0.0
230
1.0
 70
     8
 71
     3
 72
     9
 73
     5
 74
     0
 42
0.000000001
 43
0.0000001
 40
0.0
 40
0.0
 40
0.0
 40
0.0
 40
0.2413838179
 40
1.0
 40
1.0
 40
1.0
 40
1.0
 10
153.8842699237408
 20
69.04181985723218
 30
0.0
 10
153.8811737301408
 20
69.03913115333219
 30
0.0
 10
153.8684895581408
 20
69.02782853533219
 30
0.0
 10
153.8563631269408
 20
69.01590548823219
 30
0.0
 10
153.8474510746408
 20
69.00659616283218
 30
0.0
  0
SPLINE
  5
54D
330
221
100
AcDbEntity
  8
7_ALL_FEATURES
  6
CONTINUOUS
 62
     7
100
AcDbSpline
210
0.0
220
0.0
230
1.0
 70
     8
 71
     3
 72
    15
 73
    11
 74
     0
 42
0.000000001
 43
0.0000001
 40
0.0
 40
0.0
 40
0.0
 40
0.0
 40
0.1491873927
 40
0.2838099441
 40
0.4062538599
 40
0.5203777222
 40
0.6313678623
 40
0.7450000429
 40
0.8665463273
 40
1.0
 40
1.0
 40
1.0
 40
1.0
 10
284.8267291851408
 20
14.05320855333218
 30
0.0
 10
284.8555060244408
 20
14.03015341673218
 30
0.0
 10
284.9077141549408
 20
13.98290516813218
 30
0.0
 10
284.9710937867408
 20
13.90440242743217
 30
0.0
 10
285.0143714295409
 20
13.82273397823218
 30
0.0
 10
285.0364314244408
 20
13.73881447953218
 30
0.0
 10
285.0363753177408
 20
13.65413213013218
 30
0.0
 10
285.0141726256408
 20
13.57058694493217
 30
0.0
 10
284.9707373478408
 20
13.48972487003218
 30
0.0
 10
284.9304591223408
 20
13.44075840383218
 30
0.0
 10
284.9076494200409
 20
13.41693191203218
 30
0.0
  0
SPLINE
  5
54E
330
221
100
AcDbEntity
  8
7_ALL_FEATURES
  6
CONTINUOUS
 62
     7
100
AcDbSpline
210
0.0
220
0.0
230
1.0
 70
     8
 71
     3
 72
    15
 73
    11
 74
     0
 42
0.000000001
 43
0.0000001
 40
0.0
 40
0.0
 40
0.0
 40
0.0
 40
0.087439157
 40
0.190498763
 40
0.3081704303
 40
0.4379034434
 40
0.5761752152
 40
0.7188760125
 40
0.861615398
 40
1.0
 40
1.0
 40
1.0
 40
1.0
 10
281.0667809798408
 20
9.404848844532182
 30
0.0
 10
281.0212783137408
 20
9.35731780333218
 30
0.0
 10
280.9067909709408
 20
9.268456037532175
 30
0.0
 10
280.6993096045408
 20
9.163047054632173
 30
0.0
 10
280.4490476911408
 20
9.077526148032177
 30
0.0
 10
280.1650814865408
 20
9.015158445732183
 30
0.0
 10
279.8577895978408
 20
8.978232365032184
 30
0.0
 10
279.5386899486408
 20
8.968210101932186
 30
0.0
 10
279.2198485954409
 20
8.98547719693218
 30
0.0
 10
279.0100720943408
 20
9.015505997432186
 30
0.0
 10
278.9078471435408
 20
9.035376515032183
 30
0.0
  0
SPLINE
  5
54F
330
221
100
AcDbEntity
  8
7_ALL_FEATURES
  6
CONTINUOUS
 62
     7
100
AcDbSpline
210
0.0
220
0.0
230
1.0
 70
     8
 71
     3
 72
    15
 73
    11
 74
     0
 42
0.000000001
 43
0.0000001
 40
0.0
 40
0.0
 40
0.0
 40
0.0
 40
0.1026005317
 40
0.223826468
 40
0.3584425802
 40
0.5000288553
 40
0.6416110462
 40
0.7762153496
 40
0.8974226927
 40
1.0
 40
1.0
 40
1.0
 40
1.0
 10
153.9278400755408
 20
68.77765084943218
 30
0.0
 10
153.8906247629408
 20
68.72740441013218
 30
0.0
 10
153.8207339857408
 20
68.60946855763217
 30
0.0
 10
153.7332281094408
 20
68.40897141353219
 30
0.0
 10
153.6580658772408
 20
68.1783603532322
 30
0.0
 10
153.5995371011408
 20
67.93029352933218
 30
0.0
 10
153.5609010287408
 20
67.67836824823218
 30
0.0
 10
153.5442275026408
 20
67.43641229903218
 30
0.0
 10
153.5502800003408
 20
67.2177676902322
 30
0.0
 10
153.5709208045408
 20
67.08226596553217
 30
0.0
 10
153.5866140798408
 20
67.02175451623219
 30
0.0
  0
SPLINE
  5
550
330
221
100
AcDbEntity
  8
7_ALL_FEATURES
  6
CONTINUOUS
 62
     7
100
AcDbSpline
210
0.0
220
0.0
230
1.0
 70
     8
 71
     3
 72
    11
 73
     7
 74
     0
 42
0.000000001
 43
0.0000001
 40
0.0
 40
0.0
 40
0.0
 40
0.0
 40
0.3065431022
 40
0.5688291066
 40
0.7949678574
 40
1.0
 40
1.0
 40
1.0
 40
1.0
 10
153.5476620329408
 20
69.06486924943218
 30
0.0
 10
153.5659030067408
 20
69.08392335213219
 30
0.0
 10
153.6019807001408
 20
69.1173176461322
 30
0.0
 10
153.6599972743408
 20
69.15445445263217
 30
0.0
 10
153.7172807958408
 20
69.17376381323217
 30
0.0
 10
153.7552847666408
 20
69.17356495193218
 30
0.0
 10
153.7726036064408
 20
69.17019896093217
 30
0.0
  0
SPLINE
  5
551
330
221
100
AcDbEntity
  8
7_ALL_FEATURES
  6
CONTINUOUS
 62
     7
100
AcDbSpline
210
0.0
220
0.0
230
1.0
 70
     8
 71
     3
 72
    18
 73
    14
 74
     0
 42
0.000000001
 43
0.0000001
 40
0.0
 40
0.0
 40
0.0
 40
0.0
 40
0.045394249
 40
0.0975684882
 40
0.2199146924
 40
0.360300532
 40
0.5094967381
 40
0.6572903028
 40
0.7936198684
 40
0.8547042227
 40
0.9098301712
 40
0.9583614598
 40
1.0
 40
1.0
 40
1.0
 40
1.0
 10
153.8474510746408
 20
69.00659616283218
 30
0.0
 10
153.8230936219408
 20
68.98115292643217
 30
0.0
 10
153.7751501711408
 20
68.92221982933219
 30
0.0
 10
153.6826581874408
 20
68.77856276183218
 30
0.0
 10
153.5782546161408
 20
68.55654919203218
 30
0.0
 10
153.4764426701408
 20
68.25307091263218
 30
0.0
 10
153.4003454388408
 20
67.92177510573217
 30
0.0
 10
153.3558591549408
 20
67.58804758443219
 30
0.0
 10
153.3473147488408
 20
67.31964733643218
 30
0.0
 10
153.3606754910408
 20
67.12399980333217
 30
0.0
 10
153.3794002344408
 20
66.99737422093219
 30
0.0
 10
153.4067560570408
 20
66.88780879653217
 30
0.0
 10
153.4324217527408
 20
66.82235017613218
 30
0.0
 10
153.4470895552408
 20
66.7935629992322
 30
0.0
  0
SPLINE
  5
552
330
221
100
AcDbEntity
  8
7_ALL_FEATURES
  6
CONTINUOUS
 62
     7
100
AcDbSpline
210
0.0
220
0.0
230
1.0
 70
     8
 71
     3
 72
     9
 73
     5
 74
     0
 42
0.000000001
 43
0.0000001
 40
0.0
 40
0.0
 40
0.0
 40
0.0
 40
0.4492671928
 40
1.0
 40
1.0
 40
1.0
 40
1.0
 10
280.8388879526408
 20
9.674015125032184
 30
0.0
 10
280.7868395874409
 20
9.619646596732181
 30
0.0
 10
280.6475146239408
 20
9.521588863332184
 30
0.0
 10
280.4919929222409
 20
9.457327075832183
 30
0.0
 10
280.4044227992408
 20
9.428271497232174
 30
0.0
  0
SPLINE
  5
553
330
221
100
AcDbEntity
  8
7_ALL_FEATURES
  6
CONTINUOUS
 62
     7
100
AcDbSpline
210
0.0
220
0.0
230
1.0
 70
     8
 71
     3
 72
     9
 73
     5
 74
     0
 42
0.000000001
 43
0.0000001
 40
0.0
 40
0.0
 40
0.0
 40
0.0
 40
0.4774192047
 40
1.0
 40
1.0
 40
1.0
 40
1.0
 10
280.4044227992408
 20
9.428271497232174
 30
0.0
 10
280.2701084942408
 20
9.383706299432177
 30
0.0
 10
279.9783258316409
 20
9.32155029653218
 30
0.0
 10
279.6812703483408
 20
9.305115098132177
 30
0.0
 10
279.5263899260408
 20
9.307654444332186
 30
0.0
  0
SPLINE
  5
554
330
221
100
AcDbEntity
  8
7_ALL_FEATURES
  6
CONTINUOUS
 62
     7
100
AcDbSpline
210
0.0
220
0.0
230
1.0
 70
     8
 71
     3
 72
     9
 73
     5
 74
     0
 42
0.000000001
 43
0.0000001
 40
0.0
 40
0.0
 40
0.0
 40
0.0
 40
0.2547834777
 40
1.0
 40
1.0
 40
1.0
 40
1.0
 10
157.7078068883408
 20
32.93871080043218
 30
0.0
 10
157.6930495039408
 20
32.94157934543217
 30
0.0
 10
157.6352265242408
 20
32.95333489713218
 30
0.0
 10
157.5778066168408
 20
32.96709715363218
 30
0.0
 10
157.5353635366408
 20
32.97859072583218
 30
0.0
  0
SPLINE
  5
555
330
221
100
AcDbEntity
  8
7_ALL_FEATURES
  6
CONTINUOUS
 62
     7
100
AcDbSpline
210
0.0
220
0.0
230
1.0
 70
     8
 71
     3
 72
    14
 73
    10
 74
     0
 42
0.000000001
 43
0.0000001
 40
0.0
 40
0.0
 40
0.0
 40
0.0
 40
0.3243614112
 40
0.4674584812
 40
0.5968438424
 40
0.7127743208
 40
0.8165689019
 40
0.910915122
 40
1.0
 40
1.0
 40
1.0
 40
1.0
 10
157.4662555511408
 20
32.99852861763218
 30
0.0
 10
157.3775321233408
 20
33.02575585203218
 30
0.0
 10
157.2516618041408
 20
33.07343586943217
 30
0.0
 10
157.1023556195408
 20
33.15687927373217
 30
0.0
 10
157.0120197757408
 20
33.22214151723217
 30
0.0
 10
156.9399113691408
 20
33.29186679733218
 30
0.0
 10
156.8871622588408
 20
33.36537399623218
 30
0.0
 10
156.8549695658408
 20
33.44184841403218
 30
0.0
 10
156.8480246627408
 20
33.49467270333218
 30
0.0
 10
156.8483330188408
 20
33.52016004313218
 30
0.0
  0
SPLINE
  5
556
330
221
100
AcDbEntity
  8
7_ALL_FEATURES
  6
CONTINUOUS
 62
     7
100
AcDbSpline
210
0.0
220
0.0
230
1.0
 70
     8
 71
     3
 72
    15
 73
    11
 74
     0
 42
0.000000001
 43
0.0000001
 40
0.0
 40
0.0
 40
0.0
 40
0.0
 40
0.159537949
 40
0.2986776276
 40
0.420223077
 40
0.5293190272
 40
0.633623912
 40
0.7420348344
 40
0.8623756783
 40
1.0
 40
1.0
 40
1.0
 40
1.0
 10
153.4109262166408
 20
69.22636901773217
 30
0.0
 10
153.4290929715408
 20
69.24534559313219
 30
0.0
 10
153.4650961503408
 20
69.27909227433219
 30
0.0
 10
153.5224093151408
 20
69.3184580135322
 30
0.0
 10
153.5789525455408
 20
69.34245677223217
 30
0.0
 10
153.6343665894408
 20
69.35016051313218
 30
0.0
 10
153.6874312411408
 20
69.34056102313218
 30
0.0
 10
153.7363104701408
 20
69.31394228843217
 30
0.0
 10
153.7801410038408
 20
69.27170473763218
 30
0.0
 10
153.8042235291408
 20
69.23640212763218
 30
0.0
 10
153.8156206503408
 20
69.21681446373219
 30
0.0
  0
SPLINE
  5
557
330
221
100
AcDbEntity
  8
7_ALL_FEATURES
  6
CONTINUOUS
 62
     7
100
AcDbSpline
210
0.0
220
0.0
230
1.0
 70
     8
 71
     3
 72
     9
 73
     5
 74
     0
 42
0.000000001
 43
0.0000001
 40
0.0
 40
0.0
 40
0.0
 40
0.0
 40
0.2396717303
 40
1.0
 40
1.0
 40
1.0
 40
1.0
 10
160.5643791966409
 20
37.58681521723219
 30
0.0
 10
160.5709927388409
 20
37.59372357173218
 30
0.0
 10
160.5992227910409
 20
37.62193725073217
 30
0.0
 10
160.6298084215408
 20
37.64775179133218
 30
0.0
 10
160.6539378506408
 20
37.66614372423219
 30
0.0
  0
SPLINE
  5
558
330
221
100
AcDbEntity
  8
7_ALL_FEATURES
  6
CONTINUOUS
 62
     7
100
AcDbSpline
210
0.0
220
0.0
230
1.0
 70
     8
 71
     3
 72
    17
 73
    13
 74
     0
 42
0.000000001
 43
0.0000001
 40
0.0
 40
0.0
 40
0.0
 40
0.0
 40
0.1816193728
 40
0.346452824
 40
0.490904509
 40
0.6135185589
 40
0.71628841
 40
0.762495903
 40
0.8069666114
 40
0.8514068786
 40
0.8975279014
 40
1.0
 40
1.0
 40
1.0
 40
1.0
 10
157.6085887282408
 20
32.61356386403217
 30
0.0
 10
157.5126217699408
 20
32.63221795103217
 30
0.0
 10
157.3310351233408
 20
32.67639325563218
 30
0.0
 10
157.0823051547408
 20
32.76750659933218
 30
0.0
 10
156.8764882081408
 20
32.87783075453218
 30
0.0
 10
156.7204485345408
 20
33.00376016873219
 30
0.0
 10
156.6337263191408
 20
33.12518877803218
 30
0.0
 10
156.6005848408408
 20
33.22467568043218
 30
0.0
 10
156.5928983928408
 20
33.29760834603218
 30
0.0
 10
156.6017798867408
 20
33.37037441963218
 30
0.0
 10
156.6365002168408
 20
33.46901446263217
 30
0.0
 10
156.6853666953408
 20
33.53488773863218
 30
0.0
 10
156.7235107564408
 20
33.57473214983217
 30
0.0
  0
SPLINE
  5
559
330
221
100
AcDbEntity
  8
06___PRT_ALL_SURFS
  6
CONTINUOUS
 62
     7
100
AcDbSpline
210
0.0
220
0.0
230
1.0
 70
     8
 71
     3
 72
    11
 73
     7
 74
     0
 42
0.000000001
 43
0.0000001
 40
0.0
 40
0.0
 40
0.0
 40
0.0
 40
0.2502570903
 40
0.5003318619
 40
0.7501883674
 40
1.0
 40
1.0
 40
1.0
 40
1.0
 10
111.8888426577245
 20
108.6976299214717
 30
0.0
 10
111.9237105164745
 20
108.7272257537217
 30
0.0
 10
111.9937590144745
 20
108.7860500342218
 30
0.0
 10
112.1041673477245
 20
108.8674724792217
 30
0.0
 10
112.2184027577245
 20
108.9432074869717
 30
0.0
 10
112.2966896654745
 20
108.9902710624717
 30
0.0
 10
112.3362267472245
 20
109.0130978072218
 30
0.0
  0
SPLINE
  5
55A
330
221
100
AcDbEntity
  8
06___PRT_ALL_SURFS
  6
CONTINUOUS
 62
     7
100
AcDbSpline
210
0.0
220
0.0
230
1.0
 70
     8
 71
     3
 72
    11
 73
     7
 74
     0
 42
0.000000001
 43
0.0000001
 40
0.0
 40
0.0
 40
0.0
 40
0.0
 40
0.2502570107
 40
0.5003316614
 40
0.7501883624
 40
1.0
 40
1.0
 40
1.0
 40
1.0
 10
113.0161384794745
 20
109.3484737764717
 30
0.0
 10
112.9730714702245
 20
109.3330768507217
 30
0.0
 10
112.8870995077245
 20
109.3018272574716
 30
0.0
 10
112.7613789027245
 20
109.2469150987217
 30
0.0
 10
112.6386690097245
 20
109.1858482714717
 30
0.0
 10
112.5587643517245
 20
109.1415799532217
 30
0.0
 10
112.5192258224745
 20
109.1187523727217
 30
0.0
  0
SPLINE
  5
55B
330
221
100
AcDbEntity
  8
06___PRT_ALL_SURFS
  6
CONTINUOUS
 62
     7
100
AcDbSpline
210
0.0
220
0.0
230
1.0
 70
     8
 71
     3
 72
    11
 73
     7
 74
     0
 42
0.000000001
 43
0.0000001
 40
0.0
 40
0.0
 40
0.0
 40
0.0
 40
0.2502570107
 40
0.5003316614
 40
0.7501883624
 40
1.0
 40
1.0
 40
1.0
 40
1.0
 10
111.6944055759745
 20
108.5031920222218
 30
0.0
 10
111.6648069147245
 20
108.4683243887217
 30
0.0
 10
111.6059778079745
 20
108.3982754657217
 30
0.0
 10
111.5245566497245
 20
108.2878598387218
 30
0.0
 10
111.4488201784745
 20
108.1736194684717
 30
0.0
 10
111.4017548739745
 20
108.0953296512217
 30
0.0
 10
111.3789272934745
 20
108.0557911222217
 30
0.0
  0
SPLINE
  5
55C
330
221
100
AcDbEntity
  8
06___PRT_ALL_SURFS
  6
CONTINUOUS
 62
     7
100
AcDbSpline
210
0.0
220
0.0
230
1.0
 70
     8
 71
     3
 72
    11
 73
     7
 74
     0
 42
0.000000001
 43
0.0000001
 40
0.0
 40
0.0
 40
0.0
 40
0.0
 40
0.2502570107
 40
0.5003316614
 40
0.7501883624
 40
1.0
 40
1.0
 40
1.0
 40
1.0
 10
114.5834336282245
 20
109.4196427974718
 30
0.0
 10
114.5384380412245
 20
109.4278421732217
 30
0.0
 10
114.4483593409745
 20
109.4437652127217
 30
0.0
 10
114.3120260239745
 20
109.4590701907218
 30
0.0
 10
114.1752227254745
 20
109.4675397134717
 30
0.0
 10
114.0838891027245
 20
109.4691545544718
 30
0.0
 10
114.0382339417245
 20
109.4691545544718
 30
0.0
  0
SPLINE
  5
55D
330
221
100
AcDbEntity
  8
06___PRT_ALL_SURFS
  6
CONTINUOUS
 62
     7
100
AcDbSpline
210
0.0
220
0.0
230
1.0
 70
     8
 71
     3
 72
    11
 73
     7
 74
     0
 42
0.000000001
 43
0.0000001
 40
0.0
 40
0.0
 40
0.0
 40
0.0
 40
0.2502570903
 40
0.5003318619
 40
0.7501883674
 40
1.0
 40
1.0
 40
1.0
 40
1.0
 10
113.2817448812245
 20
109.4196433959717
 30
0.0
 10
113.3267392487245
 20
109.4278402089718
 30
0.0
 10
113.4168151679745
 20
109.4437592814717
 30
0.0
 10
113.5531428117245
 20
109.4590690204717
 30
0.0
 10
113.6899410827245
 20
109.4675397562218
 30
0.0
 10
113.7812713214745
 20
109.4691545544718
 30
0.0
 10
113.8269248109745
 20
109.4691545544718
 30
0.0
  0
SPLINE
  5
55E
330
221
100
AcDbEntity
  8
06___PRT_ALL_SURFS
  6
CONTINUOUS
 62
     7
100
AcDbSpline
210
0.0
220
0.0
230
1.0
 70
     8
 71
     3
 72
    11
 73
     7
 74
     0
 42
0.000000001
 43
0.0000001
 40
0.0
 40
0.0
 40
0.0
 40
0.0
 40
0.2502570107
 40
0.5003316614
 40
0.7501883624
 40
1.0
 40
1.0
 40
1.0
 40
1.0
 10
115.9763355524745
 20
108.6976294032217
 30
0.0
 10
115.9414679189745
 20
108.7272280644717
 30
0.0
 10
115.8714189959745
 20
108.7860571712217
 30
0.0
 10
115.7610033689745
 20
108.8674783294717
 30
0.0
 10
115.6467629989745
 20
108.9432148007217
 30
0.0
 10
115.5684731817245
 20
108.9902801052216
 30
0.0
 10
115.5289346524745
 20
109.0131076857216
 30
0.0
  0
SPLINE
  5
55F
330
221
100
AcDbEntity
  8
06___PRT_ALL_SURFS
  6
CONTINUOUS
 62
     7
100
AcDbSpline
210
0.0
220
0.0
230
1.0
 70
     8
 71
     3
 72
    11
 73
     7
 74
     0
 42
0.000000001
 43
0.0000001
 40
0.0
 40
0.0
 40
0.0
 40
0.0
 40
0.2502570903
 40
0.5003318619
 40
0.7501883674
 40
1.0
 40
1.0
 40
1.0
 40
1.0
 10
114.8490403292245
 20
109.3484742949718
 30
0.0
 10
114.8921050009745
 20
109.3330757594718
 30
0.0
 10
114.9780725714745
 20
109.3018241209717
 30
0.0
 10
115.1037906437245
 20
109.2469189219717
 30
0.0
 10
115.2264967894745
 20
109.1858556589717
 30
0.0
 10
115.3063984954745
 20
109.1415889957217
 30
0.0
 10
115.3459355769745
 20
109.1187622509717
 30
0.0
  0
SPLINE
  5
560
330
221
100
AcDbEntity
  8
06___PRT_ALL_SURFS
  6
CONTINUOUS
 62
     7
100
AcDbSpline
210
0.0
220
0.0
230
1.0
 70
     8
 71
     3
 72
    11
 73
     7
 74
     0
 42
0.000000001
 43
0.0000001
 40
0.0
 40
0.0
 40
0.0
 40
0.0
 40
0.2502570903
 40
0.5003318619
 40
0.7501883674
 40
1.0
 40
1.0
 40
1.0
 40
1.0
 10
116.1707734517245
 20
108.5031923214717
 30
0.0
 10
116.2003692839745
 20
108.4683244627217
 30
0.0
 10
116.2591935644745
 20
108.3982759647217
 30
0.0
 10
116.3406160094745
 20
108.2878676314717
 30
0.0
 10
116.4163510172245
 20
108.1736322214717
 30
0.0
 10
116.4634145927245
 20
108.0953453137217
 30
0.0
 10
116.4862413374745
 20
108.0558082319717
 30
0.0
  0
SPLINE
  5
561
330
221
100
AcDbEntity
  8
06___PRT_ALL_SURFS
  6
CONTINUOUS
 62
     7
100
AcDbSpline
210
0.0
220
0.0
230
1.0
 70
     8
 71
     3
 72
    11
 73
     7
 74
     0
 42
0.000000001
 43
0.0000001
 40
0.0
 40
0.0
 40
0.0
 40
0.0
 40
0.2498116376
 40
0.4996683386
 40
0.7497429893
 40
1.0
 40
1.0
 40
1.0
 40
1.0
 10
113.8269248109745
 20
109.4691545544718
 30
0.0
 10
113.8725799719745
 20
109.4691545544718
 30
0.0
 10
113.9639135947245
 20
109.4675397134717
 30
0.0
 10
114.1007168929745
 20
109.4590701907218
 30
0.0
 10
114.2370502099745
 20
109.4437652127217
 30
0.0
 10
114.3271289102245
 20
109.4278421732217
 30
0.0
 10
114.3721244972245
 20
109.4196427974718
 30
0.0
  0
SPLINE
  5
562
330
221
100
AcDbEntity
  8
06___PRT_ALL_SURFS
  6
CONTINUOUS
 62
     7
100
AcDbSpline
210
0.0
220
0.0
230
1.0
 70
     8
 71
     3
 72
    10
 73
     6
 74
     0
 42
0.000000001
 43
0.0000001
 40
0.0
 40
0.0
 40
0.0
 40
0.0
 40
0.4996326473
 40
0.749746052
 40
1.0
 40
1.0
 40
1.0
 40
1.0
 10
111.3250846052245
 20
107.9597223879717
 30
0.0
 10
111.3641338804745
 20
108.0231139447217
 30
0.0
 10
111.4260592014745
 20
108.1162826744717
 30
0.0
 10
111.5164592019745
 20
108.2348142474717
 30
0.0
 10
111.5646172884745
 20
108.2917630874717
 30
0.0
 10
111.5887510107245
 20
108.3201929467218
 30
0.0
  0
SPLINE
  5
563
330
221
100
AcDbEntity
  8
06___PRT_ALL_SURFS
  6
CONTINUOUS
 62
     7
100
AcDbSpline
210
0.0
220
0.0
230
1.0
 70
     8
 71
     3
 72
    11
 73
     7
 74
     0
 42
0.000000001
 43
0.0000001
 40
0.0
 40
0.0
 40
0.0
 40
0.0
 40
0.2498116376
 40
0.4996683386
 40
0.7497429893
 40
1.0
 40
1.0
 40
1.0
 40
1.0
 10
112.3362267472245
 20
109.0130978072218
 30
0.0
 10
112.3757652762245
 20
109.0359253877216
 30
0.0
 10
112.4556699342245
 20
109.0801937059717
 30
0.0
 10
112.5783798274745
 20
109.1412605332217
 30
0.0
 10
112.7041004322245
 20
109.1961726919717
 30
0.0
 10
112.7900723949745
 20
109.2274222854717
 30
0.0
 10
112.8331394042245
 20
109.2428192112217
 30
0.0
  0
SPLINE
  5
564
330
221
100
AcDbEntity
  8
06___PRT_ALL_SURFS
  6
CONTINUOUS
 62
     7
100
AcDbSpline
210
0.0
220
0.0
230
1.0
 70
     8
 71
     3
 72
    11
 73
     7
 74
     0
 42
0.000000001
 43
0.0000001
 40
0.0
 40
0.0
 40
0.0
 40
0.0
 40
0.2498116376
 40
0.4996683386
 40
0.7497429893
 40
1.0
 40
1.0
 40
1.0
 40
1.0
 10
115.3459355769745
 20
109.1187622509717
 30
0.0
 10
115.3854741062245
 20
109.0959346704716
 30
0.0
 10
115.4637639234745
 20
109.0488693659717
 30
0.0
 10
115.5780042937245
 20
108.9731328949717
 30
0.0
 10
115.6884199207245
 20
108.8917117367218
 30
0.0
 10
115.7584688437245
 20
108.8328826297217
 30
0.0
 10
115.7933364772245
 20
108.8032839684717
 30
0.0
  0
LINE
  5
5FD
330
221
100
AcDbEntity
  8
0
  6
CONTINUOUS
 62
     7
100
AcDbLine
 10
431.2316634365174
 20
-3.478406198813559
 30
0.0
 11
431.2316634365174
 21
293.5215938011864
 31
0.0
  0
LINE
  5
5FE
330
221
100
AcDbEntity
  8
0
  6
CONTINUOUS
 62
     7
100
AcDbLine
 10
11.23166343651735
 20
293.5215938011864
 30
0.0
 11
431.2316634365174
 21
293.5215938011864
 31
0.0
  0
LINE
  5
5FF
330
221
100
AcDbEntity
  8
0
  6
CONTINUOUS
 62
     7
100
AcDbLine
 10
11.23166343651735
 20
-3.478406198813559
 30
0.0
 11
11.23166343651735
 21
293.5215938011864
 31
0.0
  0
LINE
  5
600
330
221
100
AcDbEntity
  8
0
  6
CONTINUOUS
 62
     7
100
AcDbLine
 10
11.23166343651735
 20
-3.478406198813559
 30
0.0
 11
431.2316634365174
 21
-3.478406198813559
 31
0.0
  0
ENDSEC
  0
SECTION
  2
OBJECTS
  0
DICTIONARY
  5
C
330
0
100
AcDbDictionary
  3
ACAD_DETAILVIEWSTYLE
350
5B2
  3
ACAD_GROUP
350
D
  3
ACAD_MLINESTYLE
350
17
  3
ACAD_SCALELIST
350
60D
  3
ACAD_SECTIONVIEWSTYLE
350
5B3
  3
ACDBVARIABLEDICTIONARY
350
5AE
  3
APPDATA
350
5AC
  3
DWGPROPS
350
653
  0
DICTIONARY
  5
5B2
102
{ACAD_REACTORS
330
C
102
}
330
C
100
AcDbDictionary
  0
DICTIONARY
  5
D
102
{ACAD_REACTORS
330
C
102
}
330
C
100
AcDbDictionary
  0
DICTIONARY
  5
17
102
{ACAD_REACTORS
330
C
102
}
330
C
100
AcDbDictionary
  3
STANDARD
350
18
  0
DICTIONARY
  5
60D
102
{ACAD_REACTORS
330
C
102
}
330
C
100
AcDbDictionary
  0
DICTIONARY
  5
5B3
102
{ACAD_REACTORS
330
C
102
}
330
C
100
AcDbDictionary
  0
DICTIONARY
  5
5AE
102
{ACAD_REACTORS
330
C
102
}
330
C
100
AcDbDictionary
  0
DICTIONARY
  5
5AC
102
{ACAD_REACTORS
330
C
102
}
330
C
100
AcDbDictionary
  0
XRECORD
  5
653
102
{ACAD_REACTORS
330
C
102
}
330
C
100
AcDbXrecord
  1
DWGPROPS COOKIE
  2

  3

  4

  6

  7

  8
umberto.novello
  9

300
=
301
=
302
=
303
=
304
=
305
=
306
=
307
=
308
=
309
=
 40
0.0
 41
2447893.0
 42
2458444.6102564
  1

 90
        0
  0
MLINESTYLE
  5
18
102
{ACAD_REACTORS
330
17
102
}
330
17
100
AcDbMlineStyle
  2
STANDARD
 70
     0
  3

 62
   256
 51
90.0
 52
90.0
 71
     2
 49
0.5
 62
   256
  6
BYLAYER
 49
-0.5
 62
   256
  6
BYLAYER
  0
ENDSEC
  0
EOF
