  0
SECTION
  2
HEADER
  9
$ACADVER
  1
AC1021
  9
$ACADMAINTVER
 70
    25
  9
$DWGCODEPAGE
  3
ANSI_1252
  9
$LASTSAVEDBY
  1
umberto.novello
  9
$INSBASE
 10
0.0
 20
0.0
 30
0.0
  9
$EXTMIN
 10
13.18364574074565
 20
-14.05698641628337
 30
0.0
  9
$EXTMAX
 10
433.5173961629457
 20
282.9430135837166
 30
0.0
  9
$LIMMIN
 10
0.0
 20
0.0
  9
$LIMMAX
 10
420.0
 20
297.0
  9
$ORTHOMODE
 70
     0
  9
$REGENMODE
 70
     1
  9
$FILLMODE
 70
     1
  9
$QTEXTMODE
 70
     0
  9
$MIRRTEXT
 70
     1
  9
$LTSCALE
 40
23.1
  9
$ATTMODE
 70
     1
  9
$TEXTSIZE
 40
0.2
  9
$TRACEWID
 40
0.05
  9
$TEXTSTYLE
  7
STANDARD
  9
$CLAYER
  8
0
  9
$CELTYPE
  6
BYLAYER
  9
$CECOLOR
 62
   256
  9
$CELTSCALE
 40
1.0
  9
$DISPSILH
 70
     0
  9
$DIMSCALE
 40
1.0
  9
$DIMASZ
 40
2.5
  9
$DIMEXO
 40
2.625
  9
$DIMDLI
 40
15.96
  9
$DIMRND
 40
0.0
  9
$DIMDLE
 40
0.0
  9
$DIMEXE
 40
7.56
  9
$DIMTP
 40
0.01
  9
$DIMTM
 40
0.01
  9
$DIMTXT
 40
3.0
  9
$DIMCEN
 40
3.78
  9
$DIMTSZ
 40
0.0
  9
$DIMTOL
 70
     1
  9
$DIMLIM
 70
     0
  9
$DIMTIH
 70
     1
  9
$DIMTOH
 70
     1
  9
$DIMSE1
 70
     0
  9
$DIMSE2
 70
     0
  9
$DIMTAD
 70
     0
  9
$DIMZIN
 70
     0
  9
$DIMBLK
  1
CLOSED
  9
$DIMASO
 70
     1
  9
$DIMSHO
 70
     1
  9
$DIMPOST
  1

  9
$DIMAPOST
  1

  9
$DIMALT
 70
     0
  9
$DIMALTD
 70
     2
  9
$DIMALTF
 40
25.4
  9
$DIMLFAC
 40
1.0
  9
$DIMTOFL
 70
     0
  9
$DIMTVP
 40
0.0
  9
$DIMTIX
 70
     0
  9
$DIMSOXD
 70
     0
  9
$DIMSAH
 70
     0
  9
$DIMBLK1
  1

  9
$DIMBLK2
  1

  9
$DIMSTYLE
  2
STANDARD
  9
$DIMCLRD
 70
     0
  9
$DIMCLRE
 70
     0
  9
$DIMCLRT
 70
     0
  9
$DIMTFAC
 40
1.0
  9
$DIMGAP
 40
0.09
  9
$DIMJUST
 70
     0
  9
$DIMSD1
 70
     0
  9
$DIMSD2
 70
     0
  9
$DIMTOLJ
 70
     1
  9
$DIMTZIN
 70
     0
  9
$DIMALTZ
 70
     0
  9
$DIMALTTZ
 70
     0
  9
$DIMUPT
 70
     0
  9
$DIMDEC
 70
     4
  9
$DIMTDEC
 70
     4
  9
$DIMALTU
 70
     2
  9
$DIMALTTD
 70
     2
  9
$DIMTXSTY
  7
STANDARD
  9
$DIMAUNIT
 70
     0
  9
$DIMADEC
 70
     0
  9
$DIMALTRND
 40
0.0
  9
$DIMAZIN
 70
     0
  9
$DIMDSEP
 70
    46
  9
$DIMATFIT
 70
     3
  9
$DIMFRAC
 70
     0
  9
$DIMLDRBLK
  1

  9
$DIMLUNIT
 70
     2
  9
$DIMLWD
 70
    -2
  9
$DIMLWE
 70
    -2
  9
$DIMTMOVE
 70
     0
  9
$DIMFXL
 40
1.0
  9
$DIMFXLON
 70
     0
  9
$DIMJOGANG
 40
0.7853981633974483
  9
$DIMTFILL
 70
     0
  9
$DIMTFILLCLR
 70
     0
  9
$DIMARCSYM
 70
     0
  9
$DIMLTYPE
  6

  9
$DIMLTEX1
  6

  9
$DIMLTEX2
  6

  9
$LUNITS
 70
     2
  9
$LUPREC
 70
     4
  9
$SKETCHINC
 40
0.1
  9
$FILLETRAD
 40
0.5
  9
$AUNITS
 70
     0
  9
$AUPREC
 70
     0
  9
$MENU
  1
.
  9
$ELEVATION
 40
0.0
  9
$PELEVATION
 40
0.0
  9
$THICKNESS
 40
0.0
  9
$LIMCHECK
 70
     0
  9
$CHAMFERA
 40
0.0
  9
$CHAMFERB
 40
0.0
  9
$CHAMFERC
 40
0.0
  9
$CHAMFERD
 40
0.0
  9
$SKPOLY
 70
     0
  9
$TDCREATE
 40
2447893.041666667
  9
$TDUCREATE
 40
0.0
  9
$TDUPDATE
 40
2458444.663078738
  9
$TDUUPDATE
 40
2458444.621412072
  9
$TDINDWG
 40
0.0003240278
  9
$TDUSRTIMER
 40
0.0003240278
  9
$USRTIMER
 70
     1
  9
$ANGBASE
 50
0.0
  9
$ANGDIR
 70
     0
  9
$PDMODE
 70
     3
  9
$PDSIZE
 40
0.3125
  9
$PLINEWID
 40
0.0
  9
$SPLFRAME
 70
     0
  9
$SPLINETYPE
 70
     6
  9
$SPLINESEGS
 70
     8
  9
$HANDSEED
  5
682
  9
$SURFTAB1
 70
     6
  9
$SURFTAB2
 70
     6
  9
$SURFTYPE
 70
     6
  9
$SURFU
 70
     6
  9
$SURFV
 70
     6
  9
$UCSBASE
  2

  9
$UCSNAME
  2

  9
$UCSORG
 10
0.0
 20
0.0
 30
0.0
  9
$UCSXDIR
 10
1.0
 20
0.0
 30
0.0
  9
$UCSYDIR
 10
0.0
 20
1.0
 30
0.0
  9
$UCSORTHOREF
  2

  9
$UCSORTHOVIEW
 70
     0
  9
$UCSORGTOP
 10
0.0
 20
0.0
 30
0.0
  9
$UCSORGBOTTOM
 10
0.0
 20
0.0
 30
0.0
  9
$UCSORGLEFT
 10
0.0
 20
0.0
 30
0.0
  9
$UCSORGRIGHT
 10
0.0
 20
0.0
 30
0.0
  9
$UCSORGFRONT
 10
0.0
 20
0.0
 30
0.0
  9
$UCSORGBACK
 10
0.0
 20
0.0
 30
0.0
  9
$PUCSBASE
  2

  9
$PUCSNAME
  2

  9
$PUCSORG
 10
0.0
 20
0.0
 30
0.0
  9
$PUCSXDIR
 10
1.0
 20
0.0
 30
0.0
  9
$PUCSYDIR
 10
0.0
 20
1.0
 30
0.0
  9
$PUCSORTHOREF
  2

  9
$PUCSORTHOVIEW
 70
     0
  9
$PUCSORGTOP
 10
0.0
 20
0.0
 30
0.0
  9
$PUCSORGBOTTOM
 10
0.0
 20
0.0
 30
0.0
  9
$PUCSORGLEFT
 10
0.0
 20
0.0
 30
0.0
  9
$PUCSORGRIGHT
 10
0.0
 20
0.0
 30
0.0
  9
$PUCSORGFRONT
 10
0.0
 20
0.0
 30
0.0
  9
$PUCSORGBACK
 10
0.0
 20
0.0
 30
0.0
  9
$USERI1
 70
     0
  9
$USERI2
 70
     0
  9
$USERI3
 70
     0
  9
$USERI4
 70
     0
  9
$USERI5
 70
     0
  9
$USERR1
 40
0.0
  9
$USERR2
 40
0.0
  9
$USERR3
 40
0.0
  9
$USERR4
 40
0.0
  9
$USERR5
 40
0.0
  9
$WORLDVIEW
 70
     1
  9
$SHADEDGE
 70
     3
  9
$SHADEDIF
 70
    70
  9
$TILEMODE
 70
     1
  9
$MAXACTVP
 70
    64
  9
$PINSBASE
 10
0.0
 20
0.0
 30
0.0
  9
$PLIMCHECK
 70
     0
  9
$PEXTMIN
 10
1.000000000000000E+20
 20
1.000000000000000E+20
 30
1.000000000000000E+20
  9
$PEXTMAX
 10
-1.000000000000000E+20
 20
-1.000000000000000E+20
 30
-1.000000000000000E+20
  9
$PLIMMIN
 10
0.0
 20
0.0
  9
$PLIMMAX
 10
420.0
 20
297.0
  9
$UNITMODE
 70
     0
  9
$VISRETAIN
 70
     1
  9
$PLINEGEN
 70
     0
  9
$PSLTSCALE
 70
     1
  9
$TREEDEPTH
 70
  3020
  9
$CMLSTYLE
  2
Standard
  9
$CMLJUST
 70
     0
  9
$CMLSCALE
 40
1.0
  9
$PROXYGRAPHICS
 70
     1
  9
$MEASUREMENT
 70
     1
  9
$CELWEIGHT
370
    -1
  9
$ENDCAPS
280
     0
  9
$JOINSTYLE
280
     0
  9
$LWDISPLAY
290
     0
  9
$INSUNITS
 70
     4
  9
$HYPERLINKBASE
  1

  9
$STYLESHEET
  1

  9
$XEDIT
290
     1
  9
$CEPSNTYPE
380
     0
  9
$PSTYLEMODE
290
     1
  9
$FINGERPRINTGUID
  2
{B91CA64F-DF40-4A7A-B443-7EE10A0EF353}
  9
$VERSIONGUID
  2
{FAEB1C32-E019-11D5-929B-00C0DF256EC4}
  9
$EXTNAMES
290
     1
  9
$PSVPSCALE
 40
0.0
  9
$OLESTARTUP
290
     0
  9
$SORTENTS
280
   127
  9
$INDEXCTL
280
     0
  9
$HIDETEXT
280
     1
  9
$XCLIPFRAME
290
     0
  9
$HALOGAP
280
     0
  9
$OBSCOLOR
 70
   257
  9
$OBSLTYPE
280
     0
  9
$INTERSECTIONDISPLAY
280
     0
  9
$INTERSECTIONCOLOR
 70
   257
  9
$DIMASSOC
280
     2
  9
$PROJECTNAME
  1

  9
$CAMERADISPLAY
290
     0
  9
$LENSLENGTH
 40
50.0
  9
$CAMERAHEIGHT
 40
0.0
  9
$STEPSPERSEC
 40
2.0
  9
$STEPSIZE
 40
6.0
  9
$3DDWFPREC
 40
2.0
  9
$PSOLWIDTH
 40
0.25
  9
$PSOLHEIGHT
 40
4.0
  9
$LOFTANG1
 40
1.570796326794897
  9
$LOFTANG2
 40
1.570796326794897
  9
$LOFTMAG1
 40
0.0
  9
$LOFTMAG2
 40
0.0
  9
$LOFTPARAM
 70
     7
  9
$LOFTNORMALS
280
     1
  9
$LATITUDE
 40
37.795
  9
$LONGITUDE
 40
-122.394
  9
$NORTHDIRECTION
 40
0.0
  9
$TIMEZONE
 70
 -8000
  9
$LIGHTGLYPHDISPLAY
280
     1
  9
$TILEMODELIGHTSYNCH
280
     1
  9
$SOLIDHIST
280
     0
  9
$SHOWHIST
280
     1
  9
$DWFFRAME
280
     2
  9
$DGNFRAME
280
     2
  9
$REALWORLDSCALE
290
     1
  9
$INTERFERECOLOR
 62
   256
  9
$CSHADOW
280
     0
  9
$SHADOWPLANELOCATION
 40
0.0
  0
ENDSEC
  0
SECTION
  2
CLASSES
  0
CLASS
  1
ACDBDICTIONARYWDFLT
  2
AcDbDictionaryWithDefault
  3
ObjectDBX Classes
 90
        0
 91
        7
280
     0
281
     0
  0
CLASS
  1
ACDBPLACEHOLDER
  2
AcDbPlaceHolder
  3
ObjectDBX Classes
 90
        0
 91
        1
280
     0
281
     0
  0
CLASS
  1
LAYOUT
  2
AcDbLayout
  3
ObjectDBX Classes
 90
        0
 91
        1
280
     0
281
     0
  0
CLASS
  1
TABLESTYLE
  2
AcDbTableStyle
  3
ObjectDBX Classes
 90
     4095
 91
        7
280
     0
281
     0
  0
CLASS
  1
ACAD_TABLE
  2
AcDbTable
  3
ObjectDBX Classes
 90
     1025
 91
        7
280
     0
281
     1
  0
CLASS
  1
SCALE
  2
AcDbScale
  3
ObjectDBX Classes
 90
     1153
 91
        7
280
     0
281
     0
  0
CLASS
  1
TABLEGEOMETRY
  2
AcDbTableGeometry
  3
ObjectDBX Classes
 90
     1152
 91
        7
280
     0
281
     0
  0
CLASS
  1
VISUALSTYLE
  2
AcDbVisualStyle
  3
ObjectDBX Classes
 90
     4095
 91
        7
280
     0
281
     0
  0
CLASS
  1
MATERIAL
  2
AcDbMaterial
  3
ObjectDBX Classes
 90
     1153
 91
        7
280
     0
281
     0
  0
CLASS
  1
MLEADERSTYLE
  2
AcDbMLeaderStyle
  3
ACDB_MLEADERSTYLE_CLASS
 90
     4095
 91
        7
280
     0
281
     0
  0
CLASS
  1
SUN
  2
AcDbSun
  3
SCENEOE
 90
     1153
 91
        7
280
     0
281
     0
  0
CLASS
  1
DICTIONARYVAR
  2
AcDbDictionaryVar
  3
ObjectDBX Classes
 90
        0
 91
        5
280
     0
281
     0
  0
CLASS
  1
CELLSTYLEMAP
  2
AcDbCellStyleMap
  3
ObjectDBX Classes
 90
     1152
 91
        4
280
     0
281
     0
  0
ENDSEC
  0
SECTION
  2
TABLES
  0
TABLE
  2
VPORT
  5
8
330
0
100
AcDbSymbolTable
 70
     1
  0
VPORT
  5
1F4
330
8
100
AcDbSymbolTableRecord
100
AcDbViewportTableRecord
  2
*ACTIVE
 70
     0
 10
0.0
 20
0.0
 11
1.0
 21
1.0
 12
284.9491653845956
 22
119.3610414066043
 13
0.0
 23
0.0
 14
1.0
 24
1.0
 15
0.0
 25
0.0
 16
0.0
 26
0.0
 36
1.0
 17
0.0
 27
0.0
 37
0.0
 40
580.0781249999998
 41
1.929961089494163
 42
50.0
 43
0.0
 44
0.0
 50
0.0
 51
0.0
 71
    16
 72
   100
 73
     1
 74
     1
 75
     0
 76
     0
 77
     0
 78
     0
281
     0
 65
     1
110
0.0
120
0.0
130
0.0
111
1.0
121
0.0
131
0.0
112
0.0
122
1.0
132
0.0
 79
     0
146
0.0
348
5DD
 60
     3
 61
     5
292
     1
282
     1
141
0.0
142
0.0
 63
   256
361
5F8
  0
ENDTAB
  0
TABLE
  2
LTYPE
  5
5
330
0
100
AcDbSymbolTable
 70
     6
  0
LTYPE
  5
14
330
5
100
AcDbSymbolTableRecord
100
AcDbLinetypeTableRecord
  2
BYBLOCK
 70
     0
  3

 72
    65
 73
     0
 40
0.0
  0
LTYPE
  5
15
330
5
100
AcDbSymbolTableRecord
100
AcDbLinetypeTableRecord
  2
BYLAYER
 70
     0
  3

 72
    65
 73
     0
 40
0.0
  0
LTYPE
  5
16
330
5
100
AcDbSymbolTableRecord
100
AcDbLinetypeTableRecord
  2
CONTINUOUS
 70
     0
  3
Solid line
 72
    65
 73
     0
 40
0.0
  0
LTYPE
  5
1F5
330
5
100
AcDbSymbolTableRecord
100
AcDbLinetypeTableRecord
  2
CENTER
 70
     0
  3
____ _ ____ _ ____ _ ____ _ ____ _ ____ _ ____
 72
    65
 73
     4
 40
0.6
 49
0.375
 74
     0
 49
-0.075
 74
     0
 49
0.075
 74
     0
 49
-0.075
 74
     0
  0
LTYPE
  5
1F6
330
5
100
AcDbSymbolTableRecord
100
AcDbLinetypeTableRecord
  2
HIDDEN
 70
     0
  3
- - - - - - - - - - - - - - - - - - - -
 72
    65
 73
     2
 40
0.2
 49
0.1
 74
     0
 49
-0.1
 74
     0
  0
LTYPE
  5
1F7
330
5
100
AcDbSymbolTableRecord
100
AcDbLinetypeTableRecord
  2
PHANTOM
 70
     0
  3
_____ _ _ _____ _ _ _____ _ _ _____
 72
    65
 73
     6
 40
0.8
 49
0.45
 74
     0
 49
-0.05
 74
     0
 49
0.1
 74
     0
 49
-0.05
 74
     0
 49
0.1
 74
     0
 49
-0.05
 74
     0
  0
LTYPE
  5
1F8
330
5
100
AcDbSymbolTableRecord
100
AcDbLinetypeTableRecord
  2
DOT
 70
     0
  3
. . . . . . . . . . . . . . . . . . . .
 72
    65
 73
     2
 40
0.2
 49
0.1
 74
     0
 49
-0.1
 74
     0
  0
LTYPE
  5
1F9
330
5
100
AcDbSymbolTableRecord
100
AcDbLinetypeTableRecord
  2
DASHED
 70
     0
  3
- - - - - - - - - - - - - - - - - - - -
 72
    65
 73
     2
 40
0.2
 49
0.1
 74
     0
 49
-0.1
 74
     0
  0
ENDTAB
  0
TABLE
  2
LAYER
  5
2
330
0
100
AcDbSymbolTable
 70
    36
  0
LAYER
  5
10
330
2
100
AcDbSymbolTableRecord
100
AcDbLayerTableRecord
  2
0
 70
     0
 62
     7
  6
CONTINUOUS
370
    -3
390
F
347
5F4
  0
LAYER
  5
1FA
330
2
100
AcDbSymbolTableRecord
100
AcDbLayerTableRecord
  2
DEFAULT_1
 70
     0
 62
     7
  6
CENTER
370
    -3
390
F
347
5F4
  0
LAYER
  5
1FB
330
2
100
AcDbSymbolTableRecord
100
AcDbLayerTableRecord
  2
DEFAULT_2
 70
     0
 62
     8
  6
HIDDEN
370
    -3
390
F
347
5F4
  0
LAYER
  5
1FC
330
2
100
AcDbSymbolTableRecord
100
AcDbLayerTableRecord
  2
DEFAULT_3
 70
     0
 62
     7
  6
PHANTOM
370
    -3
390
F
347
5F4
  0
LAYER
  5
1FD
330
2
100
AcDbSymbolTableRecord
100
AcDbLayerTableRecord
  2
01_ALL_DTM_PLN
 70
     0
 62
     7
  6
CONTINUOUS
370
    -3
390
F
347
5F4
  0
LAYER
  5
1FE
330
2
100
AcDbSymbolTableRecord
100
AcDbLayerTableRecord
  2
01__ASM_ALL_DTM_PLN
 70
     0
 62
     7
  6
CONTINUOUS
370
    -3
390
F
347
5F4
  0
LAYER
  5
1FF
330
2
100
AcDbSymbolTableRecord
100
AcDbLayerTableRecord
  2
01__ASM_DEF_DTM_PLN
 70
     0
 62
     7
  6
CONTINUOUS
370
    -3
390
F
347
5F4
  0
LAYER
  5
200
330
2
100
AcDbSymbolTableRecord
100
AcDbLayerTableRecord
  2
01___PRT_ALL_DTM_PLN
 70
     0
 62
     7
  6
CONTINUOUS
370
    -3
390
F
347
5F4
  0
LAYER
  5
201
330
2
100
AcDbSymbolTableRecord
100
AcDbLayerTableRecord
  2
01___PRT_DEF_DTM_PLN
 70
     0
 62
     7
  6
CONTINUOUS
370
    -3
390
F
347
5F4
  0
LAYER
  5
202
330
2
100
AcDbSymbolTableRecord
100
AcDbLayerTableRecord
  2
02_ALL_AXES
 70
     0
 62
     7
  6
CONTINUOUS
370
    -3
390
F
347
5F4
  0
LAYER
  5
203
330
2
100
AcDbSymbolTableRecord
100
AcDbLayerTableRecord
  2
02__ASM_ALL_AXES
 70
     0
 62
     7
  6
CONTINUOUS
370
    -3
390
F
347
5F4
  0
LAYER
  5
204
330
2
100
AcDbSymbolTableRecord
100
AcDbLayerTableRecord
  2
02___PRT_ALL_AXES
 70
     0
 62
     7
  6
CONTINUOUS
370
    -3
390
F
347
5F4
  0
LAYER
  5
205
330
2
100
AcDbSymbolTableRecord
100
AcDbLayerTableRecord
  2
03_ALL_CURVES
 70
     0
 62
     7
  6
CONTINUOUS
370
    -3
390
F
347
5F4
  0
LAYER
  5
206
330
2
100
AcDbSymbolTableRecord
100
AcDbLayerTableRecord
  2
03__ASM_ALL_CURVES
 70
     0
 62
     7
  6
CONTINUOUS
370
    -3
390
F
347
5F4
  0
LAYER
  5
207
330
2
100
AcDbSymbolTableRecord
100
AcDbLayerTableRecord
  2
03___PRT_ALL_CURVES
 70
     0
 62
     7
  6
CONTINUOUS
370
    -3
390
F
347
5F4
  0
LAYER
  5
208
330
2
100
AcDbSymbolTableRecord
100
AcDbLayerTableRecord
  2
04_ALL_DTM_PNT
 70
     0
 62
     7
  6
CONTINUOUS
370
    -3
390
F
347
5F4
  0
LAYER
  5
209
330
2
100
AcDbSymbolTableRecord
100
AcDbLayerTableRecord
  2
04__ASM_ALL_DTM_PNT
 70
     0
 62
     7
  6
CONTINUOUS
370
    -3
390
F
347
5F4
  0
LAYER
  5
20A
330
2
100
AcDbSymbolTableRecord
100
AcDbLayerTableRecord
  2
04___PRT_ALL_DTM_PNT
 70
     0
 62
     7
  6
CONTINUOUS
370
    -3
390
F
347
5F4
  0
LAYER
  5
20B
330
2
100
AcDbSymbolTableRecord
100
AcDbLayerTableRecord
  2
05_ALL_DTM_CSYS
 70
     0
 62
     7
  6
CONTINUOUS
370
    -3
390
F
347
5F4
  0
LAYER
  5
20C
330
2
100
AcDbSymbolTableRecord
100
AcDbLayerTableRecord
  2
05__ASM_ALL_DTM_CSYS
 70
     0
 62
     7
  6
CONTINUOUS
370
    -3
390
F
347
5F4
  0
LAYER
  5
20D
330
2
100
AcDbSymbolTableRecord
100
AcDbLayerTableRecord
  2
05__ASM_DEF_DTM_CSYS
 70
     0
 62
     7
  6
CONTINUOUS
370
    -3
390
F
347
5F4
  0
LAYER
  5
20E
330
2
100
AcDbSymbolTableRecord
100
AcDbLayerTableRecord
  2
05___PRT_ALL_DTM_CSYS
 70
     0
 62
     7
  6
CONTINUOUS
370
    -3
390
F
347
5F4
  0
LAYER
  5
20F
330
2
100
AcDbSymbolTableRecord
100
AcDbLayerTableRecord
  2
05___PRT_DEF_DTM_CSYS
 70
     0
 62
     7
  6
CONTINUOUS
370
    -3
390
F
347
5F4
  0
LAYER
  5
210
330
2
100
AcDbSymbolTableRecord
100
AcDbLayerTableRecord
  2
06_ALL_SURFS
 70
     0
 62
     7
  6
CONTINUOUS
370
    -3
390
F
347
5F4
  0
LAYER
  5
211
330
2
100
AcDbSymbolTableRecord
100
AcDbLayerTableRecord
  2
06__ASM_ALL_SURFS
 70
     0
 62
     7
  6
CONTINUOUS
370
    -3
390
F
347
5F4
  0
LAYER
  5
212
330
2
100
AcDbSymbolTableRecord
100
AcDbLayerTableRecord
  2
06___PRT_ALL_SURFS
 70
     0
 62
     7
  6
CONTINUOUS
370
    -3
390
F
347
5F4
  0
LAYER
  5
213
330
2
100
AcDbSymbolTableRecord
100
AcDbLayerTableRecord
  2
07__ASM_ALL_SKELETONS
 70
     0
 62
     7
  6
CONTINUOUS
370
    -3
390
F
347
5F4
  0
LAYER
  5
214
330
2
100
AcDbSymbolTableRecord
100
AcDbLayerTableRecord
  2
1_ALL_PLANES
 70
     0
 62
     7
  6
CONTINUOUS
370
    -3
390
F
347
5F4
  0
LAYER
  5
215
330
2
100
AcDbSymbolTableRecord
100
AcDbLayerTableRecord
  2
3_ALL_AXES
 70
     0
 62
     7
  6
CONTINUOUS
370
    -3
390
F
347
5F4
  0
LAYER
  5
216
330
2
100
AcDbSymbolTableRecord
100
AcDbLayerTableRecord
  2
4_ALL_POINTS
 70
     0
 62
     7
  6
CONTINUOUS
370
    -3
390
F
347
5F4
  0
LAYER
  5
217
330
2
100
AcDbSymbolTableRecord
100
AcDbLayerTableRecord
  2
5_ALL_CURVES
 70
     0
 62
     7
  6
CONTINUOUS
370
    -3
390
F
347
5F4
  0
LAYER
  5
218
330
2
100
AcDbSymbolTableRecord
100
AcDbLayerTableRecord
  2
6_ALL_SURFS
 70
     0
 62
     7
  6
CONTINUOUS
370
    -3
390
F
347
5F4
  0
LAYER
  5
219
330
2
100
AcDbSymbolTableRecord
100
AcDbLayerTableRecord
  2
7_ALL_FEATURES
 70
     0
 62
     7
  6
CONTINUOUS
370
    -3
390
F
347
5F4
  0
LAYER
  5
21A
330
2
100
AcDbSymbolTableRecord
100
AcDbLayerTableRecord
  2
8_ALL_NOTES_BALLOONS_SYMBOLS_GT
 70
     0
 62
     7
  6
CONTINUOUS
370
    -3
390
F
347
5F4
  0
LAYER
  5
21B
330
2
100
AcDbSymbolTableRecord
100
AcDbLayerTableRecord
  2
XSEC_DATUMS
 70
     0
 62
     7
  6
CONTINUOUS
370
    -3
390
F
347
5F4
  0
LAYER
  5
674
330
2
100
AcDbSymbolTableRecord
100
AcDbLayerTableRecord
  2
Defpoints
 70
     0
 62
     7
  6
CONTINUOUS
290
     0
370
    -3
390
F
347
5F4
  0
ENDTAB
  0
TABLE
  2
STYLE
  5
3
330
0
100
AcDbSymbolTable
 70
     5
  0
STYLE
  5
11
330
3
100
AcDbSymbolTableRecord
100
AcDbTextStyleTableRecord
  2
STANDARD
 70
     0
 40
0.0
 41
0.85
 50
0.0
 71
     0
 42
0.2
  3
txt
  4

  0
STYLE
  5
21C
330
3
100
AcDbSymbolTableRecord
100
AcDbTextStyleTableRecord
  2
TEXTSTYLE_1
 70
     0
 40
0.0
 41
0.8
 50
0.0
 71
     0
 42
0.2
  3
gdt
  4

  0
STYLE
  5
21D
330
3
100
AcDbSymbolTableRecord
100
AcDbTextStyleTableRecord
  2
TEXTSTYLE_2
 70
     0
 40
0.0
 41
0.9
 50
0.0
 71
     0
 42
0.2
  3
txt
  4

  0
STYLE
  5
21E
330
3
100
AcDbSymbolTableRecord
100
AcDbTextStyleTableRecord
  2
TEXTSTYLE_3
 70
     0
 40
0.0
 41
0.9
 50
0.0
 71
     0
 42
0.2
  3
txt
  4

  0
STYLE
  5
21F
330
3
100
AcDbSymbolTableRecord
100
AcDbTextStyleTableRecord
  2
TEXTSTYLE_4
 70
     0
 40
0.0
 41
0.85
 50
0.0
 71
     0
 42
0.2
  3
txt
  4

  0
ENDTAB
  0
TABLE
  2
VIEW
  5
6
330
0
100
AcDbSymbolTable
 70
     0
  0
ENDTAB
  0
TABLE
  2
UCS
  5
7
330
0
100
AcDbSymbolTable
 70
     0
  0
ENDTAB
  0
TABLE
  2
APPID
  5
9
330
0
100
AcDbSymbolTable
 70
     2
  0
APPID
  5
220
330
9
100
AcDbSymbolTableRecord
100
AcDbRegAppTableRecord
  2
ACAD
 70
     0
  0
APPID
  5
680
330
9
100
AcDbSymbolTableRecord
100
AcDbRegAppTableRecord
  2
ACAD_MLEADERVER
 70
     0
  0
ENDTAB
  0
TABLE
  2
DIMSTYLE
  5
A
330
0
100
AcDbSymbolTable
 70
     4
100
AcDbDimStyleTable
  0
DIMSTYLE
105
22A
330
A
100
AcDbSymbolTableRecord
100
AcDbDimStyleTableRecord
  2
STANDARD
 70
     0
 41
2.5
 47
0.01
 48
0.01
 71
     1
 73
     0
 74
     0
 77
     1
 78
     8
140
3.0
178
     0
271
     2
272
     2
284
     8
340
11
341
223
342
223
343
223
344
223
  0
DIMSTYLE
105
22B
330
A
100
AcDbSymbolTableRecord
100
AcDbDimStyleTableRecord
  2
DIMSTYLE_1
 70
     0
 41
2.5
 47
0.5
 48
0.5
 73
     0
 74
     0
 77
     1
 78
     8
140
3.0
144
2.5
178
     0
271
     2
272
     2
284
     8
340
11
341
223
342
223
343
223
344
223
  0
DIMSTYLE
105
22C
330
A
100
AcDbSymbolTableRecord
100
AcDbDimStyleTableRecord
  2
DIMSTYLE_2
 70
     0
 41
2.5
 47
0.2
 48
0.2
 73
     0
 74
     0
 77
     1
 78
     8
140
3.0
144
2.5
178
     0
271
     2
272
     2
284
     8
340
11
341
223
342
223
343
223
344
223
  0
DIMSTYLE
105
22D
330
A
100
AcDbSymbolTableRecord
100
AcDbDimStyleTableRecord
  2
DIMSTYLE_3
 70
     0
 41
2.5
 47
0.3
 48
0.3
 73
     0
 74
     0
 77
     1
 78
     8
140
3.0
144
2.5
178
     0
271
     0
272
     0
284
     8
340
11
341
223
342
223
343
223
344
223
  0
ENDTAB
  0
TABLE
  2
BLOCK_RECORD
  5
1
330
0
100
AcDbSymbolTable
 70
     8
  0
BLOCK_RECORD
  5
221
330
1
100
AcDbSymbolTableRecord
100
AcDbBlockTableRecord
  2
*Model_Space
340
5B1
 70
     0
280
     1
281
     0
  0
BLOCK_RECORD
  5
222
330
1
100
AcDbSymbolTableRecord
100
AcDbBlockTableRecord
  2
*Paper_Space
340
5B2
 70
     0
280
     1
281
     0
  0
BLOCK_RECORD
  5
223
330
1
100
AcDbSymbolTableRecord
100
AcDbBlockTableRecord
  2
_CLOSED
340
0
102
{BLKREFS
331
275
331
276
331
27D
331
27E
331
285
331
286
331
28D
331
28E
102
}
 70
     0
280
     1
281
     0
  0
BLOCK_RECORD
  5
224
330
1
100
AcDbSymbolTableRecord
100
AcDbBlockTableRecord
  2
*D1
340
0
 70
     0
280
     1
281
     0
  0
BLOCK_RECORD
  5
225
330
1
100
AcDbSymbolTableRecord
100
AcDbBlockTableRecord
  2
*D2
340
0
 70
     0
280
     1
281
     0
  0
BLOCK_RECORD
  5
226
330
1
100
AcDbSymbolTableRecord
100
AcDbBlockTableRecord
  2
*D3
340
0
 70
     0
280
     1
281
     0
  0
BLOCK_RECORD
  5
227
330
1
100
AcDbSymbolTableRecord
100
AcDbBlockTableRecord
  2
*D4
340
0
 70
     0
280
     1
281
     0
  0
BLOCK_RECORD
  5
228
330
1
100
AcDbSymbolTableRecord
100
AcDbBlockTableRecord
  2
LOGO2_BL0
340
0
102
{BLKREFS
331
2A0
102
}
 70
     0
280
     1
281
     0
  0
BLOCK_RECORD
  5
229
330
1
100
AcDbSymbolTableRecord
100
AcDbBlockTableRecord
  2
*T6
340
0
102
{BLKREFS
331
3CA
102
}
 70
     0
280
     1
281
     0
  0
ENDTAB
  0
ENDSEC
  0
SECTION
  2
BLOCKS
  0
BLOCK
  5
20
330
221
100
AcDbEntity
  8
0
100
AcDbBlockBegin
  2
*Model_Space
 70
     0
 10
0.0
 20
0.0
 30
0.0
  3
*Model_Space
  1

  0
ENDBLK
  5
21
330
221
100
AcDbEntity
  8
0
100
AcDbBlockEnd
  0
BLOCK
  5
1C
330
222
100
AcDbEntity
 67
     1
  8
0
100
AcDbBlockBegin
  2
*Paper_Space
 70
     0
 10
0.0
 20
0.0
 30
0.0
  3
*Paper_Space
  1

  0
ENDBLK
  5
1D
330
222
100
AcDbEntity
 67
     1
  8
0
100
AcDbBlockEnd
  0
BLOCK
  5
26A
330
223
100
AcDbEntity
  8
0
100
AcDbBlockBegin
  2
_CLOSED
 70
     0
 10
0.0
 20
0.0
 30
0.0
  3
_CLOSED
  1

  0
LINE
  5
26B
330
223
100
AcDbEntity
  8
0
  6
ByBlock
 62
     0
100
AcDbLine
 10
0.0
 20
0.0
 30
0.0
 11
-1.0
 21
0.2
 31
0.0
  0
LINE
  5
26C
330
223
100
AcDbEntity
  8
0
  6
ByBlock
 62
     0
100
AcDbLine
 10
-1.0
 20
0.2
 30
0.0
 11
-1.0
 21
-0.2
 31
0.0
  0
LINE
  5
26D
330
223
100
AcDbEntity
  8
0
  6
ByBlock
 62
     0
100
AcDbLine
 10
-1.0
 20
-0.2
 30
0.0
 11
0.0
 21
0.0
 31
0.0
  0
LINE
  5
26E
330
223
100
AcDbEntity
  8
0
  6
ByBlock
 62
     0
100
AcDbLine
 10
-1.0
 20
0.0
 30
0.0
 11
0.0
 21
0.0
 31
0.0
  0
ENDBLK
  5
26F
330
223
100
AcDbEntity
  8
0
  6
ByBlock
 62
     0
100
AcDbBlockEnd
  0
BLOCK
  5
270
330
224
100
AcDbEntity
  8
0
100
AcDbBlockBegin
  2
*D1
 70
     1
 10
0.0
 20
0.0
 30
0.0
  3
*D1
  1

  0
LINE
  5
271
330
224
100
AcDbEntity
  8
0
  6
Continuous
 62
     2
100
AcDbLine
 10
40.7962637607
 20
215.2458331854
 30
0.0
 11
40.7962637607
 21
231.0895189792
 31
0.0
  0
LINE
  5
272
330
224
100
AcDbEntity
  8
0
  6
Continuous
 62
     2
100
AcDbLine
 10
138.3962637607
 20
214.2458331854
 30
0.0
 11
138.3962637607
 21
231.0895189792
 31
0.0
  0
LINE
  5
273
330
224
100
AcDbEntity
  8
0
  6
Continuous
 62
     2
100
AcDbLine
 10
40.7962637607
 20
230.3395189792
 30
0.0
 11
89.5962637607
 21
230.3395189792
 31
0.0
  0
LINE
  5
274
330
224
100
AcDbEntity
  8
0
  6
Continuous
 62
     2
100
AcDbLine
 10
138.3962637607
 20
230.3395189792
 30
0.0
 11
89.5962637607
 21
230.3395189792
 31
0.0
  0
INSERT
  5
275
330
224
100
AcDbEntity
  8
0
  6
Continuous
 62
     2
100
AcDbBlockReference
  2
_CLOSED
 10
40.7962637607
 20
230.3395189792
 30
0.0
 41
2.5
 42
2.5
 43
2.5
 50
180.0
  0
INSERT
  5
276
330
224
100
AcDbEntity
  8
0
  6
Continuous
 62
     2
100
AcDbBlockReference
  2
_CLOSED
 10
138.3962637607
 20
230.3395189792
 30
0.0
 41
2.5
 42
2.5
 43
2.5
  0
ENDBLK
  5
277
330
224
100
AcDbEntity
  8
0
  6
ByBlock
 62
     0
100
AcDbBlockEnd
  0
BLOCK
  5
278
330
225
100
AcDbEntity
  8
0
100
AcDbBlockBegin
  2
*D2
 70
     1
 10
0.0
 20
0.0
 30
0.0
  3
*D2
  1

  0
LINE
  5
279
330
225
100
AcDbEntity
  8
0
  6
Continuous
 62
     2
100
AcDbLine
 10
216.7685181618
 20
218.2958331854
 30
0.0
 11
229.233075099
 21
218.2958331854
 31
0.0
  0
LINE
  5
27A
330
225
100
AcDbEntity
  8
0
  6
Continuous
 62
     2
100
AcDbLine
 10
216.7685181618
 20
206.6958331854
 30
0.0
 11
229.233075099
 21
206.6958331854
 31
0.0
  0
LINE
  5
27B
330
225
100
AcDbEntity
  8
0
  6
Continuous
 62
     2
100
AcDbLine
 10
228.483075099
 20
218.2958331854
 30
0.0
 11
228.483075099
 21
212.4958331854
 31
0.0
  0
LINE
  5
27C
330
225
100
AcDbEntity
  8
0
  6
Continuous
 62
     2
100
AcDbLine
 10
228.483075099
 20
206.6958331854
 30
0.0
 11
228.483075099
 21
212.4958331854
 31
0.0
  0
INSERT
  5
27D
330
225
100
AcDbEntity
  8
0
  6
Continuous
 62
     2
100
AcDbBlockReference
  2
_CLOSED
 10
228.483075099
 20
218.2958331854
 30
0.0
 41
2.5
 42
2.5
 43
2.5
 50
90.0
  0
INSERT
  5
27E
330
225
100
AcDbEntity
  8
0
  6
Continuous
 62
     2
100
AcDbBlockReference
  2
_CLOSED
 10
228.483075099
 20
206.6958331854
 30
0.0
 41
2.5
 42
2.5
 43
2.5
 50
270.0
  0
ENDBLK
  5
27F
330
225
100
AcDbEntity
  8
0
  6
ByBlock
 62
     0
100
AcDbBlockEnd
  0
BLOCK
  5
280
330
226
100
AcDbEntity
  8
0
100
AcDbBlockBegin
  2
*D3
 70
     1
 10
0.0
 20
0.0
 30
0.0
  3
*D3
  1

  0
LINE
  5
281
330
226
100
AcDbEntity
  8
0
  6
Continuous
 62
     2
100
AcDbLine
 10
30.7962637607
 20
97.1488363229
 30
0.0
 11
30.7962637607
 21
109.4062871867
 31
0.0
  0
LINE
  5
282
330
226
100
AcDbEntity
  8
0
  6
Continuous
 62
     2
100
AcDbLine
 10
148.3962637607
 20
97.1488363229
 30
0.0
 11
148.3962637607
 21
109.4062871867
 31
0.0
  0
LINE
  5
283
330
226
100
AcDbEntity
  8
0
  6
Continuous
 62
     2
100
AcDbLine
 10
30.7962637607
 20
108.6562871867
 30
0.0
 11
89.5962637607
 21
108.6562871867
 31
0.0
  0
LINE
  5
284
330
226
100
AcDbEntity
  8
0
  6
Continuous
 62
     2
100
AcDbLine
 10
148.3962637607
 20
108.6562871867
 30
0.0
 11
89.5962637607
 21
108.6562871867
 31
0.0
  0
INSERT
  5
285
330
226
100
AcDbEntity
  8
0
  6
Continuous
 62
     2
100
AcDbBlockReference
  2
_CLOSED
 10
30.7962637607
 20
108.6562871867
 30
0.0
 41
2.5
 42
2.5
 43
2.5
 50
180.0
  0
INSERT
  5
286
330
226
100
AcDbEntity
  8
0
  6
Continuous
 62
     2
100
AcDbBlockReference
  2
_CLOSED
 10
148.3962637607
 20
108.6562871867
 30
0.0
 41
2.5
 42
2.5
 43
2.5
  0
ENDBLK
  5
287
330
226
100
AcDbEntity
  8
0
  6
ByBlock
 62
     0
100
AcDbBlockEnd
  0
BLOCK
  5
288
330
227
100
AcDbEntity
  8
0
100
AcDbBlockBegin
  2
*D4
 70
     1
 10
0.0
 20
0.0
 30
0.0
  3
*D4
  1

  0
LINE
  5
289
330
227
100
AcDbEntity
  8
0
  6
Continuous
 62
     2
100
AcDbLine
 10
150.4383238437
 20
94.8452650036
 30
0.0
 11
161.6899354262
 21
94.8452650036
 31
0.0
  0
LINE
  5
28A
330
227
100
AcDbEntity
  8
0
  6
Continuous
 62
     2
100
AcDbLine
 10
150.9095965709
 20
63.0452650036
 30
0.0
 11
161.6899354262
 21
63.0452650036
 31
0.0
  0
LINE
  5
28B
330
227
100
AcDbEntity
  8
0
  6
Continuous
 62
     2
100
AcDbLine
 10
160.9399354262
 20
94.8452650036
 30
0.0
 11
160.9399354262
 21
78.9452650036
 31
0.0
  0
LINE
  5
28C
330
227
100
AcDbEntity
  8
0
  6
Continuous
 62
     2
100
AcDbLine
 10
160.9399354262
 20
63.0452650036
 30
0.0
 11
160.9399354262
 21
78.9452650036
 31
0.0
  0
INSERT
  5
28D
330
227
100
AcDbEntity
  8
0
  6
Continuous
 62
     2
100
AcDbBlockReference
  2
_CLOSED
 10
160.9399354262
 20
94.8452650036
 30
0.0
 41
2.5
 42
2.5
 43
2.5
 50
90.0
  0
INSERT
  5
28E
330
227
100
AcDbEntity
  8
0
  6
Continuous
 62
     2
100
AcDbBlockReference
  2
_CLOSED
 10
160.9399354262
 20
63.0452650036
 30
0.0
 41
2.5
 42
2.5
 43
2.5
 50
270.0
  0
ENDBLK
  5
28F
330
227
100
AcDbEntity
  8
0
  6
ByBlock
 62
     0
100
AcDbBlockEnd
  0
BLOCK
  5
22E
330
228
100
AcDbEntity
  8
0
100
AcDbBlockBegin
  2
LOGO2_BL0
 70
     0
 10
333.1473869546
 20
37.5239270671
 30
0.0
  3
LOGO2_BL0
  1

  0
LINE
  5
22F
330
228
100
AcDbEntity
  8
0
  6
Continuous
 62
     7
100
AcDbLine
 10
324.8903121828
 20
40.7194184059
 30
0.0
 11
323.5859712535
 21
40.7194184059
 31
0.0
  0
LINE
  5
230
330
228
100
AcDbEntity
  8
0
  6
Continuous
 62
     7
100
AcDbLine
 10
323.5859712535
 20
40.7194184059
 30
0.0
 11
323.5859712535
 21
30.260352346
 31
0.0
  0
LINE
  5
231
330
228
100
AcDbEntity
  8
0
  6
Continuous
 62
     7
100
AcDbLine
 10
323.5859712535
 20
30.260352346
 30
0.0
 11
328.0670261417
 21
30.260352346
 31
0.0
  0
LINE
  5
232
330
228
100
AcDbEntity
  8
0
  6
Continuous
 62
     7
100
AcDbLine
 10
328.0670261417
 20
30.260352346
 30
0.0
 11
328.0670261417
 21
31.4532066711
 31
0.0
  0
LINE
  5
233
330
228
100
AcDbEntity
  8
0
  6
Continuous
 62
     7
100
AcDbLine
 10
328.0670261417
 20
31.4532066711
 30
0.0
 11
324.8903121828
 21
31.4532066711
 31
0.0
  0
LINE
  5
234
330
228
100
AcDbEntity
  8
0
  6
Continuous
 62
     7
100
AcDbLine
 10
324.8903121828
 20
31.4532066711
 30
0.0
 11
324.8903121828
 21
40.7194184059
 31
0.0
  0
LINE
  5
235
330
228
100
AcDbEntity
  8
0
  6
Continuous
 62
     7
100
AcDbLine
 10
339.8266383991
 20
40.7194184059
 30
0.0
 11
338.522820881
 21
40.7194184059
 31
0.0
  0
LINE
  5
236
330
228
100
AcDbEntity
  8
0
  6
Continuous
 62
     7
100
AcDbLine
 10
338.522820881
 20
40.7194184059
 30
0.0
 11
338.522820881
 21
30.260352346
 31
0.0
  0
LINE
  5
237
330
228
100
AcDbEntity
  8
0
  6
Continuous
 62
     7
100
AcDbLine
 10
338.522820881
 20
30.260352346
 30
0.0
 11
343.0040066221
 21
30.260352346
 31
0.0
  0
LINE
  5
238
330
228
100
AcDbEntity
  8
0
  6
Continuous
 62
     7
100
AcDbLine
 10
343.0040066221
 20
30.260352346
 30
0.0
 11
343.0040066221
 21
31.4532066711
 31
0.0
  0
LINE
  5
239
330
228
100
AcDbEntity
  8
0
  6
Continuous
 62
     7
100
AcDbLine
 10
343.0040066221
 20
31.4532066711
 30
0.0
 11
339.8266383991
 21
31.4532066711
 31
0.0
  0
LINE
  5
23A
330
228
100
AcDbEntity
  8
0
  6
Continuous
 62
     7
100
AcDbLine
 10
339.8266383991
 20
31.4532066711
 30
0.0
 11
339.8266383991
 21
40.7194184059
 31
0.0
  0
LWPOLYLINE
  5
23B
330
228
100
AcDbEntity
  8
0
  6
Continuous
 62
     7
100
AcDbPolyline
 90
        2
 70
     0
 43
0.2
 10
321.9403661644
 20
26.9168010391
 10
321.9403661644
 20
25.0597377898
  0
LWPOLYLINE
  5
23C
330
228
100
AcDbEntity
  8
0
  6
Continuous
 62
     7
100
AcDbPolyline
 90
        2
 70
     0
 43
0.2
 10
321.9403661644
 20
25.0597377898
 10
322.7360821748
 20
25.0597377898
  0
LWPOLYLINE
  5
23D
330
228
100
AcDbEntity
  8
0
  6
Continuous
 62
     7
100
AcDbPolyline
 90
        2
 70
     0
 43
0.2
 10
322.7360821748
 20
25.0597377898
 10
322.7360821748
 20
25.2717193614
  0
LWPOLYLINE
  5
23E
330
228
100
AcDbEntity
  8
0
  6
Continuous
 62
     7
100
AcDbPolyline
 90
        2
 70
     0
 43
0.2
 10
322.7360821748
 20
25.2717193614
 10
322.1719756593
 20
25.2717193614
  0
LWPOLYLINE
  5
23F
330
228
100
AcDbEntity
  8
0
  6
Continuous
 62
     7
100
AcDbPolyline
 90
        2
 70
     0
 43
0.2
 10
322.1719756593
 20
25.2717193614
 10
322.1719756593
 20
26.9168010391
  0
LWPOLYLINE
  5
240
330
228
100
AcDbEntity
  8
0
  6
Continuous
 62
     7
100
AcDbPolyline
 90
        2
 70
     0
 43
0.2
 10
322.1719756593
 20
26.9168010391
 10
321.9403661644
 20
26.9168010391
  0
SPLINE
  5
241
330
228
100
AcDbEntity
  8
0
  6
Continuous
 62
     7
100
AcDbSpline
 70
     3
 71
     3
 72
    35
 73
    31
 74
     0
 42
0.000000001
 43
0.0000001
 40
0.0
 40
0.0
 40
0.0
 40
0.0
 40
1.0
 40
1.0
 40
1.0
 40
2.0
 40
2.0
 40
2.0
 40
3.0
 40
3.0
 40
3.0
 40
4.0
 40
4.0
 40
4.0
 40
5.0
 40
5.0
 40
5.0
 40
6.0
 40
6.0
 40
6.0
 40
7.0
 40
7.0
 40
7.0
 40
8.0
 40
8.0
 40
8.0
 40
9.0
 40
9.0
 40
9.0
 40
10.0
 40
10.0
 40
10.0
 40
10.0
 10
324.1343754303
 20
26.2122894457
 30
0.0
 10
324.1343754303
 20
26.2122894457
 30
0.0
 10
324.1343754303
 20
25.5501741665
 30
0.0
 10
324.1343754303
 20
25.5501741665
 30
0.0
 10
324.1343754303
 20
25.2350805712
 30
0.0
 10
324.2822391191
 20
25.0204819432
 30
0.0
 10
324.6223256034
 20
25.0204819432
 30
0.0
 10
324.9618886764
 20
25.0204819432
 30
0.0
 10
325.1100140709
 20
25.2350805712
 30
0.0
 10
325.1100140709
 20
25.5501741665
 30
0.0
 10
325.1100140709
 20
25.5501741665
 30
0.0
 10
325.1100140709
 20
26.2122894457
 30
0.0
 10
325.1100140709
 20
26.2122894457
 30
0.0
 10
325.1100140709
 20
26.2122894457
 30
0.0
 10
324.887956832
 20
26.2122894457
 30
0.0
 10
324.887956832
 20
26.2122894457
 30
0.0
 10
324.887956832
 20
26.2122894457
 30
0.0
 10
324.887956832
 20
25.5752979083
 30
0.0
 10
324.887956832
 20
25.5752979083
 30
0.0
 10
324.887956832
 20
25.3894869011
 30
0.0
 10
324.8412423746
 20
25.2267059906
 30
0.0
 10
324.6223256034
 20
25.2267059906
 30
0.0
 10
324.402885421
 20
25.2267059906
 30
0.0
 10
324.3561709636
 20
25.3894869011
 30
0.0
 10
324.3561709636
 20
25.5752979083
 30
0.0
 10
324.3561709636
 20
25.5752979083
 30
0.0
 10
324.3561709636
 20
26.2122894457
 30
0.0
 10
324.3561709636
 20
26.2122894457
 30
0.0
 10
324.3561709636
 20
26.2122894457
 30
0.0
 10
324.1343754303
 20
26.2122894457
 30
0.0
 10
324.1343754303
 20
26.2122894457
 30
0.0
  0
SPLINE
  5
242
330
228
100
AcDbEntity
  8
0
  6
Continuous
 62
     7
100
AcDbSpline
 70
     3
 71
     3
 72
    35
 73
    31
 74
     0
 42
0.000000001
 43
0.0000001
 40
0.0
 40
0.0
 40
0.0
 40
0.0
 40
1.0
 40
1.0
 40
1.0
 40
2.0
 40
2.0
 40
2.0
 40
3.0
 40
3.0
 40
3.0
 40
4.0
 40
4.0
 40
4.0
 40
5.0
 40
5.0
 40
5.0
 40
6.0
 40
6.0
 40
6.0
 40
7.0
 40
7.0
 40
7.0
 40
8.0
 40
8.0
 40
8.0
 40
9.0
 40
9.0
 40
9.0
 40
10.0
 40
10.0
 40
10.0
 40
10.0
 10
327.5331466281
 20
26.1709399539
 30
0.0
 10
327.4446901205
 20
26.2222342601
 30
0.0
 10
327.3312407238
 20
26.2473580019
 30
0.0
 10
327.2276052888
 20
26.2473580019
 30
0.0
 10
326.8727324356
 20
26.2473580019
 30
0.0
 10
326.5972872454
 20
25.9835587129
 30
0.0
 10
326.5972872454
 20
25.6260688032
 30
0.0
 10
326.5972872454
 20
25.2811407645
 30
0.0
 10
326.8757420505
 20
25.0210053545
 30
0.0
 10
327.2153051235
 20
25.0210053545
 30
0.0
 10
327.3312407238
 20
25.0210053545
 30
0.0
 10
327.4319973967
 20
25.0429886286
 30
0.0
 10
327.5331466281
 20
25.0968999912
 30
0.0
 10
327.5331466281
 20
25.0968999912
 30
0.0
 10
327.5331466281
 20
25.3795420867
 30
0.0
 10
327.5331466281
 20
25.3795420867
 30
0.0
 10
327.4492699692
 20
25.2863748774
 30
0.0
 10
327.345765387
 20
25.2272294019
 30
0.0
 10
327.2176604743
 20
25.2272294019
 30
0.0
 10
326.9839573343
 20
25.2272294019
 30
0.0
 10
326.8186902202
 20
25.3994317156
 30
0.0
 10
326.8186902202
 20
25.6360136177
 30
0.0
 10
326.8186902202
 20
25.8479951893
 30
0.0
 10
326.9864435379
 20
26.040087132
 30
0.0
 10
327.2032666639
 20
26.040087132
 30
0.0
 10
327.3360822782
 20
26.040087132
 30
0.0
 10
327.4446901205
 20
25.9861757693
 30
0.0
 10
327.5331466281
 20
25.8851573907
 30
0.0
 10
327.5331466281
 20
25.8851573907
 30
0.0
 10
327.5331466281
 20
26.1709399539
 30
0.0
 10
327.5331466281
 20
26.1709399539
 30
0.0
  0
SPLINE
  5
243
330
228
100
AcDbEntity
  8
0
  6
Continuous
 62
     7
100
AcDbSpline
 70
     3
 71
     3
 72
    32
 73
    28
 74
     0
 42
0.000000001
 43
0.0000001
 40
0.0
 40
0.0
 40
0.0
 40
0.0
 40
1.0
 40
1.0
 40
1.0
 40
2.0
 40
2.0
 40
2.0
 40
3.0
 40
3.0
 40
3.0
 40
4.0
 40
4.0
 40
4.0
 40
5.0
 40
5.0
 40
5.0
 40
6.0
 40
6.0
 40
6.0
 40
7.0
 40
7.0
 40
7.0
 40
8.0
 40
8.0
 40
8.0
 40
9.0
 40
9.0
 40
9.0
 40
9.0
 10
330.0650178804
 20
25.5993748276
 30
0.0
 10
330.0650178804
 20
25.5993748276
 30
0.0
 10
330.0650178804
 20
25.6333965613
 30
0.0
 10
330.0650178804
 20
25.6333965613
 30
0.0
 10
330.0650178804
 20
25.9757075435
 30
0.0
 10
329.8921613025
 20
26.2473580019
 30
0.0
 10
329.5255116954
 20
26.2473580019
 30
0.0
 10
329.153889681
 20
26.2473580019
 30
0.0
 10
328.9641530891
 20
25.9809416564
 30
0.0
 10
328.9641530891
 20
25.6260688032
 30
0.0
 10
328.9641530891
 20
25.2863748774
 30
0.0
 10
329.1782283059
 20
25.0204819432
 30
0.0
 10
329.5303532498
 20
25.0204819432
 30
0.0
 10
329.754373281
 20
25.0204819432
 30
0.0
 10
329.9565408909
 20
25.1361558378
 30
0.0
 10
330.0650178804
 20
25.3355755385
 30
0.0
 10
330.0650178804
 20
25.3355755385
 30
0.0
 10
329.8773749337
 20
25.4423514412
 30
0.0
 10
329.8773749337
 20
25.4423514412
 30
0.0
 10
329.7938908332
 20
25.3036474499
 30
0.0
 10
329.7026864163
 20
25.2178079987
 30
0.0
 10
329.5331011591
 20
25.2178079987
 30
0.0
 10
329.3211195875
 20
25.2178079987
 30
0.0
 10
329.1881731204
 20
25.4025721833
 30
0.0
 10
329.1858177696
 20
25.5993748276
 30
0.0
 10
329.1858177696
 20
25.5993748276
 30
0.0
 10
330.0650178804
 20
25.5993748276
 30
0.0
 10
330.0650178804
 20
25.5993748276
 30
0.0
  0
SPLINE
  5
244
330
228
100
AcDbEntity
  8
0
  6
Continuous
 62
     7
100
AcDbSpline
 70
     3
 71
     3
 72
    14
 73
    10
 74
     0
 42
0.000000001
 43
0.0000001
 40
0.0
 40
0.0
 40
0.0
 40
0.0
 40
1.0
 40
1.0
 40
1.0
 40
2.0
 40
2.0
 40
2.0
 40
3.0
 40
3.0
 40
3.0
 40
3.0
 10
329.1978562292
 20
25.7668664397
 30
0.0
 10
329.2254661746
 20
25.9317409954
 30
0.0
 10
329.3533093817
 20
26.054742648
 30
0.0
 10
329.5255116954
 20
26.054742648
 30
0.0
 10
329.7026864163
 20
26.054742648
 30
0.0
 10
329.816135813
 20
25.9390687534
 30
0.0
 10
329.8433531999
 20
25.7668664397
 30
0.0
 10
329.8433531999
 20
25.7668664397
 30
0.0
 10
329.1978562292
 20
25.7668664397
 30
0.0
 10
329.1978562292
 20
25.7668664397
 30
0.0
  0
SPLINE
  5
245
330
228
100
AcDbEntity
  8
0
  6
Continuous
 62
     7
100
AcDbSpline
 70
     3
 71
     3
 72
    20
 73
    16
 74
     0
 42
0.000000001
 43
0.0000001
 40
0.0
 40
0.0
 40
0.0
 40
0.0
 40
1.0
 40
1.0
 40
1.0
 40
2.0
 40
2.0
 40
2.0
 40
3.0
 40
3.0
 40
3.0
 40
4.0
 40
4.0
 40
4.0
 40
5.0
 40
5.0
 40
5.0
 40
5.0
 10
332.0890493306
 20
25.9762309548
 30
0.0
 10
332.0890493306
 20
25.9762309548
 30
0.0
 10
332.5001888972
 20
25.4737561185
 30
0.0
 10
332.5001888972
 20
25.4737561185
 30
0.0
 10
332.3841224441
 20
25.3580822239
 30
0.0
 10
332.2463344226
 20
25.2277528132
 30
0.0
 10
332.0743938145
 20
25.2277528132
 30
0.0
 10
331.8969573879
 20
25.2277528132
 30
0.0
 10
331.7294657758
 20
25.3921039576
 30
0.0
 10
331.7294657758
 20
25.5690169729
 30
0.0
 10
331.7294657758
 20
25.7469768107
 30
0.0
 10
331.9392228494
 20
25.8731189311
 30
0.0
 10
332.0668043508
 20
25.9610520275
 30
0.0
 10
332.0668043508
 20
25.9610520275
 30
0.0
 10
332.0890493306
 20
25.9762309548
 30
0.0
 10
332.0890493306
 20
25.9762309548
 30
0.0
  0
SPLINE
  5
246
330
228
100
AcDbEntity
  8
0
  6
Continuous
 62
     7
100
AcDbSpline
 70
     3
 71
     3
 72
    23
 73
    19
 74
     0
 42
0.000000001
 43
0.0000001
 40
0.0
 40
0.0
 40
0.0
 40
0.0
 40
1.0
 40
1.0
 40
1.0
 40
2.0
 40
2.0
 40
2.0
 40
3.0
 40
3.0
 40
3.0
 40
4.0
 40
4.0
 40
4.0
 40
5.0
 40
5.0
 40
5.0
 40
6.0
 40
6.0
 40
6.0
 40
6.0
 10
332.1383808444
 20
26.2672476309
 30
0.0
 10
332.1383808444
 20
26.2672476309
 30
0.0
 10
332.0767491653
 20
26.3457593241
 30
0.0
 10
332.0767491653
 20
26.3457593241
 30
0.0
 10
332.0228378026
 20
26.4143262028
 30
0.0
 10
331.9660476779
 20
26.4834164928
 30
0.0
 10
331.9660476779
 20
26.5771071133
 30
0.0
 10
331.9660476779
 20
26.6959214757
 30
0.0
 10
332.0619627964
 20
26.7733863463
 30
0.0
 10
332.1729259894
 20
26.7733863463
 30
0.0
 10
332.2961893477
 20
26.7733863463
 30
0.0
 10
332.3894874098
 20
26.7022024111
 30
0.0
 10
332.3894874098
 20
26.5718730004
 30
0.0
 10
332.3894874098
 20
26.4368328882
 30
0.0
 10
332.2613824971
 20
26.3604148401
 30
0.0
 10
332.1678227294
 20
26.2866138485
 30
0.0
 10
332.1678227294
 20
26.2866138485
 30
0.0
 10
332.1383808444
 20
26.2672476309
 30
0.0
 10
332.1383808444
 20
26.2672476309
 30
0.0
  0
SPLINE
  5
247
330
228
100
AcDbEntity
  8
0
  6
Continuous
 62
     7
100
AcDbSpline
 70
     3
 71
     3
 72
    50
 73
    46
 74
     0
 42
0.000000001
 43
0.0000001
 40
0.0
 40
0.0
 40
0.0
 40
0.0
 40
1.0
 40
1.0
 40
1.0
 40
2.0
 40
2.0
 40
2.0
 40
3.0
 40
3.0
 40
3.0
 40
4.0
 40
4.0
 40
4.0
 40
5.0
 40
5.0
 40
5.0
 40
6.0
 40
6.0
 40
6.0
 40
7.0
 40
7.0
 40
7.0
 40
8.0
 40
8.0
 40
8.0
 40
9.0
 40
9.0
 40
9.0
 40
10.0
 40
10.0
 40
10.0
 40
11.0
 40
11.0
 40
11.0
 40
12.0
 40
12.0
 40
12.0
 40
13.0
 40
13.0
 40
13.0
 40
14.0
 40
14.0
 40
14.0
 40
15.0
 40
15.0
 40
15.0
 40
15.0
 10
332.8405370871
 20
25.0602612011
 30
0.0
 10
332.8405370871
 20
25.0602612011
 30
0.0
 10
333.1259270918
 20
25.0602612011
 30
0.0
 10
333.1259270918
 20
25.0602612011
 30
0.0
 10
333.1259270918
 20
25.0602612011
 30
0.0
 10
332.793560924
 20
25.471139062
 30
0.0
 10
332.793560924
 20
25.471139062
 30
0.0
 10
332.793560924
 20
25.471139062
 30
0.0
 10
333.0200671588
 20
25.7370319963
 30
0.0
 10
333.0200671588
 20
25.7370319963
 30
0.0
 10
333.0200671588
 20
25.7370319963
 30
0.0
 10
332.8718109116
 20
25.8898680923
 30
0.0
 10
332.8718109116
 20
25.8898680923
 30
0.0
 10
332.8718109116
 20
25.8898680923
 30
0.0
 10
332.6559037553
 20
25.6386306742
 30
0.0
 10
332.6559037553
 20
25.6386306742
 30
0.0
 10
332.6559037553
 20
25.6386306742
 30
0.0
 10
332.2688411079
 20
26.1065603655
 30
0.0
 10
332.2688411079
 20
26.1065603655
 30
0.0
 10
332.4242942604
 20
26.2206640263
 30
0.0
 10
332.6065722414
 20
26.3604148401
 30
0.0
 10
332.6065722414
 20
26.5697793553
 30
0.0
 10
332.6065722414
 20
26.8136890154
 30
0.0
 10
332.4045354843
 20
26.9571037083
 30
0.0
 10
332.1780292495
 20
26.9571037083
 30
0.0
 10
331.9338578837
 20
26.9571037083
 30
0.0
 10
331.7494862575
 20
26.8063612574
 30
0.0
 10
331.7494862575
 20
26.5498897263
 30
0.0
 10
331.7494862575
 20
26.3923429287
 30
0.0
 10
331.8481492853
 20
26.25468576
 30
0.0
 10
331.953485807
 20
26.1437225669
 30
0.0
 10
331.953485807
 20
26.1437225669
 30
0.0
 10
331.8379427652
 20
26.0599767609
 30
0.0
 10
331.8379427652
 20
26.0599767609
 30
0.0
 10
331.660244633
 20
25.9317409954
 30
0.0
 10
331.5129043554
 20
25.8040286411
 30
0.0
 10
331.5129043554
 20
25.5669233277
 30
0.0
 10
331.5129043554
 20
25.2465956195
 30
0.0
 10
331.7714695316
 20
25.0204819432
 30
0.0
 10
332.0818524253
 20
25.0204819432
 30
0.0
 10
332.3007691965
 20
25.0204819432
 30
0.0
 10
332.4979643992
 20
25.145577241
 30
0.0
 10
332.6382386243
 20
25.3114986192
 30
0.0
 10
332.6382386243
 20
25.3114986192
 30
0.0
 10
332.8405370871
 20
25.0602612011
 30
0.0
 10
332.8405370871
 20
25.0602612011
 30
0.0
  0
LWPOLYLINE
  5
248
330
228
100
AcDbEntity
  8
0
  6
Continuous
 62
     7
100
AcDbPolyline
 90
        2
 70
     0
 43
0.2
 10
334.7759811768
 20
26.9168010391
 10
334.5446333876
 20
26.9168010391
  0
LWPOLYLINE
  5
249
330
228
100
AcDbEntity
  8
0
  6
Continuous
 62
     7
100
AcDbPolyline
 90
        2
 70
     0
 43
0.2
 10
334.5446333876
 20
26.9168010391
 10
334.5446333876
 20
25.0597377898
  0
LWPOLYLINE
  5
24A
330
228
100
AcDbEntity
  8
0
  6
Continuous
 62
     7
100
AcDbPolyline
 90
        2
 70
     0
 43
0.2
 10
334.5446333876
 20
25.0597377898
 10
335.3399568395
 20
25.0597377898
  0
LWPOLYLINE
  5
24B
330
228
100
AcDbEntity
  8
0
  6
Continuous
 62
     7
100
AcDbPolyline
 90
        2
 70
     0
 43
0.2
 10
335.3399568395
 20
25.0597377898
 10
335.3399568395
 20
25.2717193614
  0
LWPOLYLINE
  5
24C
330
228
100
AcDbEntity
  8
0
  6
Continuous
 62
     7
100
AcDbPolyline
 90
        2
 70
     0
 43
0.2
 10
335.3399568395
 20
25.2717193614
 10
334.7759811768
 20
25.2717193614
  0
LWPOLYLINE
  5
24D
330
228
100
AcDbEntity
  8
0
  6
Continuous
 62
     7
100
AcDbPolyline
 90
        2
 70
     0
 43
0.2
 10
334.7759811768
 20
25.2717193614
 10
334.7759811768
 20
26.9168010391
  0
LWPOLYLINE
  5
24E
330
228
100
AcDbEntity
  8
0
  6
Continuous
 62
     7
100
AcDbPolyline
 90
        2
 70
     0
 43
0.2
 10
337.019060251
 20
26.2122894457
 10
336.7979189819
 20
26.2122894457
  0
LWPOLYLINE
  5
24F
330
228
100
AcDbEntity
  8
0
  6
Continuous
 62
     7
100
AcDbPolyline
 90
        2
 70
     0
 43
0.2
 10
336.7979189819
 20
26.2122894457
 10
336.7979189819
 20
25.0602612011
  0
LWPOLYLINE
  5
250
330
228
100
AcDbEntity
  8
0
  6
Continuous
 62
     7
100
AcDbPolyline
 90
        2
 70
     0
 43
0.2
 10
336.7979189819
 20
25.0602612011
 10
337.019060251
 20
25.0602612011
  0
LWPOLYLINE
  5
251
330
228
100
AcDbEntity
  8
0
  6
Continuous
 62
     7
100
AcDbPolyline
 90
        2
 70
     0
 43
0.2
 10
337.019060251
 20
25.0602612011
 10
337.019060251
 20
26.2122894457
  0
SPLINE
  5
252
330
228
100
AcDbEntity
  8
0
  6
Continuous
 62
     7
100
AcDbSpline
 70
     3
 71
     3
 72
    17
 73
    13
 74
     0
 42
0.000000001
 43
0.0000001
 40
0.0
 40
0.0
 40
0.0
 40
0.0
 40
1.0
 40
1.0
 40
1.0
 40
2.0
 40
2.0
 40
2.0
 40
3.0
 40
3.0
 40
3.0
 40
4.0
 40
4.0
 40
4.0
 40
4.0
 10
336.9086204693
 20
26.894817765
 30
0.0
 10
336.8246129576
 20
26.894817765
 30
0.0
 10
336.7560460788
 20
26.825727475
 30
0.0
 10
336.7560460788
 20
26.7398880238
 30
0.0
 10
336.7560460788
 20
26.6556188065
 30
0.0
 10
336.8246129576
 20
26.5896689842
 30
0.0
 10
336.9086204693
 20
26.5896689842
 30
0.0
 10
336.9923662753
 20
26.5896689842
 30
0.0
 10
337.0611948597
 20
26.6556188065
 30
0.0
 10
337.0611948597
 20
26.7398880238
 30
0.0
 10
337.0611948597
 20
26.825727475
 30
0.0
 10
336.9923662753
 20
26.894817765
 30
0.0
 10
336.9086204693
 20
26.894817765
 30
0.0
  0
SPLINE
  5
253
330
228
100
AcDbEntity
  8
0
  6
Continuous
 62
     7
100
AcDbSpline
 70
     3
 71
     3
 72
    17
 73
    13
 74
     0
 42
0.000000001
 43
0.0000001
 40
0.0
 40
0.0
 40
0.0
 40
0.0
 40
1.0
 40
1.0
 40
1.0
 40
2.0
 40
2.0
 40
2.0
 40
3.0
 40
3.0
 40
3.0
 40
4.0
 40
4.0
 40
4.0
 40
4.0
 10
339.1493441926
 20
25.2178079987
 30
0.0
 10
338.915379347
 20
25.2178079987
 30
0.0
 10
338.7850499363
 20
25.4198447558
 30
0.0
 10
338.7850499363
 20
25.6360136177
 30
0.0
 10
338.7850499363
 20
25.8506122457
 30
0.0
 10
338.9208751655
 20
26.0495085351
 30
0.0
 10
339.1493441926
 20
26.0495085351
 30
0.0
 10
339.3888048568
 20
26.0495085351
 30
0.0
 10
339.5243683804
 20
25.8605570602
 30
0.0
 10
339.5243683804
 20
25.6360136177
 30
0.0
 10
339.5243683804
 20
25.4098999414
 30
0.0
 10
339.3911602076
 20
25.2178079987
 30
0.0
 10
339.1493441926
 20
25.2178079987
 30
0.0
  0
SPLINE
  5
254
330
228
100
AcDbEntity
  8
0
  6
Continuous
 62
     7
100
AcDbSpline
 70
     3
 71
     3
 72
    50
 73
    46
 74
     0
 42
0.000000001
 43
0.0000001
 40
0.0
 40
0.0
 40
0.0
 40
0.0
 40
1.0
 40
1.0
 40
1.0
 40
2.0
 40
2.0
 40
2.0
 40
3.0
 40
3.0
 40
3.0
 40
4.0
 40
4.0
 40
4.0
 40
5.0
 40
5.0
 40
5.0
 40
6.0
 40
6.0
 40
6.0
 40
7.0
 40
7.0
 40
7.0
 40
8.0
 40
8.0
 40
8.0
 40
9.0
 40
9.0
 40
9.0
 40
10.0
 40
10.0
 40
10.0
 40
11.0
 40
11.0
 40
11.0
 40
12.0
 40
12.0
 40
12.0
 40
13.0
 40
13.0
 40
13.0
 40
14.0
 40
14.0
 40
14.0
 40
15.0
 40
15.0
 40
15.0
 40
15.0
 10
339.7334711899
 20
26.2128128569
 30
0.0
 10
339.7334711899
 20
26.2128128569
 30
0.0
 10
339.5118065095
 20
26.2128128569
 30
0.0
 10
339.5118065095
 20
26.2128128569
 30
0.0
 10
339.5118065095
 20
26.2128128569
 30
0.0
 10
339.5118065095
 20
26.0154868014
 30
0.0
 10
339.5118065095
 20
26.0154868014
 30
0.0
 10
339.5118065095
 20
26.0154868014
 30
0.0
 10
339.5070958079
 20
26.0154868014
 30
0.0
 10
339.5070958079
 20
26.0154868014
 30
0.0
 10
339.4157605382
 20
26.158378083
 30
0.0
 10
339.2778416638
 20
26.2468345907
 30
0.0
 10
339.1051159388
 20
26.2468345907
 30
0.0
 10
338.772749771
 20
26.2468345907
 30
0.0
 10
338.5636469615
 20
25.9589583823
 30
0.0
 10
338.5636469615
 20
25.6433413757
 30
0.0
 10
338.5636469615
 20
25.3135922644
 30
0.0
 10
338.7607113114
 20
25.0204819432
 30
0.0
 10
339.1155841646
 20
25.0204819432
 30
0.0
 10
339.2778416638
 20
25.0204819432
 30
0.0
 10
339.4178541833
 20
25.1089384508
 30
0.0
 10
339.5070958079
 20
25.2397912728
 30
0.0
 10
339.5070958079
 20
25.2397912728
 30
0.0
 10
339.5118065095
 20
25.2397912728
 30
0.0
 10
339.5118065095
 20
25.2397912728
 30
0.0
 10
339.5118065095
 20
25.2397912728
 30
0.0
 10
339.5118065095
 20
25.0204819432
 30
0.0
 10
339.5118065095
 20
25.0204819432
 30
0.0
 10
339.5118065095
 20
24.7839000411
 30
0.0
 10
339.4552780904
 20
24.5970422113
 30
0.0
 10
339.1820573981
 20
24.5970422113
 30
0.0
 10
338.9797589354
 20
24.5970422113
 30
0.0
 10
338.8371293594
 20
24.7153331624
 30
0.0
 10
338.8371293594
 20
24.9215572098
 30
0.0
 10
338.8371293594
 20
24.9215572098
 30
0.0
 10
338.615464679
 20
24.9215572098
 30
0.0
 10
338.615464679
 20
24.9215572098
 30
0.0
 10
338.6204370862
 20
24.5970422113
 30
0.0
 10
338.8515231698
 20
24.4002395671
 30
0.0
 10
339.171850878
 20
24.4002395671
 30
0.0
 10
339.6198909404
 20
24.4002395671
 30
0.0
 10
339.7334711899
 20
24.6854987189
 30
0.0
 10
339.7334711899
 20
25.0822444751
 30
0.0
 10
339.7334711899
 20
25.0822444751
 30
0.0
 10
339.7334711899
 20
26.2128128569
 30
0.0
 10
339.7334711899
 20
26.2128128569
 30
0.0
  0
SPLINE
  5
255
330
228
100
AcDbEntity
  8
0
  6
Continuous
 62
     7
100
AcDbSpline
 70
     3
 71
     3
 72
    44
 73
    40
 74
     0
 42
0.000000001
 43
0.0000001
 40
0.0
 40
0.0
 40
0.0
 40
0.0
 40
1.0
 40
1.0
 40
1.0
 40
2.0
 40
2.0
 40
2.0
 40
3.0
 40
3.0
 40
3.0
 40
4.0
 40
4.0
 40
4.0
 40
5.0
 40
5.0
 40
5.0
 40
6.0
 40
6.0
 40
6.0
 40
7.0
 40
7.0
 40
7.0
 40
8.0
 40
8.0
 40
8.0
 40
9.0
 40
9.0
 40
9.0
 40
10.0
 40
10.0
 40
10.0
 40
11.0
 40
11.0
 40
11.0
 40
12.0
 40
12.0
 40
12.0
 40
13.0
 40
13.0
 40
13.0
 40
13.0
 10
341.3023965253
 20
27.1978729007
 30
0.0
 10
341.3023965253
 20
27.1978729007
 30
0.0
 10
341.3023965253
 20
25.0597377898
 30
0.0
 10
341.3023965253
 20
25.0597377898
 30
0.0
 10
341.3023965253
 20
25.0597377898
 30
0.0
 10
341.5237995001
 20
25.0597377898
 30
0.0
 10
341.5237995001
 20
25.0597377898
 30
0.0
 10
341.5237995001
 20
25.0597377898
 30
0.0
 10
341.5237995001
 20
25.5894300131
 30
0.0
 10
341.5237995001
 20
25.5894300131
 30
0.0
 10
341.5237995001
 20
25.7993179395
 30
0.0
 10
341.5237995001
 20
26.0500319464
 30
0.0
 10
341.8090586519
 20
26.0500319464
 30
0.0
 10
342.0359574452
 20
26.0500319464
 30
0.0
 10
342.0629131266
 20
25.9170854793
 30
0.0
 10
342.0629131266
 20
25.7208062464
 30
0.0
 10
342.0629131266
 20
25.7208062464
 30
0.0
 10
342.0629131266
 20
25.0597377898
 30
0.0
 10
342.0629131266
 20
25.0597377898
 30
0.0
 10
342.0629131266
 20
25.0597377898
 30
0.0
 10
342.2848395126
 20
25.0597377898
 30
0.0
 10
342.2848395126
 20
25.0597377898
 30
0.0
 10
342.2848395126
 20
25.0597377898
 30
0.0
 10
342.2848395126
 20
25.7469768107
 30
0.0
 10
342.2848395126
 20
25.7469768107
 30
0.0
 10
342.2848395126
 20
26.027525261
 30
0.0
 10
342.2008320009
 20
26.2473580019
 30
0.0
 10
341.8757935911
 20
26.2473580019
 30
0.0
 10
341.7360427773
 20
26.2473580019
 30
0.0
 10
341.5978621973
 20
26.1808847684
 30
0.0
 10
341.5285102016
 20
26.0578831157
 30
0.0
 10
341.5285102016
 20
26.0578831157
 30
0.0
 10
341.5237995001
 20
26.0578831157
 30
0.0
 10
341.5237995001
 20
26.0578831157
 30
0.0
 10
341.5237995001
 20
26.0578831157
 30
0.0
 10
341.5237995001
 20
27.1978729007
 30
0.0
 10
341.5237995001
 20
27.1978729007
 30
0.0
 10
341.5237995001
 20
27.1978729007
 30
0.0
 10
341.3023965253
 20
27.1978729007
 30
0.0
 10
341.3023965253
 20
27.1978729007
 30
0.0
  0
LWPOLYLINE
  5
256
330
228
100
AcDbEntity
  8
0
  6
Continuous
 62
     7
100
AcDbPolyline
 90
        2
 70
     0
 43
0.2
 10
344.1246301895
 20
26.005541987
 10
344.341060757
 20
26.005541987
  0
LWPOLYLINE
  5
257
330
228
100
AcDbEntity
  8
0
  6
Continuous
 62
     7
100
AcDbPolyline
 90
        2
 70
     0
 43
0.2
 10
344.341060757
 20
26.005541987
 10
344.341060757
 20
26.2122894457
  0
LWPOLYLINE
  5
258
330
228
100
AcDbEntity
  8
0
  6
Continuous
 62
     7
100
AcDbPolyline
 90
        2
 70
     0
 43
0.2
 10
344.341060757
 20
26.2122894457
 10
344.1246301895
 20
26.2122894457
  0
LWPOLYLINE
  5
259
330
228
100
AcDbEntity
  8
0
  6
Continuous
 62
     7
100
AcDbPolyline
 90
        2
 70
     0
 43
0.2
 10
344.1246301895
 20
26.2122894457
 10
344.1246301895
 20
26.65300175
  0
LWPOLYLINE
  5
25A
330
228
100
AcDbEntity
  8
0
  6
Continuous
 62
     7
100
AcDbPolyline
 90
        2
 70
     0
 43
0.2
 10
344.1246301895
 20
26.65300175
 10
343.9029655091
 20
26.65300175
  0
LWPOLYLINE
  5
25B
330
228
100
AcDbEntity
  8
0
  6
Continuous
 62
     7
100
AcDbPolyline
 90
        2
 70
     0
 43
0.2
 10
343.9029655091
 20
26.65300175
 10
343.9029655091
 20
26.2122894457
  0
LWPOLYLINE
  5
25C
330
228
100
AcDbEntity
  8
0
  6
Continuous
 62
     7
100
AcDbPolyline
 90
        2
 70
     0
 43
0.2
 10
343.9029655091
 20
26.2122894457
 10
343.7823192072
 20
26.2122894457
  0
LWPOLYLINE
  5
25D
330
228
100
AcDbEntity
  8
0
  6
Continuous
 62
     7
100
AcDbPolyline
 90
        2
 70
     0
 43
0.2
 10
343.7823192072
 20
26.2122894457
 10
343.7823192072
 20
26.005541987
  0
LWPOLYLINE
  5
25E
330
228
100
AcDbEntity
  8
0
  6
Continuous
 62
     7
100
AcDbPolyline
 90
        2
 70
     0
 43
0.2
 10
343.7823192072
 20
26.005541987
 10
343.9029655091
 20
26.005541987
  0
LWPOLYLINE
  5
25F
330
228
100
AcDbEntity
  8
0
  6
Continuous
 62
     7
100
AcDbPolyline
 90
        2
 70
     0
 43
0.2
 10
343.9029655091
 20
26.005541987
 10
343.9029655091
 20
25.0597377898
  0
LWPOLYLINE
  5
260
330
228
100
AcDbEntity
  8
0
  6
Continuous
 62
     7
100
AcDbPolyline
 90
        2
 70
     0
 43
0.2
 10
343.9029655091
 20
25.0597377898
 10
344.1246301895
 20
25.0597377898
  0
LWPOLYLINE
  5
261
330
228
100
AcDbEntity
  8
0
  6
Continuous
 62
     7
100
AcDbPolyline
 90
        2
 70
     0
 43
0.2
 10
344.1246301895
 20
25.0597377898
 10
344.1246301895
 20
26.005541987
  0
SPLINE
  5
262
330
228
100
AcDbEntity
  8
0
  6
Continuous
 62
     7
100
AcDbSpline
 70
     3
 71
     3
 72
    20
 73
    16
 74
     0
 42
0.000000001
 43
0.0000001
 40
0.0
 40
0.0
 40
0.0
 40
0.0
 40
1.0
 40
1.0
 40
1.0
 40
2.0
 40
2.0
 40
2.0
 40
3.0
 40
3.0
 40
3.0
 40
4.0
 40
4.0
 40
4.0
 40
5.0
 40
5.0
 40
5.0
 40
5.0
 10
331.9066404967
 20
35.4206642332
 30
0.0
 10
331.9066404967
 20
35.4206642332
 30
0.0
 10
334.2229971512
 20
32.5911028109
 30
0.0
 10
334.2229971512
 20
32.5911028109
 30
0.0
 10
333.5713500978
 20
31.9389323462
 30
0.0
 10
332.7944768938
 20
31.2030160755
 30
0.0
 10
331.8232872491
 20
31.2030160755
 30
0.0
 10
330.8247493647
 20
31.2030160755
 30
0.0
 10
329.8814313711
 20
32.1325945228
 30
0.0
 10
329.8814313711
 20
33.1317866713
 30
0.0
 10
329.8814313711
 20
34.1309788198
 30
0.0
 10
331.0602844442
 20
34.8375840585
 30
0.0
 10
331.7818069046
 20
35.3374418384
 30
0.0
 10
331.7818069046
 20
35.3374418384
 30
0.0
 10
331.9066404967
 20
35.4206642332
 30
0.0
 10
331.9066404967
 20
35.4206642332
 30
0.0
  0
SPLINE
  5
263
330
228
100
AcDbEntity
  8
0
  6
Continuous
 62
     7
100
AcDbSpline
 70
     3
 71
     3
 72
    23
 73
    19
 74
     0
 42
0.000000001
 43
0.0000001
 40
0.0
 40
0.0
 40
0.0
 40
0.0
 40
1.0
 40
1.0
 40
1.0
 40
2.0
 40
2.0
 40
2.0
 40
3.0
 40
3.0
 40
3.0
 40
4.0
 40
4.0
 40
4.0
 40
5.0
 40
5.0
 40
5.0
 40
6.0
 40
6.0
 40
6.0
 40
6.0
 10
332.1840484793
 20
37.0584181529
 30
0.0
 10
332.1840484793
 20
37.0584181529
 30
0.0
 10
331.8375502067
 20
37.5017475137
 30
0.0
 10
331.8375502067
 20
37.5017475137
 30
0.0
 10
331.5317471618
 20
37.8898569837
 30
0.0
 10
331.2128588347
 20
38.2783590121
 30
0.0
 10
331.2128588347
 20
38.8053033262
 30
0.0
 10
331.2128588347
 20
39.4714750428
 30
0.0
 10
331.7541969591
 20
39.9151969621
 30
0.0
 10
332.3781032143
 20
39.9151969621
 30
0.0
 10
333.0718848763
 20
39.9151969621
 30
0.0
 10
333.5990908961
 20
39.5129553874
 30
0.0
 10
333.5990908961
 20
38.7779550864
 30
0.0
 10
333.5990908961
 20
38.0146905758
 30
0.0
 10
332.8778301414
 20
37.58457735
 30
0.0
 10
332.3507549745
 20
37.1688579346
 30
0.0
 10
332.3507549745
 20
37.1688579346
 30
0.0
 10
332.1840484793
 20
37.0584181529
 30
0.0
 10
332.1840484793
 20
37.0584181529
 30
0.0
  0
SPLINE
  5
264
330
228
100
AcDbEntity
  8
0
  6
Continuous
 62
     7
100
AcDbSpline
 70
     3
 71
     3
 72
    50
 73
    46
 74
     0
 42
0.000000001
 43
0.0000001
 40
0.0
 40
0.0
 40
0.0
 40
0.0
 40
1.0
 40
1.0
 40
1.0
 40
2.0
 40
2.0
 40
2.0
 40
3.0
 40
3.0
 40
3.0
 40
4.0
 40
4.0
 40
4.0
 40
5.0
 40
5.0
 40
5.0
 40
6.0
 40
6.0
 40
6.0
 40
7.0
 40
7.0
 40
7.0
 40
8.0
 40
8.0
 40
8.0
 40
9.0
 40
9.0
 40
9.0
 40
10.0
 40
10.0
 40
10.0
 40
11.0
 40
11.0
 40
11.0
 40
12.0
 40
12.0
 40
12.0
 40
13.0
 40
13.0
 40
13.0
 40
14.0
 40
14.0
 40
14.0
 40
15.0
 40
15.0
 40
15.0
 40
15.0
 10
336.1376356422
 20
30.2598289348
 30
0.0
 10
336.1376356422
 20
30.2598289348
 30
0.0
 10
337.7468636468
 20
30.2598289348
 30
0.0
 10
337.7468636468
 20
30.2598289348
 30
0.0
 10
337.7468636468
 20
30.2598289348
 30
0.0
 10
335.8738363531
 20
32.5769707062
 30
0.0
 10
335.8738363531
 20
32.5769707062
 30
0.0
 10
335.8738363531
 20
32.5769707062
 30
0.0
 10
337.1501747786
 20
34.0744504008
 30
0.0
 10
337.1501747786
 20
34.0744504008
 30
0.0
 10
337.1501747786
 20
34.0744504008
 30
0.0
 10
336.3179508309
 20
34.9354619693
 30
0.0
 10
336.3179508309
 20
34.9354619693
 30
0.0
 10
336.3179508309
 20
34.9354619693
 30
0.0
 10
335.0973557076
 20
33.5201578469
 30
0.0
 10
335.0973557076
 20
33.5201578469
 30
0.0
 10
335.0973557076
 20
33.5201578469
 30
0.0
 10
332.9194413388
 20
36.1555336813
 30
0.0
 10
332.9194413388
 20
36.1555336813
 30
0.0
 10
333.7930147782
 20
36.7935720412
 30
0.0
 10
334.8196860194
 20
37.58457735
 30
0.0
 10
334.8196860194
 20
38.7634304231
 30
0.0
 10
334.8196860194
 20
40.1371233482
 30
0.0
 10
333.6817898795
 20
40.9416064976
 30
0.0
 10
332.4064982766
 20
40.9416064976
 30
0.0
 10
331.0330670573
 20
40.9416064976
 30
0.0
 10
329.9921328585
 20
40.0953812979
 30
0.0
 10
329.9921328585
 20
38.6527289358
 30
0.0
 10
329.9921328585
 20
37.7651542444
 30
0.0
 10
330.547472235
 20
36.9882810403
 30
0.0
 10
331.1436376918
 20
36.3638513739
 30
0.0
 10
331.1436376918
 20
36.3638513739
 30
0.0
 10
330.4917289328
 20
35.8922578035
 30
0.0
 10
330.4917289328
 20
35.8922578035
 30
0.0
 10
329.4931910484
 20
35.1709970488
 30
0.0
 10
328.6603128365
 20
34.4497362942
 30
0.0
 10
328.6603128365
 20
33.1181779778
 30
0.0
 10
328.6603128365
 20
31.3145026798
 30
0.0
 10
330.1173590091
 20
30.0379025487
 30
0.0
 10
331.8648984465
 20
30.0379025487
 30
0.0
 10
333.0997565274
 20
30.0379025487
 30
0.0
 10
334.2091267521
 20
30.7460780212
 30
0.0
 10
335.000001208
 20
31.6746096459
 30
0.0
 10
335.000001208
 20
31.6746096459
 30
0.0
 10
336.1376356422
 20
30.2598289348
 30
0.0
 10
336.1376356422
 20
30.2598289348
 30
0.0
  0
LINE
  5
265
330
228
100
AcDbEntity
  8
0
  6
Continuous
 62
     7
100
AcDbLine
 10
321.9404970172
 20
28.2337038394
 30
0.0
 11
344.3544077449
 21
28.2337038394
 31
0.0
  0
LINE
  5
266
330
228
100
AcDbEntity
  8
0
  6
Continuous
 62
     7
100
AcDbLine
 10
344.3544077449
 20
28.2337038394
 30
0.0
 11
344.3544077449
 21
50.6476145671
 31
0.0
  0
LINE
  5
267
330
228
100
AcDbEntity
  8
0
  6
Continuous
 62
     7
100
AcDbLine
 10
344.3544077449
 20
50.6476145671
 30
0.0
 11
321.9404970172
 21
50.6476145671
 31
0.0
  0
LINE
  5
268
330
228
100
AcDbEntity
  8
0
  6
Continuous
 62
     7
100
AcDbLine
 10
321.9404970172
 20
50.6476145671
 30
0.0
 11
321.9404970172
 21
28.2337038394
 31
0.0
  0
ENDBLK
  5
269
330
228
100
AcDbEntity
  8
0
  6
ByBlock
 62
     0
100
AcDbBlockEnd
  0
BLOCK
  5
290
330
229
100
AcDbEntity
  8
0
100
AcDbBlockBegin
  2
*T6
 70
     1
 10
0.0
 20
0.0
 30
0.0
  3
*T6
  1

  0
MTEXT
  5
291
330
229
100
AcDbEntity
  8
0
  6
Continuous
 62
     0
100
AcDbMText
 10
30.06
 20
-3.0
 30
0.0
 40
3.0
 41
39.88
 46
0.0
 71
     4
 72
     5
  1
{\Ftxt.shx;\W6.976190;\H3.000000; }
 73
     1
 44
1.0
  0
MTEXT
  5
292
330
229
100
AcDbEntity
  8
0
  6
Continuous
 62
     0
100
AcDbMText
 10
70.06
 20
-0.06
 30
0.0
 40
3.5
 41
19.88
 46
0.0
 71
     1
 72
     5
  1
{\Ftxt.shx;\W5.100000;\H3.500000; }
 73
     1
 44
1.0
  0
MTEXT
  5
293
330
229
100
AcDbEntity
  8
0
  6
Continuous
 62
     0
100
AcDbMText
 10
30.06
 20
-6.06
 30
0.0
 40
3.5
 41
39.88
 46
0.0
 71
     1
 72
     5
  1
{\Ftxt.shx;\W3.904762;\H3.500000; }{\Ftxt.shx;\W1.500000;\H3.500000; }
 73
     1
 44
1.0
  0
MTEXT
  5
294
330
229
100
AcDbEntity
  8
0
  6
Continuous
 62
     0
100
AcDbMText
 10
70.06
 20
-9.0
 30
0.0
 40
3.5
 41
19.88
 46
0.0
 71
     4
 72
     5
  1
{\Ftxt.shx;\W1.571429;\H3.500000; }
 73
     1
 44
1.0
  0
MTEXT
  5
295
330
229
100
AcDbEntity
  8
0
  6
Continuous
 62
     0
100
AcDbMText
 10
30.06
 20
-17.0
 30
0.0
 40
3.5
 41
59.88
 46
0.0
 71
     4
 72
     5
  1
{\Ftxt.shx;\W7.928571;\H3.500000; }{\Ftxt.shx;\W0.785714;\H3.500000; }
 73
     1
 44
1.0
  0
MTEXT
  5
296
330
229
100
AcDbEntity
  8
0
  6
Continuous
 62
     0
100
AcDbMText
 10
30.06
 20
-24.5
 30
0.0
 40
2.5
 41
59.88
 46
0.0
 71
     4
 72
     5
  1
{\Ftxt.shx;\W11.333333;\H2.500000; }
 73
     1
 44
1.0
  0
MTEXT
  5
297
330
229
100
AcDbEntity
  8
0
  6
Continuous
 62
     0
100
AcDbMText
 10
0.06
 20
-27.06
 30
0.0
 40
1.85
 41
89.88
 46
0.0
 71
     1
 72
     5
  1
{\Ftxt.shx;\W45.050000;\H1.850000; }\P{\Ftxt.shx;\W28.050000;\H1.850000; }{\Ftxt.shx;\W7.650000;\H1.850000; }{\Ftxt.shx;\W13.600000;\H1.850000; }\P{\Ftxt.shx;\W31.450000;\H1.850000; }\P{\Ftxt.shx;\W17.000000;\H1.850000; }
 73
     1
 44
1.0
  0
LINE
  5
298
330
229
100
AcDbEntity
  8
0
  6
Continuous
 62
     0
370
    -2
100
AcDbLine
 10
0.0
 20
0.0
 30
0.0
 11
90.0
 21
0.0
 31
0.0
  0
LINE
  5
299
330
229
100
AcDbEntity
  8
0
  6
Continuous
 62
     0
370
    -2
100
AcDbLine
 10
0.0
 20
0.0
 30
0.0
 11
0.0
 21
-40.0
 31
0.0
  0
LINE
  5
29A
330
229
100
AcDbEntity
  8
0
  6
Continuous
 62
     0
370
    -2
100
AcDbLine
 10
30.0
 20
0.0
 30
0.0
 11
30.0
 21
-27.0
 31
0.0
  0
LINE
  5
675
330
229
100
AcDbEntity
  8
0
  6
Continuous
 62
     0
370
    -2
100
AcDbLine
 10
70.0
 20
0.0
 30
0.0
 11
70.0
 21
-12.0
 31
0.0
  0
LINE
  5
676
330
229
100
AcDbEntity
  8
0
  6
Continuous
 62
     0
370
    -2
100
AcDbLine
 10
90.0
 20
0.0
 30
0.0
 11
90.0
 21
-40.0
 31
0.0
  0
LINE
  5
677
330
229
100
AcDbEntity
  8
0
  6
Continuous
 62
     0
370
    -2
100
AcDbLine
 10
30.0
 20
-6.0
 30
0.0
 11
90.0
 21
-6.0
 31
0.0
  0
LINE
  5
678
330
229
100
AcDbEntity
  8
0
  6
Continuous
 62
     0
370
    -2
100
AcDbLine
 10
30.0
 20
-12.0
 30
0.0
 11
90.0
 21
-12.0
 31
0.0
  0
LINE
  5
679
330
229
100
AcDbEntity
  8
0
  6
Continuous
 62
     0
370
    -2
100
AcDbLine
 10
30.0
 20
-22.0
 30
0.0
 11
90.0
 21
-22.0
 31
0.0
  0
LINE
  5
67A
330
229
100
AcDbEntity
  8
0
  6
Continuous
 62
     0
370
    -2
100
AcDbLine
 10
0.0
 20
-27.0
 30
0.0
 11
90.0
 21
-27.0
 31
0.0
  0
LINE
  5
67B
330
229
100
AcDbEntity
  8
0
  6
Continuous
 62
     0
370
    -2
100
AcDbLine
 10
0.0
 20
-40.0
 30
0.0
 11
90.0
 21
-40.0
 31
0.0
  0
ENDBLK
  5
29B
330
229
100
AcDbEntity
  8
0
100
AcDbBlockEnd
  0
ENDSEC
  0
SECTION
  2
ENTITIES
  0
INSERT
  5
2A0
330
221
100
AcDbEntity
  8
0
  6
Continuous
 62
     2
100
AcDbBlockReference
  2
LOGO2_BL0
 10
357.0096927855457
 20
12.44301358371663
 30
0.0
  0
LWPOLYLINE
  5
2A1
330
221
100
AcDbEntity
  8
0
  6
Continuous
 62
     2
100
AcDbPolyline
 90
        6
 70
     0
 43
0.0
 10
374.6711510457457
 20
21.44301473931664
 10
375.7425817098457
 20
21.44301473931664
 10
375.9568627157457
 20
21.65730215381664
 10
375.9568627157457
 20
22.72872640921664
 10
375.5283007039457
 20
23.15730123831663
 10
375.0997130575457
 20
23.15730123831663
  0
LWPOLYLINE
  5
2A2
330
221
100
AcDbEntity
  8
0
  6
Continuous
 62
     2
100
AcDbPolyline
 90
        5
 70
     0
 43
0.0
 10
375.5283007039457
 20
23.15730123831663
 10
375.8854442586457
 20
23.37158224411664
 10
375.8854442586457
 20
24.01444448781664
 10
375.5283007039457
 20
24.44301290821664
 10
374.6711510457457
 20
24.44301290821664
  0
LINE
  5
2A3
330
221
100
AcDbEntity
  8
0
  6
Continuous
 62
     2
100
AcDbLine
 10
376.8140123739457
 20
21.44301473931664
 30
0.0
 11
376.8140123739457
 21
24.44301290821664
 31
0.0
  0
LINE
  5
2A4
330
221
100
AcDbEntity
  8
0
  6
Continuous
 62
     2
100
AcDbLine
 10
378.3140050496457
 20
24.44301290821664
 30
0.0
 11
378.3140050496457
 21
21.44301473931664
 31
0.0
  0
LINE
  5
2A5
330
221
100
AcDbEntity
  8
0
  6
Continuous
 62
     2
100
AcDbLine
 10
376.8140123739457
 20
23.15730123831663
 30
0.0
 11
378.3140050496457
 21
23.15730123831663
 31
0.0
  0
LWPOLYLINE
  5
2A6
330
221
100
AcDbEntity
  8
0
  6
Continuous
 62
     2
100
AcDbPolyline
 90
       10
 70
     0
 43
0.0
 10
379.5997167196457
 20
21.44301473931664
 10
380.4568663778457
 20
22.30015798881664
 10
380.6711473836457
 20
23.15730123831663
 10
380.6711473836457
 20
24.01444448781664
 10
380.2425853719457
 20
24.44301290821664
 10
379.5997167196457
 20
24.44301290821664
 10
379.1711547079457
 20
24.01444448781664
 10
379.1711547079457
 20
23.15730123831663
 10
379.5997167196457
 20
22.72872640921664
 10
380.5282848348457
 20
22.72872640921664
  0
LINE
  5
2A7
330
221
100
AcDbEntity
  8
0
  6
Continuous
 62
     2
100
AcDbLine
 10
381.5282970418457
 20
21.44301473931664
 30
0.0
 11
383.2425707235457
 21
21.44301473931664
 31
0.0
  0
LWPOLYLINE
  5
2A8
330
221
100
AcDbEntity
  8
0
  6
Continuous
 62
     2
100
AcDbPolyline
 90
        6
 70
     0
 43
0.0
 10
385.1711510457457
 20
21.44301473931664
 10
384.3140013875457
 20
21.44301473931664
 10
383.8854393758457
 20
21.87158315971664
 10
383.8854393758457
 20
24.01444448781664
 10
384.3140013875457
 20
24.44301290821664
 10
385.1711510457457
 20
24.44301290821664
  0
LINE
  5
2A9
330
221
100
AcDbEntity
  8
0
  6
Continuous
 62
     2
100
AcDbLine
 10
386.3854442586457
 20
21.44301473931664
 30
0.0
 11
388.0997179403457
 21
21.44301473931664
 31
0.0
  0
LWPOLYLINE
  5
2AA
330
221
100
AcDbEntity
  8
0
  6
Continuous
 62
     2
100
AcDbPolyline
 90
       13
 70
     0
 43
0.0
 10
388.7425865926457
 20
22.30015798881664
 10
388.7425865926457
 20
23.58586965871664
 10
388.9568675985457
 20
24.01444448781664
 10
389.3854296102457
 20
24.44301290821664
 10
389.5997106161457
 20
24.44301290821664
 10
390.0282982625457
 20
24.01444448781664
 10
390.2425792684457
 20
23.58586965871664
 10
390.2425792684457
 20
22.30015798881664
 10
390.0282982625457
 20
21.87158315971664
 10
389.5997106161457
 20
21.44301473931664
 10
389.3854296102457
 20
21.44301473931664
 10
388.9568675985457
 20
21.87158315971664
 10
388.7425865926457
 20
22.30015798881664
  0
LWPOLYLINE
  5
2AB
330
221
100
AcDbEntity
  8
0
  6
Continuous
 62
     2
100
AcDbPolyline
 90
        6
 70
     0
 43
0.0
 10
391.0997289266457
 20
21.44301473931664
 10
392.1711339559457
 20
21.44301473931664
 10
392.3854405965457
 20
21.65730215381664
 10
392.3854405965457
 20
22.72872640921664
 10
391.9568529500457
 20
23.15730123831663
 10
391.5282909383457
 20
23.15730123831663
  0
LWPOLYLINE
  5
2AC
330
221
100
AcDbEntity
  8
0
  6
Continuous
 62
     2
100
AcDbPolyline
 90
        5
 70
     0
 43
0.0
 10
391.9568529500457
 20
23.15730123831663
 10
392.3139965047457
 20
23.37158224411664
 10
392.3139965047457
 20
24.01444448781664
 10
391.9568529500457
 20
24.44301290821664
 10
391.0997289266457
 20
24.44301290821664
  0
LWPOLYLINE
  5
2AD
330
221
100
AcDbEntity
  8
0
  6
Continuous
 62
     2
100
AcDbPolyline
 90
       13
 70
     0
 43
0.0
 10
393.2425646200457
 20
22.30015798881664
 10
393.2425646200457
 20
23.58586965871664
 10
393.4568712606457
 20
24.01444448781664
 10
393.8854332723457
 20
24.44301290821664
 10
394.0997142782457
 20
24.44301290821664
 10
394.5282762899457
 20
24.01444448781664
 10
394.7425829305457
 20
23.58586965871664
 10
394.7425829305457
 20
22.30015798881664
 10
394.5282762899457
 20
21.87158315971664
 10
394.0997142782457
 20
21.44301473931664
 10
393.8854332723457
 20
21.44301473931664
 10
393.4568712606457
 20
21.87158315971664
 10
393.2425646200457
 20
22.30015798881664
  0
LWPOLYLINE
  5
2AE
330
221
100
AcDbEntity
  8
0
  6
Continuous
 62
     2
100
AcDbPolyline
 90
        9
 70
     0
 43
0.0
 10
415.4148937215457
 20
20.69301199271663
 10
415.4148937215457
 20
24.19301626511664
 10
416.3445897664457
 20
24.19301626511664
 10
416.7164476766457
 20
23.90134390191664
 10
416.9024022664457
 20
23.60967794731664
 10
416.9024022664457
 20
23.02634603811664
 10
416.7164476766457
 20
22.73468008351664
 10
416.3445897664457
 20
22.44301412891664
 10
415.4148937215457
 20
22.44301412891664
  0
LINE
  5
2AF
330
221
100
AcDbEntity
  8
0
  6
Continuous
 62
     2
100
AcDbLine
 10
416.3445897664457
 20
22.44301412891664
 30
0.0
 11
416.9024022664457
 21
20.69301199271663
 31
0.0
  0
LWPOLYLINE
  5
2B0
330
221
100
AcDbEntity
  8
0
  6
Continuous
 62
     2
100
AcDbPolyline
 90
       11
 70
     0
 43
0.0
 10
419.6914647664457
 20
21.27634390191664
 10
419.5055101766457
 20
20.98467794731664
 10
419.1336522664457
 20
20.69301199271663
 10
418.7617687215456
 20
20.98467794731664
 10
418.3898851766457
 20
21.56801626511664
 10
418.3898851766457
 20
22.15134817431664
 10
418.7617687215456
 20
22.73468008351664
 10
419.1336522664457
 20
23.02634603811664
 10
419.5055101766457
 20
22.73468008351664
 10
419.6914647664457
 20
22.15134817431664
 10
418.3898851766457
 20
22.15134817431664
  0
LWPOLYLINE
  5
2B1
330
221
100
AcDbEntity
  8
0
  6
Continuous
 62
     2
100
AcDbPolyline
 90
        3
 70
     0
 43
0.0
 10
421.5508312215456
 20
23.02634603811664
 10
422.1086437215457
 20
20.69301199271663
 10
422.6664562215457
 20
23.02634603811664
  0
LWPOLYLINE
  5
2B2
330
221
100
AcDbEntity
  8
0
  6
Continuous
 62
     2
100
AcDbPolyline
 90
        4
 70
     0
 43
0.0
 10
425.0836351766457
 20
20.69301199271663
 10
424.8977062215457
 20
20.69301199271663
 10
424.8977062215457
 20
20.98467794731664
 10
425.0836351766457
 20
20.69301199271663
  0
LWPOLYLINE
  5
2B3
330
221
100
AcDbEntity
  8
0
  6
Continuous
 62
     2
100
AcDbPolyline
 90
        4
 70
     0
 43
0.0
 10
425.0836351766457
 20
23.02634603811664
 10
425.0836351766457
 20
22.73468008351664
 10
424.8977062215457
 20
23.02634603811664
 10
425.0836351766457
 20
23.02634603811664
  0
LWPOLYLINE
  5
2B4
330
221
100
AcDbEntity
  8
0
  6
Continuous
 62
     2
100
AcDbPolyline
 90
       15
 70
     0
 43
0.0
 10
428.0586522664457
 20
20.69301199271663
 10
427.6867687215457
 20
20.98467794731664
 10
427.5008397664457
 20
21.27634390191664
 10
427.3148851766456
 20
21.85968221971664
 10
427.3148851766456
 20
23.02634603811664
 10
427.5008397664457
 20
23.60967794731664
 10
427.6867687215457
 20
23.90134390191664
 10
428.0586522664457
 20
24.19301626511664
 10
428.4305101766457
 20
23.90134390191664
 10
428.6164647664457
 20
23.60967794731664
 10
428.8023937215457
 20
23.02634603811664
 10
428.8023937215457
 20
21.85968221971664
 10
428.6164647664457
 20
21.27634390191664
 10
428.4305101766457
 20
20.98467794731664
 10
428.0586522664457
 20
20.69301199271663
  0
LWPOLYLINE
  5
2B5
330
221
100
AcDbEntity
  8
0
  6
Continuous
 62
     2
100
AcDbPolyline
 90
       15
 70
     0
 43
0.0
 10
431.0336437215457
 20
20.69301199271663
 10
430.6617601766457
 20
20.98467794731664
 10
430.4758312215457
 20
21.27634390191664
 10
430.2899022664457
 20
21.85968221971664
 10
430.2899022664457
 20
23.02634603811664
 10
430.4758312215457
 20
23.60967794731664
 10
430.6617601766457
 20
23.90134390191664
 10
431.0336437215457
 20
24.19301626511664
 10
431.4055272664457
 20
23.90134390191664
 10
431.5914562215457
 20
23.60967794731664
 10
431.7773851766457
 20
23.02634603811664
 10
431.7773851766457
 20
21.85968221971664
 10
431.5914562215457
 20
21.27634390191664
 10
431.4055272664457
 20
20.98467794731664
 10
431.0336437215457
 20
20.69301199271663
  0
LWPOLYLINE
  5
2B6
330
221
100
AcDbEntity
  8
0
  6
Continuous
 62
     2
100
AcDbPolyline
 90
       10
 70
     0
 43
0.0
 10
375.3378087606457
 20
14.94301229781664
 10
375.5878246297457
 20
14.69301565481664
 10
376.5878112020457
 20
14.69301565481664
 10
377.0878173055457
 20
15.19301534961664
 10
377.0878173055457
 20
15.69301504441664
 10
375.3378087606457
 20
17.19301412891664
 10
375.3378087606457
 20
17.69301382371664
 10
375.8378148641457
 20
18.19301351861664
 10
376.8378014364457
 20
18.19301351861664
 10
377.0878173055457
 20
17.94301046681664
  0
LWPOLYLINE
  5
2B7
330
221
100
AcDbEntity
  8
0
  6
Continuous
 62
     2
100
AcDbPolyline
 90
        6
 70
     0
 43
0.0
 10
379.3378063192457
 20
14.69301565481664
 10
378.3378197469457
 20
14.69301565481664
 10
378.0878038778457
 20
14.94301229781664
 10
378.0878038778457
 20
16.94301107711664
 10
378.3378197469457
 20
17.19301412891664
 10
379.3378063192457
 20
17.19301412891664
  0
LWPOLYLINE
  5
2B8
330
221
100
AcDbEntity
  8
0
  6
Continuous
 62
     2
100
AcDbPolyline
 90
        4
 70
     0
 43
0.0
 10
381.8378112020457
 20
14.69301565481664
 10
381.8378112020457
 20
16.69301443411663
 10
381.5878209676457
 20
17.19301412891664
 10
380.3378185262457
 20
17.19301412891664
  0
LWPOLYLINE
  5
2B9
330
221
100
AcDbEntity
  8
0
  6
Continuous
 62
     2
100
AcDbPolyline
 90
        6
 70
     0
 43
0.0
 10
381.8378112020457
 20
14.69301565481664
 10
380.8378246297457
 20
14.69301565481664
 10
380.3378185262457
 20
14.94301229781664
 10
380.3378185262457
 20
15.69301504441664
 10
380.8378246297457
 20
15.94301168751664
 10
381.8378112020457
 20
15.94301168751664
  0
LWPOLYLINE
  5
2BA
330
221
100
AcDbEntity
  8
0
  6
Continuous
 62
     2
100
AcDbPolyline
 90
        4
 70
     0
 43
0.0
 10
383.5878197469457
 20
14.69301565481664
 10
383.0878136434457
 20
14.69301565481664
 10
382.8378234090457
 20
14.94301229781664
 10
382.8378234090457
 20
18.19301351861664
  0
LWPOLYLINE
  5
2BB
330
221
100
AcDbEntity
  8
0
  6
Continuous
 62
     2
100
AcDbPolyline
 90
        9
 70
     0
 43
0.0
 10
386.0878246297457
 20
14.69301565481664
 10
385.0878124227457
 20
14.69301565481664
 10
384.5878063192457
 20
15.19301534961664
 10
384.5878063192457
 20
16.69301443411663
 10
385.0878124227457
 20
17.19301412891664
 10
385.5878185262457
 20
17.19301412891664
 10
386.0878246297457
 20
16.69301443411663
 10
386.0878246297457
 20
15.94301168751664
 10
384.5878063192457
 20
15.94301168751664
  0
LWPOLYLINE
  5
2BC
330
221
100
AcDbEntity
  8
0
  6
Continuous
 62
     2
100
AcDbPolyline
 90
        4
 70
     0
 43
0.0
 10
387.0878112020457
 20
14.69301565481664
 10
387.0878112020457
 20
14.94301229781664
 10
387.2544884481457
 20
14.94301229781664
 10
387.0878112020457
 20
14.69301565481664
  0
LWPOLYLINE
  5
2BD
330
221
100
AcDbEntity
  8
0
  6
Continuous
 62
     2
100
AcDbPolyline
 90
        4
 70
     0
 43
0.0
 10
387.0878112020457
 20
16.19301473931664
 10
387.0878112020457
 20
16.44301138231664
 10
387.2544884481457
 20
16.44301138231664
 10
387.0878112020457
 20
16.19301473931664
  0
LWPOLYLINE
  5
2BE
330
221
100
AcDbEntity
  8
0
  6
Continuous
 62
     2
100
AcDbPolyline
 90
        3
 70
     0
 43
0.0
 10
388.3378136434457
 20
17.19301412891664
 10
389.3378002157457
 20
18.19301351861664
 10
389.3378002157457
 20
14.69301565481664
  0
LWPOLYLINE
  5
2BF
330
221
100
AcDbEntity
  8
0
  6
Continuous
 62
     2
100
AcDbPolyline
 90
        4
 70
     0
 43
0.0
 10
390.3378124227457
 20
14.69301565481664
 10
390.3378124227457
 20
14.94301229781664
 10
390.5044896688457
 20
14.94301229781664
 10
390.3378124227457
 20
14.69301565481664
  0
LWPOLYLINE
  5
2C0
330
221
100
AcDbEntity
  8
0
  6
Continuous
 62
     2
100
AcDbPolyline
 90
        4
 70
     0
 43
0.0
 10
390.3378124227457
 20
16.19301473931664
 10
390.3378124227457
 20
16.44301138231664
 10
390.5044896688457
 20
16.44301138231664
 10
390.3378124227457
 20
16.19301473931664
  0
LWPOLYLINE
  5
2C1
330
221
100
AcDbEntity
  8
0
  6
Continuous
 62
     2
100
AcDbPolyline
 90
        3
 70
     0
 43
0.0
 10
391.5878148641457
 20
17.19301412891664
 10
392.5878014364457
 20
18.19301351861664
 10
392.5878014364457
 20
14.69301565481664
  0
LWPOLYLINE
  5
2C2
330
221
100
AcDbEntity
  8
0
  6
Continuous
 62
     2
100
AcDbPolyline
 90
        3
 70
     0
 43
0.0
 10
414.6711522664457
 20
15.19301534961664
 10
415.6711388387457
 20
18.69301321341663
 10
416.6711510457457
 20
15.19301534961664
  0
LINE
  5
2C3
330
221
100
AcDbEntity
  8
0
  6
Continuous
 62
     2
100
AcDbLine
 10
415.0044811239457
 20
16.19301473931664
 30
0.0
 11
416.3378221883457
 21
16.19301473931664
 31
0.0
  0
LWPOLYLINE
  5
2C4
330
221
100
AcDbEntity
  8
0
  6
Continuous
 62
     2
100
AcDbPolyline
 90
        6
 70
     0
 43
0.0
 10
417.6711376180457
 20
15.19301534961664
 10
418.9211400594457
 20
15.19301534961664
 10
419.1711559286456
 20
15.44301199271663
 10
419.1711559286456
 20
16.69301443411663
 10
418.6711498250457
 20
17.19301412891664
 10
418.1711437215457
 20
17.19301412891664
  0
LWPOLYLINE
  5
2C5
330
221
100
AcDbEntity
  8
0
  6
Continuous
 62
     2
100
AcDbPolyline
 90
        5
 70
     0
 43
0.0
 10
418.6711498250457
 20
17.19301412891664
 10
419.0878173055457
 20
17.44301077201663
 10
419.0878173055457
 20
18.19301351861664
 10
418.6711498250457
 20
18.69301321341663
 10
417.6711376180457
 20
18.69301321341663
  0
LWPOLYLINE
  5
2C6
330
221
100
AcDbEntity
  8
0
  6
Continuous
 62
     2
100
AcDbPolyline
 90
        3
 70
     0
 43
0.0
 10
374.6711510457457
 20
7.19301382371664
 10
374.6711510457457
 20
10.69301168751664
 10
376.1711437215457
 20
10.69301168751664
  0
LINE
  5
2C7
330
221
100
AcDbEntity
  8
0
  6
Continuous
 62
     2
100
AcDbLine
 10
375.6711376180457
 20
9.19301260301664
 30
0.0
 11
374.6711510457457
 21
9.19301260301664
 31
0.0
  0
LINE
  5
2C8
330
221
100
AcDbEntity
  8
0
  6
Continuous
 62
     2
100
AcDbLine
 10
374.6711510457457
 20
7.19301382371664
 30
0.0
 11
376.1711437215457
 21
7.19301382371664
 31
0.0
  0
LWPOLYLINE
  5
2C9
330
221
100
AcDbEntity
  8
0
  6
Continuous
 62
     2
100
AcDbPolyline
 90
        3
 70
     0
 43
0.0
 10
377.1711559286456
 20
10.69301168751664
 10
377.1711559286456
 20
7.19301382371664
 10
378.4211583700456
 20
7.19301382371664
  0
LWPOLYLINE
  5
2CA
330
221
100
AcDbEntity
  8
0
  6
Continuous
 62
     2
100
AcDbPolyline
 90
        3
 70
     0
 43
0.0
 10
379.4211449422457
 20
10.69301168751664
 10
379.4211449422457
 20
7.19301382371664
 10
380.6711473836457
 20
7.19301382371664
  0
LWPOLYLINE
  5
2CB
330
221
100
AcDbEntity
  8
0
  6
Continuous
 62
     2
100
AcDbPolyline
 90
        3
 70
     0
 43
0.0
 10
381.6711339559457
 20
7.19301382371664
 10
382.6711461629457
 20
10.69301168751664
 10
383.6711583700456
 20
7.19301382371664
  0
LINE
  5
2CC
330
221
100
AcDbEntity
  8
0
  6
Continuous
 62
     2
100
AcDbLine
 10
382.0044884481457
 20
8.193013213416634
 30
0.0
 11
383.3378038778457
 21
8.193013213416634
 31
0.0
  0
LINE
  5
2CD
330
221
100
AcDbEntity
  8
0
  6
Continuous
 62
     2
100
AcDbLine
 10
388.0878234090457
 20
7.19301382371664
 30
0.0
 11
388.0878234090457
 21
10.69301168751664
 31
0.0
  0
LWPOLYLINE
  5
2CE
330
221
100
AcDbEntity
  8
0
  6
Continuous
 62
     2
100
AcDbPolyline
 90
        4
 70
     0
 43
0.0
 10
389.6711547079457
 20
7.19301382371664
 10
389.6711547079457
 20
10.69301168751664
 10
391.4211376180457
 20
7.19301382371664
 10
391.4211376180457
 20
10.69301168751664
  0
LWPOLYLINE
  5
2CF
330
221
100
AcDbEntity
  8
0
  6
Continuous
 62
     2
100
AcDbPolyline
 90
        6
 70
     0
 43
0.0
 10
395.1711449422457
 20
7.19301382371664
 10
396.4211473836457
 20
7.19301382371664
 10
396.6711376180457
 20
7.443010466816638
 10
396.6711376180457
 20
8.693012908216637
 10
396.1711571493457
 20
9.19301260301664
 10
395.6711510457457
 20
9.19301260301664
  0
LWPOLYLINE
  5
2D0
330
221
100
AcDbEntity
  8
0
  6
Continuous
 62
     2
100
AcDbPolyline
 90
        5
 70
     0
 43
0.0
 10
396.1711571493457
 20
9.19301260301664
 10
396.5878246297457
 20
9.44301565481664
 10
396.5878246297457
 20
10.19301199271663
 10
396.1711571493457
 20
10.69301168751664
 10
395.1711449422457
 20
10.69301168751664
  0
LWPOLYLINE
  5
2D1
330
221
100
AcDbEntity
  8
0
  6
Continuous
 62
     2
100
AcDbPolyline
 90
        9
 70
     0
 43
0.0
 10
398.4211461629457
 20
7.776345732916639
 10
398.5044847860457
 20
7.609681304216636
 10
398.5044847860457
 20
7.526349089816641
 10
398.4211461629457
 20
7.359678252416636
 10
398.2544689168457
 20
7.359678252416636
 10
398.1711559286456
 20
7.526349089816641
 10
398.1711559286456
 20
7.609681304216636
 10
398.2544689168457
 20
7.776345732916639
 10
398.4211461629457
 20
7.776345732916639
  0
LWPOLYLINE
  5
2D2
330
221
100
AcDbEntity
  8
0
  6
Continuous
 62
     2
100
AcDbPolyline
 90
       13
 70
     0
 43
0.0
 10
399.6711486043457
 20
8.193013213416634
 10
399.6711486043457
 20
9.693012297816637
 10
399.9211388387457
 20
10.19301199271663
 10
400.4211449422457
 20
10.69301168751664
 10
400.6711351766457
 20
10.69301168751664
 10
401.1711412801457
 20
10.19301199271663
 10
401.4211571493457
 20
9.693012297816637
 10
401.4211571493457
 20
8.193013213416634
 10
401.1711412801457
 20
7.693013518616638
 10
400.6711351766457
 20
7.19301382371664
 10
400.4211449422457
 20
7.19301382371664
 10
399.9211388387457
 20
7.693013518616638
 10
399.6711486043457
 20
8.193013213416634
  0
LWPOLYLINE
  5
2D3
330
221
100
AcDbEntity
  8
0
  6
Continuous
 62
     2
100
AcDbPolyline
 90
        7
 70
     0
 43
0.0
 10
375.1473424520457
 20
0.1930116875166377
 10
375.1473424520457
 20
2.693016570316637
 10
376.0402013387456
 20
2.693016570316637
 10
376.3973448934457
 20
2.335873015616638
 10
376.3973448934457
 20
0.5501552422166363
 10
376.0402013387456
 20
0.1930116875166377
 10
375.1473424520457
 20
0.1930116875166377
  0
LWPOLYLINE
  5
2D4
330
221
100
AcDbEntity
  8
0
  6
Continuous
 62
     2
100
AcDbPolyline
 90
        3
 70
     0
 43
0.0
 10
377.4092516317457
 20
0.1930116875166377
 10
378.1235387411457
 20
2.693016570316637
 10
378.8378002157457
 20
0.1930116875166377
  0
LINE
  5
2D5
330
221
100
AcDbEntity
  8
0
  6
Continuous
 62
     2
100
AcDbLine
 10
377.6473473348457
 20
0.9072987969166384
 30
0.0
 11
378.5997045125457
 21
0.9072987969166384
 31
0.0
  0
LINE
  5
2D6
330
221
100
AcDbEntity
  8
0
  6
Continuous
 62
     2
100
AcDbLine
 10
380.2663744344457
 20
0.1930116875166377
 30
0.0
 11
380.2663744344457
 21
2.693016570316637
 31
0.0
  0
LINE
  5
2D7
330
221
100
AcDbEntity
  8
0
  6
Continuous
 62
     2
100
AcDbLine
 10
379.5520873250456
 20
2.693016570316637
 30
0.0
 11
380.9806615438457
 21
2.693016570316637
 31
0.0
  0
LWPOLYLINE
  5
2D8
330
221
100
AcDbEntity
  8
0
  6
Continuous
 62
     2
100
AcDbPolyline
 90
        3
 70
     0
 43
0.0
 10
381.6949486532457
 20
0.1930116875166377
 10
381.6949486532457
 20
2.693016570316637
 10
382.7663793172457
 20
2.693016570316637
  0
LINE
  5
2D9
330
221
100
AcDbEntity
  8
0
  6
Continuous
 62
     2
100
AcDbLine
 10
382.4092357625457
 20
1.621585906216637
 30
0.0
 11
381.6949486532457
 21
1.621585906216637
 31
0.0
  0
LINE
  5
2DA
330
221
100
AcDbEntity
  8
0
  6
Continuous
 62
     2
100
AcDbLine
 10
381.6949486532457
 20
0.1930116875166377
 30
0.0
 11
382.7663793172457
 21
0.1930116875166377
 31
0.0
  0
LWPOLYLINE
  5
2DB
330
221
100
AcDbEntity
  8
0
  6
Continuous
 62
     2
100
AcDbPolyline
 90
        4
 70
     0
 43
0.0
 10
383.4806664266457
 20
0.1930116875166377
 10
383.4806664266457
 20
0.3715834648166378
 10
383.5997142782457
 20
0.3715834648166378
 10
383.4806664266457
 20
0.1930116875166377
  0
LWPOLYLINE
  5
2DC
330
221
100
AcDbEntity
  8
0
  6
Continuous
 62
     2
100
AcDbPolyline
 90
        4
 70
     0
 43
0.0
 10
383.4806664266457
 20
1.264442351616637
 10
383.4806664266457
 20
1.443014128916637
 10
383.5997142782457
 20
1.443014128916637
 10
383.4806664266457
 20
1.264442351616637
  0
LWPOLYLINE
  5
2DD
330
221
100
AcDbEntity
  8
0
  6
Continuous
 62
     2
100
AcDbPolyline
 90
        7
 70
     0
 43
0.0
 10
385.6235277547457
 20
0.1930116875166377
 10
384.3735253133457
 20
0.1930116875166377
 10
385.6235277547457
 20
1.978729460916636
 10
385.6235277547457
 20
2.335873015616638
 10
385.2663842000456
 20
2.693016570316637
 10
384.7306688680457
 20
2.693016570316637
 10
384.3735253133457
 20
2.157301238316638
  0
LWPOLYLINE
  5
2DE
330
221
100
AcDbEntity
  8
0
  6
Continuous
 62
     2
100
AcDbPolyline
 90
        8
 70
     0
 43
0.0
 10
386.3378148641457
 20
0.1930116875166377
 10
387.0521019735457
 20
0.1930116875166377
 10
387.4092455282457
 20
0.5501552422166363
 10
387.4092455282457
 20
1.264442351616637
 10
387.0521019735457
 20
1.621585906216637
 10
386.3378148641457
 20
1.621585906216637
 10
386.3378148641457
 20
2.693016570316637
 10
387.4092455282457
 20
2.693016570316637
  0
LINE
  5
2DF
330
221
100
AcDbEntity
  8
0
  6
Continuous
 62
     2
100
AcDbLine
 10
389.5521068563457
 20
2.454920867216636
 30
0.0
 11
388.1235326375457
 21
0.2525356133166383
 31
0.0
  0
LWPOLYLINE
  5
2E0
330
221
100
AcDbEntity
  8
0
  6
Continuous
 62
     2
100
AcDbPolyline
 90
       13
 70
     0
 43
0.0
 10
390.0282982625457
 20
0.9072987969166384
 10
390.0282982625457
 20
1.978729460916636
 10
390.2068700399457
 20
2.335873015616638
 10
390.5640135946457
 20
2.693016570316637
 10
390.7425853719457
 20
2.693016570316637
 10
391.0997289266457
 20
2.335873015616638
 10
391.2783007039457
 20
1.978729460916636
 10
391.2783007039457
 20
0.9072987969166384
 10
391.0997289266457
 20
0.5501552422166363
 10
390.7425853719457
 20
0.1930116875166377
 10
390.5640135946457
 20
0.1930116875166377
 10
390.2068700399457
 20
0.5501552422166363
 10
390.0282982625457
 20
0.9072987969166384
  0
LWPOLYLINE
  5
2E1
330
221
100
AcDbEntity
  8
0
  6
Continuous
 62
     2
100
AcDbPolyline
 90
        7
 70
     0
 43
0.0
 10
393.2425646200457
 20
0.1930116875166377
 10
391.9925621786457
 20
0.1930116875166377
 10
393.2425646200457
 20
1.978729460916636
 10
393.2425646200457
 20
2.335873015616638
 10
392.8854210653457
 20
2.693016570316637
 10
392.3497057332457
 20
2.693016570316637
 10
391.9925621786457
 20
2.157301238316638
  0
LINE
  5
2E2
330
221
100
AcDbEntity
  8
0
  6
Continuous
 62
     2
100
AcDbLine
 10
395.3854259481457
 20
2.454920867216636
 30
0.0
 11
393.9568517293457
 21
0.2525356133166383
 31
0.0
  0
LWPOLYLINE
  5
2E3
330
221
100
AcDbEntity
  8
0
  6
Continuous
 62
     2
100
AcDbPolyline
 90
        7
 70
     0
 43
0.0
 10
397.1116197957457
 20
0.1930116875166377
 10
395.8616173543457
 20
0.1930116875166377
 10
397.1116197957457
 20
1.978729460916636
 10
397.1116197957457
 20
2.335873015616638
 10
396.7544762411457
 20
2.693016570316637
 10
396.2187609090457
 20
2.693016570316637
 10
395.8616173543457
 20
2.157301238316638
  0
LWPOLYLINE
  5
2E4
330
221
100
AcDbEntity
  8
0
  6
Continuous
 62
     2
100
AcDbPolyline
 90
       13
 70
     0
 43
0.0
 10
397.8259069051457
 20
0.9072987969166384
 10
397.8259069051457
 20
1.978729460916636
 10
398.0044786825457
 20
2.335873015616638
 10
398.3616222371457
 20
2.693016570316637
 10
398.5401940145456
 20
2.693016570316637
 10
398.8973375692457
 20
2.335873015616638
 10
399.0759093465457
 20
1.978729460916636
 10
399.0759093465457
 20
0.9072987969166384
 10
398.8973375692457
 20
0.5501552422166363
 10
398.5401940145456
 20
0.1930116875166377
 10
398.3616222371457
 20
0.1930116875166377
 10
398.0044786825457
 20
0.5501552422166363
 10
397.8259069051457
 20
0.9072987969166384
  0
LWPOLYLINE
  5
2E5
330
221
100
AcDbEntity
  8
0
  6
Continuous
 62
     2
100
AcDbPolyline
 90
        3
 70
     0
 43
0.0
 10
399.7901964559456
 20
1.978729460916636
 10
400.5044835653457
 20
2.693016570316637
 10
400.5044835653457
 20
0.1930116875166377
  0
LWPOLYLINE
  5
2E6
330
221
100
AcDbEntity
  8
0
  6
Continuous
 62
     2
100
AcDbPolyline
 90
        8
 70
     0
 43
0.0
 10
401.2187706746457
 20
0.1930116875166377
 10
401.9330577840457
 20
0.1930116875166377
 10
402.2902013387456
 20
0.5501552422166363
 10
402.2902013387456
 20
1.264442351616637
 10
401.9330577840457
 20
1.621585906216637
 10
401.2187706746457
 20
1.621585906216637
 10
401.2187706746457
 20
2.693016570316637
 10
402.2902013387456
 20
2.693016570316637
  0
LWPOLYLINE
  5
2E7
330
221
100
AcDbEntity
  8
0
  6
Continuous
 62
     2
100
AcDbPolyline
 90
        3
 70
     0
 43
0.0
 10
344.9659947957457
 20
-4.656986633983362
 10
345.4573876180457
 20
-2.806986481383362
 10
345.9488060750457
 20
-4.656986633983362
  0
LINE
  5
2E8
330
221
100
AcDbEntity
  8
0
  6
Continuous
 62
     2
100
AcDbLine
 10
345.1625621786457
 20
-4.040319916483362
 30
0.0
 11
345.7522386922457
 21
-4.040319916483362
 31
0.0
  0
LINE
  5
2E9
330
221
100
AcDbEntity
  8
0
  6
Continuous
 62
     2
100
AcDbLine
 10
346.7350499715457
 20
-4.656986633983362
 30
0.0
 11
346.7350499715457
 21
-3.423653198983363
 31
0.0
  0
LWPOLYLINE
  5
2EA
330
221
100
AcDbEntity
  8
0
  6
Continuous
 62
     2
100
AcDbPolyline
 90
        5
 70
     0
 43
0.0
 10
346.7350499715457
 20
-3.731984955583364
 10
346.9316173543457
 20
-3.423653198983363
 10
347.1281847372456
 20
-3.423653198983363
 10
347.3247521200457
 20
-3.731984955583364
 10
347.3247521200457
 20
-4.656986633983362
  0
LWPOLYLINE
  5
2EB
330
221
100
AcDbEntity
  8
0
  6
Continuous
 62
     2
100
AcDbPolyline
 90
        5
 70
     0
 43
0.0
 10
348.2092797079457
 20
-3.423653198983363
 10
348.6023888387457
 20
-4.502819153583363
 10
348.5041051473457
 20
-4.965318390583363
 10
348.3075633993457
 20
-5.273653351583363
 10
348.1109960164457
 20
-5.273653351583363
  0
LINE
  5
2EC
330
221
100
AcDbEntity
  8
0
  6
Continuous
 62
     2
100
AcDbLine
 10
348.6023888387457
 20
-4.502819153583363
 30
0.0
 11
348.9955236043457
 21
-3.423653198983363
 31
0.0
  0
LINE
  5
2ED
330
221
100
AcDbEntity
  8
0
  6
Continuous
 62
     2
100
AcDbLine
 10
351.7473900594456
 20
-2.806986481383362
 30
0.0
 11
351.7473900594456
 21
-2.961153961883362
 31
0.0
  0
LINE
  5
2EE
330
221
100
AcDbEntity
  8
0
  6
Continuous
 62
     2
100
AcDbLine
 10
351.7473900594456
 20
-3.423653198983363
 30
0.0
 11
351.7473900594456
 21
-4.656986633983362
 31
0.0
  0
LINE
  5
2EF
330
221
100
AcDbEntity
  8
0
  6
Continuous
 62
     2
100
AcDbLine
 10
353.0250524129457
 20
-4.656986633983362
 30
0.0
 11
353.0250524129457
 21
-3.423653198983363
 31
0.0
  0
LWPOLYLINE
  5
2F0
330
221
100
AcDbEntity
  8
0
  6
Continuous
 62
     2
100
AcDbPolyline
 90
        5
 70
     0
 43
0.0
 10
353.0250524129457
 20
-3.731984955583364
 10
353.2216197957457
 20
-3.423653198983363
 10
353.4181871786457
 20
-3.423653198983363
 10
353.6147289266457
 20
-3.731984955583364
 10
353.6147289266457
 20
-4.656986633983362
  0
LINE
  5
2F1
330
221
100
AcDbEntity
  8
0
  6
Continuous
 62
     2
100
AcDbLine
 10
354.8923912801457
 20
-4.656986633983362
 30
0.0
 11
354.8923912801457
 21
-2.806986481383362
 31
0.0
  0
LINE
  5
2F2
330
221
100
AcDbEntity
  8
0
  6
Continuous
 62
     2
100
AcDbLine
 10
354.5975402059457
 20
-3.577820679383361
 30
0.0
 11
355.1872423543457
 21
-3.577820679383361
 31
0.0
  0
LWPOLYLINE
  5
2F3
330
221
100
AcDbEntity
  8
0
  6
Continuous
 62
     2
100
AcDbPolyline
 90
       11
 70
     0
 43
0.0
 10
356.7597301473457
 20
-4.348651673083364
 10
356.6614464559457
 20
-4.502819153583363
 10
356.4649047079457
 20
-4.656986633983362
 10
356.2683373250456
 20
-4.502819153583363
 10
356.0717699422457
 20
-4.194487396983362
 10
356.0717699422457
 20
-3.886152435983362
 10
356.2683373250456
 20
-3.577820679383361
 10
356.4649047079457
 20
-3.423653198983363
 10
356.6614464559457
 20
-3.577820679383361
 10
356.7597301473457
 20
-3.886152435983362
 10
356.0717699422457
 20
-3.886152435983362
  0
LWPOLYLINE
  5
2F4
330
221
100
AcDbEntity
  8
0
  6
Continuous
 62
     2
100
AcDbPolyline
 90
       10
 70
     0
 43
0.0
 10
358.4305272664457
 20
-4.194487396983362
 10
358.2339598836457
 20
-4.502819153583363
 10
358.0373925008457
 20
-4.656986633983362
 10
357.8408251180457
 20
-4.502819153583363
 10
357.6442833700457
 20
-4.194487396983362
 10
357.6442833700457
 20
-3.886152435983362
 10
357.8408251180457
 20
-3.577820679383361
 10
358.0373925008457
 20
-3.423653198983363
 10
358.2339598836457
 20
-3.577820679383361
 10
358.4305272664457
 20
-3.886152435983362
  0
LWPOLYLINE
  5
2F5
330
221
100
AcDbEntity
  8
0
  6
Continuous
 62
     2
100
AcDbPolyline
 90
        6
 70
     0
 43
0.0
 10
358.4305272664457
 20
-3.423653198983363
 10
358.4305272664457
 20
-4.811154114483362
 10
358.3322435750457
 20
-5.119485871083363
 10
358.2339598836457
 20
-5.273653351583363
 10
357.8408251180457
 20
-5.273653351583363
 10
357.7425414266457
 20
-5.119485871083363
  0
LINE
  5
2F6
330
221
100
AcDbEntity
  8
0
  6
Continuous
 62
     2
100
AcDbLine
 10
359.3150548543456
 20
-4.656986633983362
 30
0.0
 11
359.3150548543456
 21
-3.423653198983363
 31
0.0
  0
LWPOLYLINE
  5
2F7
330
221
100
AcDbEntity
  8
0
  6
Continuous
 62
     2
100
AcDbPolyline
 90
        4
 70
     0
 43
0.0
 10
359.3150548543456
 20
-3.731984955583364
 10
359.5116222371457
 20
-3.423653198983363
 10
359.7081896200457
 20
-3.423653198983363
 10
359.8064476766457
 20
-3.577820679383361
  0
LWPOLYLINE
  5
2F8
330
221
100
AcDbEntity
  8
0
  6
Continuous
 62
     2
100
AcDbPolyline
 90
       10
 70
     0
 43
0.0
 10
361.5755284871457
 20
-4.194487396983362
 10
361.3789611043456
 20
-4.502819153583363
 10
361.1823937215457
 20
-4.656986633983362
 10
360.9858263387457
 20
-4.502819153583363
 10
360.7892589559457
 20
-4.194487396983362
 10
360.7892589559457
 20
-3.886152435983362
 10
360.9858263387457
 20
-3.577820679383361
 10
361.1823937215457
 20
-3.423653198983363
 10
361.3789611043456
 20
-3.577820679383361
 10
361.5755284871457
 20
-3.886152435983362
  0
LINE
  5
2F9
330
221
100
AcDbEntity
  8
0
  6
Continuous
 62
     2
100
AcDbLine
 10
361.5755284871457
 20
-3.423653198983363
 30
0.0
 11
361.5755284871457
 21
-4.656986633983362
 31
0.0
  0
LINE
  5
2FA
330
221
100
AcDbEntity
  8
0
  6
Continuous
 62
     2
100
AcDbLine
 10
362.7549071493457
 20
-4.656986633983362
 30
0.0
 11
362.7549071493457
 21
-2.806986481383362
 31
0.0
  0
LWPOLYLINE
  5
2FB
330
221
100
AcDbEntity
  8
0
  6
Continuous
 62
     2
100
AcDbPolyline
 90
       11
 70
     0
 43
0.0
 10
366.2930175008457
 20
-4.194487396983362
 10
366.0964501180457
 20
-4.502819153583363
 10
365.8999083700457
 20
-4.656986633983362
 10
365.7033409871457
 20
-4.502819153583363
 10
365.5067736043457
 20
-4.194487396983362
 10
365.5067736043457
 20
-3.886152435983362
 10
365.7033409871457
 20
-3.577820679383361
 10
365.8999083700457
 20
-3.423653198983363
 10
366.0964501180457
 20
-3.577820679383361
 10
366.2930175008457
 20
-3.886152435983362
 10
366.2930175008457
 20
-4.194487396983362
  0
LINE
  5
2FC
330
221
100
AcDbEntity
  8
0
  6
Continuous
 62
     2
100
AcDbLine
 10
367.1775450887457
 20
-4.656986633983362
 30
0.0
 11
367.1775450887457
 21
-3.423653198983363
 31
0.0
  0
LWPOLYLINE
  5
2FD
330
221
100
AcDbEntity
  8
0
  6
Continuous
 62
     2
100
AcDbPolyline
 90
        4
 70
     0
 43
0.0
 10
367.1775450887457
 20
-3.731984955583364
 10
367.3741124715457
 20
-3.423653198983363
 10
367.5706798543457
 20
-3.423653198983363
 10
367.6689635457457
 20
-3.577820679383361
  0
LWPOLYLINE
  5
2FE
330
221
100
AcDbEntity
  8
0
  6
Continuous
 62
     2
100
AcDbPolyline
 90
       10
 70
     0
 43
0.0
 10
370.2242626180457
 20
-3.886152435983362
 10
370.4208300008457
 20
-3.577820679383361
 10
370.6173973836457
 20
-3.423653198983363
 10
370.8139647664457
 20
-3.577820679383361
 10
371.0105321493457
 20
-3.886152435983362
 10
371.0105321493457
 20
-4.194487396983362
 10
370.8139647664457
 20
-4.502819153583363
 10
370.6173973836457
 20
-4.656986633983362
 10
370.4208300008457
 20
-4.656986633983362
 10
370.2242626180457
 20
-4.194487396983362
  0
LINE
  5
2FF
330
221
100
AcDbEntity
  8
0
  6
Continuous
 62
     2
100
AcDbLine
 10
370.2242626180457
 20
-3.423653198983363
 30
0.0
 11
370.2242626180457
 21
-5.273653351583363
 31
0.0
  0
LWPOLYLINE
  5
300
330
221
100
AcDbEntity
  8
0
  6
Continuous
 62
     2
100
AcDbPolyline
 90
       10
 70
     0
 43
0.0
 10
372.5830199422457
 20
-4.194487396983362
 10
372.3864525594457
 20
-4.502819153583363
 10
372.1898851766456
 20
-4.656986633983362
 10
371.9933434286457
 20
-4.502819153583363
 10
371.7967760457457
 20
-4.194487396983362
 10
371.7967760457457
 20
-3.886152435983362
 10
371.9933434286457
 20
-3.577820679383361
 10
372.1898851766456
 20
-3.423653198983363
 10
372.3864525594457
 20
-3.577820679383361
 10
372.5830199422457
 20
-3.886152435983362
  0
LINE
  5
301
330
221
100
AcDbEntity
  8
0
  6
Continuous
 62
     2
100
AcDbLine
 10
372.5830199422457
 20
-3.423653198983363
 30
0.0
 11
372.5830199422457
 21
-4.656986633983362
 31
0.0
  0
LINE
  5
302
330
221
100
AcDbEntity
  8
0
  6
Continuous
 62
     2
100
AcDbLine
 10
373.4675475301457
 20
-4.656986633983362
 30
0.0
 11
373.4675475301457
 21
-3.423653198983363
 31
0.0
  0
LWPOLYLINE
  5
303
330
221
100
AcDbEntity
  8
0
  6
Continuous
 62
     2
100
AcDbPolyline
 90
        4
 70
     0
 43
0.0
 10
373.4675475301457
 20
-3.731984955583364
 10
373.6641149129456
 20
-3.423653198983363
 10
373.8606822957457
 20
-3.423653198983363
 10
373.9589659871457
 20
-3.577820679383361
  0
LINE
  5
304
330
221
100
AcDbEntity
  8
0
  6
Continuous
 62
     2
100
AcDbLine
 10
375.3348863973457
 20
-4.656986633983362
 30
0.0
 11
375.3348863973457
 21
-2.806986481383362
 31
0.0
  0
LINE
  5
305
330
221
100
AcDbEntity
  8
0
  6
Continuous
 62
     2
100
AcDbLine
 10
375.0400609579457
 20
-3.577820679383361
 30
0.0
 11
375.6297374715457
 21
-3.577820679383361
 31
0.0
  0
LINE
  5
306
330
221
100
AcDbEntity
  8
0
  6
Continuous
 62
     2
100
AcDbLine
 10
376.9073998250457
 20
-2.806986481383362
 30
0.0
 11
376.9073998250457
 21
-2.961153961883362
 31
0.0
  0
LINE
  5
307
330
221
100
AcDbEntity
  8
0
  6
Continuous
 62
     2
100
AcDbLine
 10
376.9073998250457
 20
-3.423653198983363
 30
0.0
 11
376.9073998250457
 21
-4.656986633983362
 31
0.0
  0
LWPOLYLINE
  5
308
330
221
100
AcDbEntity
  8
0
  6
Continuous
 62
     2
100
AcDbPolyline
 90
       10
 70
     0
 43
0.0
 10
378.8730223836457
 20
-4.194487396983362
 10
378.6764550008457
 20
-4.502819153583363
 10
378.4798876180457
 20
-4.656986633983362
 10
378.2833458700457
 20
-4.502819153583363
 10
378.0867784871457
 20
-4.194487396983362
 10
378.0867784871457
 20
-3.886152435983362
 10
378.2833458700457
 20
-3.577820679383361
 10
378.4798876180457
 20
-3.423653198983363
 10
378.6764550008457
 20
-3.577820679383361
 10
378.8730223836457
 20
-3.886152435983362
  0
LINE
  5
309
330
221
100
AcDbEntity
  8
0
  6
Continuous
 62
     2
100
AcDbLine
 10
378.8730223836457
 20
-3.423653198983363
 30
0.0
 11
378.8730223836457
 21
-4.656986633983362
 31
0.0
  0
LINE
  5
30A
330
221
100
AcDbEntity
  8
0
  6
Continuous
 62
     2
100
AcDbLine
 10
380.0524010457457
 20
-4.656986633983362
 30
0.0
 11
380.0524010457457
 21
-2.806986481383362
 31
0.0
  0
LINE
  5
30B
330
221
100
AcDbEntity
  8
0
  6
Continuous
 62
     2
100
AcDbLine
 10
382.9025511922457
 20
-4.656986633983362
 30
0.0
 11
382.9025511922457
 21
-3.423653198983363
 31
0.0
  0
LWPOLYLINE
  5
30C
330
221
100
AcDbEntity
  8
0
  6
Continuous
 62
     2
100
AcDbPolyline
 90
        4
 70
     0
 43
0.0
 10
382.9025511922457
 20
-3.731984955583364
 10
383.0991185750457
 20
-3.423653198983363
 10
383.2956859579457
 20
-3.423653198983363
 10
383.3939696493456
 20
-3.577820679383361
  0
LWPOLYLINE
  5
30D
330
221
100
AcDbEntity
  8
0
  6
Continuous
 62
     2
100
AcDbPolyline
 90
       11
 70
     0
 43
0.0
 10
385.0647411336457
 20
-4.348651673083364
 10
384.9664574422457
 20
-4.502819153583363
 10
384.7698900594457
 20
-4.656986633983362
 10
384.5733226766457
 20
-4.502819153583363
 10
384.3767809286456
 20
-4.194487396983362
 10
384.3767809286456
 20
-3.886152435983362
 10
384.5733226766457
 20
-3.577820679383361
 10
384.7698900594457
 20
-3.423653198983363
 10
384.9664574422457
 20
-3.577820679383361
 10
385.0647411336457
 20
-3.886152435983362
 10
384.3767809286456
 20
-3.886152435983362
  0
LWPOLYLINE
  5
30E
330
221
100
AcDbEntity
  8
0
  6
Continuous
 62
     2
100
AcDbPolyline
 90
       10
 70
     0
 43
0.0
 10
385.9492687215456
 20
-3.886152435983362
 10
386.1458361043457
 20
-3.577820679383361
 10
386.3424034871456
 20
-3.423653198983363
 10
386.5389708700457
 20
-3.577820679383361
 10
386.7355126180457
 20
-3.886152435983362
 10
386.7355126180457
 20
-4.194487396983362
 10
386.5389708700457
 20
-4.502819153583363
 10
386.3424034871456
 20
-4.656986633983362
 10
386.1458361043457
 20
-4.656986633983362
 10
385.9492687215456
 20
-4.194487396983362
  0
LINE
  5
30F
330
221
100
AcDbEntity
  8
0
  6
Continuous
 62
     2
100
AcDbLine
 10
385.9492687215456
 20
-3.423653198983363
 30
0.0
 11
385.9492687215456
 21
-5.273653351583363
 31
0.0
  0
LINE
  5
310
330
221
100
AcDbEntity
  8
0
  6
Continuous
 62
     2
100
AcDbLine
 10
387.6200402059457
 20
-4.656986633983362
 30
0.0
 11
387.6200402059457
 21
-3.423653198983363
 31
0.0
  0
LWPOLYLINE
  5
311
330
221
100
AcDbEntity
  8
0
  6
Continuous
 62
     2
100
AcDbPolyline
 90
        4
 70
     0
 43
0.0
 10
387.6200402059457
 20
-3.731984955583364
 10
387.8166075887457
 20
-3.423653198983363
 10
388.0131749715457
 20
-3.423653198983363
 10
388.1114586629457
 20
-3.577820679383361
  0
LWPOLYLINE
  5
312
330
221
100
AcDbEntity
  8
0
  6
Continuous
 62
     2
100
AcDbPolyline
 90
       11
 70
     0
 43
0.0
 10
389.8805138387457
 20
-4.194487396983362
 10
389.6839464559457
 20
-4.502819153583363
 10
389.4874047079457
 20
-4.656986633983362
 10
389.2908373250457
 20
-4.502819153583363
 10
389.0942699422457
 20
-4.194487396983362
 10
389.0942699422457
 20
-3.886152435983362
 10
389.2908373250457
 20
-3.577820679383361
 10
389.4874047079457
 20
-3.423653198983363
 10
389.6839464559457
 20
-3.577820679383361
 10
389.8805138387457
 20
-3.886152435983362
 10
389.8805138387457
 20
-4.194487396983362
  0
LWPOLYLINE
  5
313
330
221
100
AcDbEntity
  8
0
  6
Continuous
 62
     2
100
AcDbPolyline
 90
       10
 70
     0
 43
0.0
 10
391.4530272664456
 20
-4.194487396983362
 10
391.2564598836457
 20
-4.502819153583363
 10
391.0598925008456
 20
-4.656986633983362
 10
390.8633251180457
 20
-4.502819153583363
 10
390.6667833700457
 20
-4.194487396983362
 10
390.6667833700457
 20
-3.886152435983362
 10
390.8633251180457
 20
-3.577820679383361
 10
391.0598925008456
 20
-3.423653198983363
 10
391.2564598836457
 20
-3.577820679383361
 10
391.4530272664456
 20
-3.886152435983362
  0
LINE
  5
314
330
221
100
AcDbEntity
  8
0
  6
Continuous
 62
     2
100
AcDbLine
 10
391.4530272664456
 20
-2.806986481383362
 30
0.0
 11
391.4530272664456
 21
-4.656986633983362
 31
0.0
  0
LWPOLYLINE
  5
315
330
221
100
AcDbEntity
  8
0
  6
Continuous
 62
     2
100
AcDbPolyline
 90
        5
 70
     0
 43
0.0
 10
392.3375548543457
 20
-3.423653198983363
 10
392.3375548543457
 20
-4.348651673083364
 10
392.5341222372457
 20
-4.656986633983362
 10
392.7306896200457
 20
-4.656986633983362
 10
392.9272313680457
 20
-4.348651673083364
  0
LINE
  5
316
330
221
100
AcDbEntity
  8
0
  6
Continuous
 62
     2
100
AcDbLine
 10
392.9272313680457
 20
-3.423653198983363
 30
0.0
 11
392.9272313680457
 21
-4.656986633983362
 31
0.0
  0
LWPOLYLINE
  5
317
330
221
100
AcDbEntity
  8
0
  6
Continuous
 62
     2
100
AcDbPolyline
 90
        8
 70
     0
 43
0.0
 10
394.4014611043457
 20
-4.502819153583363
 10
394.2048937215457
 20
-4.656986633983362
 10
394.0083263387457
 20
-4.502819153583363
 10
393.8117589559457
 20
-4.194487396983362
 10
393.8117589559457
 20
-3.886152435983362
 10
394.0083263387457
 20
-3.577820679383361
 10
394.2048937215457
 20
-3.423653198983363
 10
394.4014611043457
 20
-3.577820679383361
  0
LINE
  5
318
330
221
100
AcDbEntity
  8
0
  6
Continuous
 62
     2
100
AcDbLine
 10
395.7774071493457
 20
-4.656986633983362
 30
0.0
 11
395.7774071493457
 21
-2.806986481383362
 31
0.0
  0
LINE
  5
319
330
221
100
AcDbEntity
  8
0
  6
Continuous
 62
     2
100
AcDbLine
 10
395.4825560750457
 20
-3.577820679383361
 30
0.0
 11
396.0722325887457
 21
-3.577820679383361
 31
0.0
  0
LINE
  5
31A
330
221
100
AcDbEntity
  8
0
  6
Continuous
 62
     2
100
AcDbLine
 10
397.3498949422457
 20
-2.806986481383362
 30
0.0
 11
397.3498949422457
 21
-2.961153961883362
 31
0.0
  0
LINE
  5
31B
330
221
100
AcDbEntity
  8
0
  6
Continuous
 62
     2
100
AcDbLine
 10
397.3498949422457
 20
-3.423653198983363
 30
0.0
 11
397.3498949422457
 21
-4.656986633983362
 31
0.0
  0
LWPOLYLINE
  5
31C
330
221
100
AcDbEntity
  8
0
  6
Continuous
 62
     2
100
AcDbPolyline
 90
       11
 70
     0
 43
0.0
 10
399.3155175008457
 20
-4.194487396983362
 10
399.1189501180457
 20
-4.502819153583363
 10
398.9224083700457
 20
-4.656986633983362
 10
398.7258409872456
 20
-4.502819153583363
 10
398.5292736043457
 20
-4.194487396983362
 10
398.5292736043457
 20
-3.886152435983362
 10
398.7258409872456
 20
-3.577820679383361
 10
398.9224083700457
 20
-3.423653198983363
 10
399.1189501180457
 20
-3.577820679383361
 10
399.3155175008457
 20
-3.886152435983362
 10
399.3155175008457
 20
-4.194487396983362
  0
LINE
  5
31D
330
221
100
AcDbEntity
  8
0
  6
Continuous
 62
     2
100
AcDbLine
 10
400.2000450887457
 20
-4.656986633983362
 30
0.0
 11
400.2000450887457
 21
-3.423653198983363
 31
0.0
  0
LWPOLYLINE
  5
31E
330
221
100
AcDbEntity
  8
0
  6
Continuous
 62
     2
100
AcDbPolyline
 90
        5
 70
     0
 43
0.0
 10
400.2000450887457
 20
-3.731984955583364
 10
400.3966124715457
 20
-3.423653198983363
 10
400.5931798543457
 20
-3.423653198983363
 10
400.7897472372456
 20
-3.731984955583364
 10
400.7897472372456
 20
-4.656986633983362
  0
LWPOLYLINE
  5
31F
330
221
100
AcDbEntity
  8
0
  6
Continuous
 62
     2
100
AcDbPolyline
 90
       14
 70
     0
 43
0.0
 10
402.2639513387457
 20
-3.577820679383361
 10
402.1656676473457
 20
-3.423653198983363
 10
401.9691258993457
 20
-3.423653198983363
 10
401.8708422079457
 20
-3.577820679383361
 10
401.8708422079457
 20
-3.731984955583364
 10
402.0673839559457
 20
-3.886152435983362
 10
402.2639513387457
 20
-4.040319916483362
 10
402.3622350301457
 20
-4.194487396983362
 10
402.3622350301457
 20
-4.348651673083364
 10
402.2639513387457
 20
-4.502819153583363
 10
402.1656676473457
 20
-4.656986633983362
 10
401.9691258993457
 20
-4.656986633983362
 10
401.8708422079457
 20
-4.502819153583363
 10
401.7725585164457
 20
-4.348651673083364
  0
LWPOLYLINE
  5
320
330
221
100
AcDbEntity
  8
0
  6
Continuous
 62
     2
100
AcDbPolyline
 90
       10
 70
     0
 43
0.0
 10
405.6055199422457
 20
-4.194487396983362
 10
405.4089525594457
 20
-4.502819153583363
 10
405.2123851766457
 20
-4.656986633983362
 10
405.0158434286457
 20
-4.502819153583363
 10
404.8192760457457
 20
-4.194487396983362
 10
404.8192760457457
 20
-3.886152435983362
 10
405.0158434286457
 20
-3.577820679383361
 10
405.2123851766457
 20
-3.423653198983363
 10
405.4089525594457
 20
-3.577820679383361
 10
405.6055199422457
 20
-3.886152435983362
  0
LINE
  5
321
330
221
100
AcDbEntity
  8
0
  6
Continuous
 62
     2
100
AcDbLine
 10
405.6055199422457
 20
-3.423653198983363
 30
0.0
 11
405.6055199422457
 21
-4.656986633983362
 31
0.0
  0
LINE
  5
322
330
221
100
AcDbEntity
  8
0
  6
Continuous
 62
     2
100
AcDbLine
 10
406.4900475301457
 20
-4.656986633983362
 30
0.0
 11
406.4900475301457
 21
-3.423653198983363
 31
0.0
  0
LWPOLYLINE
  5
323
330
221
100
AcDbEntity
  8
0
  6
Continuous
 62
     2
100
AcDbPolyline
 90
        4
 70
     0
 43
0.0
 10
406.4900475301457
 20
-3.731984955583364
 10
406.6866149129457
 20
-3.423653198983363
 10
406.8831822957457
 20
-3.423653198983363
 10
406.9814659871457
 20
-3.577820679383361
  0
LWPOLYLINE
  5
324
330
221
100
AcDbEntity
  8
0
  6
Continuous
 62
     2
100
AcDbPolyline
 90
       11
 70
     0
 43
0.0
 10
408.6522374715457
 20
-4.348651673083364
 10
408.5539537801457
 20
-4.502819153583363
 10
408.3573863973457
 20
-4.656986633983362
 10
408.1608446493457
 20
-4.502819153583363
 10
407.9642772664457
 20
-4.194487396983362
 10
407.9642772664457
 20
-3.886152435983362
 10
408.1608446493457
 20
-3.577820679383361
 10
408.3573863973457
 20
-3.423653198983363
 10
408.5539537801457
 20
-3.577820679383361
 10
408.6522374715457
 20
-3.886152435983362
 10
407.9642772664457
 20
-3.886152435983362
  0
LWPOLYLINE
  5
325
330
221
100
AcDbEntity
  8
0
  6
Continuous
 62
     2
100
AcDbPolyline
 90
       10
 70
     0
 43
0.0
 10
411.1092784871457
 20
-3.886152435983362
 10
411.3058458700457
 20
-3.577820679383361
 10
411.5023876180456
 20
-3.423653198983363
 10
411.6989550008457
 20
-3.577820679383361
 10
411.8955223836457
 20
-3.886152435983362
 10
411.8955223836457
 20
-4.194487396983362
 10
411.6989550008457
 20
-4.502819153583363
 10
411.5023876180456
 20
-4.656986633983362
 10
411.3058458700457
 20
-4.656986633983362
 10
411.1092784871457
 20
-4.194487396983362
  0
LINE
  5
326
330
221
100
AcDbEntity
  8
0
  6
Continuous
 62
     2
100
AcDbLine
 10
411.1092784871457
 20
-3.423653198983363
 30
0.0
 11
411.1092784871457
 21
-5.273653351583363
 31
0.0
  0
LINE
  5
327
330
221
100
AcDbEntity
  8
0
  6
Continuous
 62
     2
100
AcDbLine
 10
412.7800499715457
 20
-4.656986633983362
 30
0.0
 11
412.7800499715457
 21
-3.423653198983363
 31
0.0
  0
LWPOLYLINE
  5
328
330
221
100
AcDbEntity
  8
0
  6
Continuous
 62
     2
100
AcDbPolyline
 90
        4
 70
     0
 43
0.0
 10
412.7800499715457
 20
-3.731984955583364
 10
412.9766173543456
 20
-3.423653198983363
 10
413.1731847371457
 20
-3.423653198983363
 10
413.2714684286457
 20
-3.577820679383361
  0
LWPOLYLINE
  5
329
330
221
100
AcDbEntity
  8
0
  6
Continuous
 62
     2
100
AcDbPolyline
 90
       11
 70
     0
 43
0.0
 10
415.0405236043457
 20
-4.194487396983362
 10
414.8439562215457
 20
-4.502819153583363
 10
414.6473888387457
 20
-4.656986633983362
 10
414.4508214559457
 20
-4.502819153583363
 10
414.2542797079457
 20
-4.194487396983362
 10
414.2542797079457
 20
-3.886152435983362
 10
414.4508214559457
 20
-3.577820679383361
 10
414.6473888387457
 20
-3.423653198983363
 10
414.8439562215457
 20
-3.577820679383361
 10
415.0405236043457
 20
-3.886152435983362
 10
415.0405236043457
 20
-4.194487396983362
  0
LINE
  5
32A
330
221
100
AcDbEntity
  8
0
  6
Continuous
 62
     2
100
AcDbLine
 10
415.9250511922457
 20
-4.656986633983362
 30
0.0
 11
415.9250511922457
 21
-2.806986481383362
 31
0.0
  0
LWPOLYLINE
  5
32B
330
221
100
AcDbEntity
  8
0
  6
Continuous
 62
     2
100
AcDbPolyline
 90
        7
 70
     0
 43
0.0
 10
415.9250511922457
 20
-3.731984955583364
 10
415.9250511922457
 20
-3.577820679383361
 10
416.1216185750457
 20
-3.423653198983363
 10
416.2199022664457
 20
-3.423653198983363
 10
416.3181859579457
 20
-3.423653198983363
 10
416.5147277059457
 20
-3.731984955583364
 10
416.5147277059457
 20
-4.656986633983362
  0
LINE
  5
32C
330
221
100
AcDbEntity
  8
0
  6
Continuous
 62
     2
100
AcDbLine
 10
417.7923900594457
 20
-2.806986481383362
 30
0.0
 11
417.7923900594457
 21
-2.961153961883362
 31
0.0
  0
LINE
  5
32D
330
221
100
AcDbEntity
  8
0
  6
Continuous
 62
     2
100
AcDbLine
 10
417.7923900594457
 20
-3.423653198983363
 30
0.0
 11
417.7923900594457
 21
-4.656986633983362
 31
0.0
  0
LWPOLYLINE
  5
32E
330
221
100
AcDbEntity
  8
0
  6
Continuous
 62
     2
100
AcDbPolyline
 90
       10
 70
     0
 43
0.0
 10
418.9717687215457
 20
-3.886152435983362
 10
419.1683361043457
 20
-3.577820679383361
 10
419.3649034871457
 20
-3.423653198983363
 10
419.5614708700457
 20
-3.577820679383361
 10
419.7580126180457
 20
-3.886152435983362
 10
419.7580126180457
 20
-4.194487396983362
 10
419.5614708700457
 20
-4.502819153583363
 10
419.3649034871457
 20
-4.656986633983362
 10
419.1683361043457
 20
-4.502819153583363
 10
418.9717687215457
 20
-4.194487396983362
  0
LINE
  5
32F
330
221
100
AcDbEntity
  8
0
  6
Continuous
 62
     2
100
AcDbLine
 10
418.9717687215457
 20
-2.806986481383362
 30
0.0
 11
418.9717687215457
 21
-4.656986633983362
 31
0.0
  0
LINE
  5
330
330
221
100
AcDbEntity
  8
0
  6
Continuous
 62
     2
100
AcDbLine
 10
420.9373912801457
 20
-2.806986481383362
 30
0.0
 11
420.9373912801457
 21
-2.961153961883362
 31
0.0
  0
LINE
  5
331
330
221
100
AcDbEntity
  8
0
  6
Continuous
 62
     2
100
AcDbLine
 10
420.9373912801457
 20
-3.423653198983363
 30
0.0
 11
420.9373912801457
 21
-4.656986633983362
 31
0.0
  0
LINE
  5
332
330
221
100
AcDbEntity
  8
0
  6
Continuous
 62
     2
100
AcDbLine
 10
422.5099047079457
 20
-4.656986633983362
 30
0.0
 11
422.5099047079457
 21
-2.806986481383362
 31
0.0
  0
LINE
  5
333
330
221
100
AcDbEntity
  8
0
  6
Continuous
 62
     2
100
AcDbLine
 10
422.2150536336457
 20
-3.577820679383361
 30
0.0
 11
422.8047301473457
 21
-3.577820679383361
 31
0.0
  0
LWPOLYLINE
  5
334
330
221
100
AcDbEntity
  8
0
  6
Continuous
 62
     2
100
AcDbPolyline
 90
       11
 70
     0
 43
0.0
 10
424.3772435750457
 20
-4.348651673083364
 10
424.2789598836457
 20
-4.502819153583363
 10
424.0823925008457
 20
-4.656986633983362
 10
423.8858251180457
 20
-4.502819153583363
 10
423.6892833700457
 20
-4.194487396983362
 10
423.6892833700457
 20
-3.886152435983362
 10
423.8858251180457
 20
-3.577820679383361
 10
424.0823925008457
 20
-3.423653198983363
 10
424.2789598836457
 20
-3.577820679383361
 10
424.3772435750457
 20
-3.886152435983362
 10
423.6892833700457
 20
-3.886152435983362
  0
LWPOLYLINE
  5
335
330
221
100
AcDbEntity
  8
0
  6
Continuous
 62
     2
100
AcDbPolyline
 90
       10
 70
     0
 43
0.0
 10
426.0480150594457
 20
-4.194487396983362
 10
425.8514476766456
 20
-4.502819153583363
 10
425.6549059286457
 20
-4.656986633983362
 10
425.4583385457457
 20
-4.502819153583363
 10
425.2617711629456
 20
-4.194487396983362
 10
425.2617711629456
 20
-3.886152435983362
 10
425.4583385457457
 20
-3.577820679383361
 10
425.6549059286457
 20
-3.423653198983363
 10
425.8514476766456
 20
-3.577820679383361
 10
426.0480150594457
 20
-3.886152435983362
  0
LINE
  5
336
330
221
100
AcDbEntity
  8
0
  6
Continuous
 62
     2
100
AcDbLine
 10
426.0480150594457
 20
-2.806986481383362
 30
0.0
 11
426.0480150594457
 21
-4.656986633983362
 31
0.0
  0
LWPOLYLINE
  5
337
330
221
100
AcDbEntity
  8
0
  6
Continuous
 62
     2
100
AcDbPolyline
 90
        5
 70
     0
 43
0.0
 10
344.9659947957457
 20
-6.198651825683363
 10
345.1625621786457
 20
-7.431985260683362
 10
345.4573876180457
 20
-6.198651825683363
 10
345.6539550008457
 20
-7.431985260683362
 10
345.9488060750457
 20
-6.198651825683363
  0
LINE
  5
338
330
221
100
AcDbEntity
  8
0
  6
Continuous
 62
     2
100
AcDbLine
 10
347.0299010457456
 20
-5.581985108183364
 30
0.0
 11
347.0299010457456
 21
-5.736152588583362
 31
0.0
  0
LINE
  5
339
330
221
100
AcDbEntity
  8
0
  6
Continuous
 62
     2
100
AcDbLine
 10
347.0299010457456
 20
-6.198651825683363
 30
0.0
 11
347.0299010457456
 21
-7.431985260683362
 31
0.0
  0
LINE
  5
33A
330
221
100
AcDbEntity
  8
0
  6
Continuous
 62
     2
100
AcDbLine
 10
348.6023888387457
 20
-7.431985260683362
 30
0.0
 11
348.6023888387457
 21
-5.581985108183364
 31
0.0
  0
LINE
  5
33B
330
221
100
AcDbEntity
  8
0
  6
Continuous
 62
     2
100
AcDbLine
 10
348.3075633993457
 20
-6.352819306183363
 30
0.0
 11
348.8972399129457
 21
-6.352819306183363
 31
0.0
  0
LINE
  5
33C
330
221
100
AcDbEntity
  8
0
  6
Continuous
 62
     2
100
AcDbLine
 10
349.8800511922457
 20
-7.431985260683362
 30
0.0
 11
349.8800511922457
 21
-5.581985108183364
 31
0.0
  0
LWPOLYLINE
  5
33D
330
221
100
AcDbEntity
  8
0
  6
Continuous
 62
     2
100
AcDbPolyline
 90
        7
 70
     0
 43
0.0
 10
349.8800511922457
 20
-6.506986786583361
 10
349.8800511922457
 20
-6.352819306183363
 10
350.0766185750457
 20
-6.198651825683363
 10
350.1749022664457
 20
-6.198651825683363
 10
350.2731859579457
 20
-6.198651825683363
 10
350.4697277059457
 20
-6.506986786583361
 10
350.4697277059457
 20
-7.431985260683362
  0
LWPOLYLINE
  5
33E
330
221
100
AcDbEntity
  8
0
  6
Continuous
 62
     2
100
AcDbPolyline
 90
       11
 70
     0
 43
0.0
 10
352.1405248250456
 20
-6.969486023683363
 10
351.9439574422457
 20
-7.277820984583361
 10
351.7473900594456
 20
-7.431985260683362
 10
351.5508226766457
 20
-7.277820984583361
 10
351.3542809286457
 20
-6.969486023683363
 10
351.3542809286457
 20
-6.661154267083361
 10
351.5508226766457
 20
-6.352819306183363
 10
351.7473900594456
 20
-6.198651825683363
 10
351.9439574422457
 20
-6.352819306183363
 10
352.1405248250456
 20
-6.661154267083361
 10
352.1405248250456
 20
-6.969486023683363
  0
LWPOLYLINE
  5
33F
330
221
100
AcDbEntity
  8
0
  6
Continuous
 62
     2
100
AcDbPolyline
 90
        5
 70
     0
 43
0.0
 10
353.0250524129457
 20
-6.198651825683363
 10
353.0250524129457
 20
-7.123653504183363
 10
353.2216197957457
 20
-7.431985260683362
 10
353.4181871786457
 20
-7.431985260683362
 10
353.6147289266457
 20
-7.123653504183363
  0
LINE
  5
340
330
221
100
AcDbEntity
  8
0
  6
Continuous
 62
     2
100
AcDbLine
 10
353.6147289266457
 20
-6.198651825683363
 30
0.0
 11
353.6147289266457
 21
-7.431985260683362
 31
0.0
  0
LINE
  5
341
330
221
100
AcDbEntity
  8
0
  6
Continuous
 62
     2
100
AcDbLine
 10
354.8923912801457
 20
-7.431985260683362
 30
0.0
 11
354.8923912801457
 21
-5.581985108183364
 31
0.0
  0
LINE
  5
342
330
221
100
AcDbEntity
  8
0
  6
Continuous
 62
     2
100
AcDbLine
 10
354.5975402059457
 20
-6.352819306183363
 30
0.0
 11
355.1872423543457
 21
-6.352819306183363
 31
0.0
  0
LWPOLYLINE
  5
343
330
221
100
AcDbEntity
  8
0
  6
Continuous
 62
     2
100
AcDbPolyline
 90
       10
 70
     0
 43
0.0
 10
357.6442833700457
 20
-6.661154267083361
 10
357.8408251180457
 20
-6.352819306183363
 10
358.0373925008457
 20
-6.198651825683363
 10
358.2339598836457
 20
-6.352819306183363
 10
358.4305272664457
 20
-6.661154267083361
 10
358.4305272664457
 20
-6.969486023683363
 10
358.2339598836457
 20
-7.277820984583361
 10
358.0373925008457
 20
-7.431985260683362
 10
357.8408251180457
 20
-7.431985260683362
 10
357.6442833700457
 20
-6.969486023683363
  0
LINE
  5
344
330
221
100
AcDbEntity
  8
0
  6
Continuous
 62
     2
100
AcDbLine
 10
357.6442833700457
 20
-6.198651825683363
 30
0.0
 11
357.6442833700457
 21
-8.048651978283363
 31
0.0
  0
LINE
  5
345
330
221
100
AcDbEntity
  8
0
  6
Continuous
 62
     2
100
AcDbLine
 10
359.3150548543456
 20
-7.431985260683362
 30
0.0
 11
359.3150548543456
 21
-6.198651825683363
 31
0.0
  0
LWPOLYLINE
  5
346
330
221
100
AcDbEntity
  8
0
  6
Continuous
 62
     2
100
AcDbPolyline
 90
        4
 70
     0
 43
0.0
 10
359.3150548543456
 20
-6.506986786583361
 10
359.5116222371457
 20
-6.198651825683363
 10
359.7081896200457
 20
-6.198651825683363
 10
359.8064476766457
 20
-6.352819306183363
  0
LINE
  5
347
330
221
100
AcDbEntity
  8
0
  6
Continuous
 62
     2
100
AcDbLine
 10
361.1823937215457
 20
-5.581985108183364
 30
0.0
 11
361.1823937215457
 21
-5.736152588583362
 31
0.0
  0
LINE
  5
348
330
221
100
AcDbEntity
  8
0
  6
Continuous
 62
     2
100
AcDbLine
 10
361.1823937215457
 20
-6.198651825683363
 30
0.0
 11
361.1823937215457
 21
-7.431985260683362
 31
0.0
  0
LWPOLYLINE
  5
349
330
221
100
AcDbEntity
  8
0
  6
Continuous
 62
     2
100
AcDbPolyline
 90
       11
 70
     0
 43
0.0
 10
363.1480162801457
 20
-6.969486023683363
 10
362.9514488973457
 20
-7.277820984583361
 10
362.7549071493457
 20
-7.431985260683362
 10
362.5583397664457
 20
-7.277820984583361
 10
362.3617723836457
 20
-6.969486023683363
 10
362.3617723836457
 20
-6.661154267083361
 10
362.5583397664457
 20
-6.352819306183363
 10
362.7549071493457
 20
-6.198651825683363
 10
362.9514488973457
 20
-6.352819306183363
 10
363.1480162801457
 20
-6.661154267083361
 10
363.1480162801457
 20
-6.969486023683363
  0
LINE
  5
34A
330
221
100
AcDbEntity
  8
0
  6
Continuous
 62
     2
100
AcDbLine
 10
364.0325438680457
 20
-7.431985260683362
 30
0.0
 11
364.0325438680457
 21
-6.198651825683363
 31
0.0
  0
LWPOLYLINE
  5
34B
330
221
100
AcDbEntity
  8
0
  6
Continuous
 62
     2
100
AcDbPolyline
 90
        4
 70
     0
 43
0.0
 10
364.0325438680457
 20
-6.506986786583361
 10
364.2291112508457
 20
-6.198651825683363
 10
364.4256786336456
 20
-6.198651825683363
 10
364.5239623250457
 20
-6.352819306183363
  0
LWPOLYLINE
  5
34C
330
221
100
AcDbEntity
  8
0
  6
Continuous
 62
     2
100
AcDbPolyline
 90
       10
 70
     0
 43
0.0
 10
367.8655309286457
 20
-6.969486023683363
 10
367.6689635457457
 20
-7.277820984583361
 10
367.4723961629457
 20
-7.431985260683362
 10
367.2758287801457
 20
-7.277820984583361
 10
367.0792613973456
 20
-6.969486023683363
 10
367.0792613973456
 20
-6.661154267083361
 10
367.2758287801457
 20
-6.352819306183363
 10
367.4723961629457
 20
-6.198651825683363
 10
367.6689635457457
 20
-6.352819306183363
 10
367.8655309286457
 20
-6.661154267083361
  0
LINE
  5
34D
330
221
100
AcDbEntity
  8
0
  6
Continuous
 62
     2
100
AcDbLine
 10
367.8655309286457
 20
-6.198651825683363
 30
0.0
 11
367.8655309286457
 21
-7.431985260683362
 31
0.0
  0
LWPOLYLINE
  5
34E
330
221
100
AcDbEntity
  8
0
  6
Continuous
 62
     2
100
AcDbPolyline
 90
        5
 70
     0
 43
0.0
 10
368.7500585164457
 20
-6.198651825683363
 10
368.7500585164457
 20
-7.123653504183363
 10
368.9466258993457
 20
-7.431985260683362
 10
369.1431676473456
 20
-7.431985260683362
 10
369.3397350301457
 20
-7.123653504183363
  0
LINE
  5
34F
330
221
100
AcDbEntity
  8
0
  6
Continuous
 62
     2
100
AcDbLine
 10
369.3397350301457
 20
-6.198651825683363
 30
0.0
 11
369.3397350301457
 21
-7.431985260683362
 31
0.0
  0
LINE
  5
350
330
221
100
AcDbEntity
  8
0
  6
Continuous
 62
     2
100
AcDbLine
 10
370.6173973836457
 20
-7.431985260683362
 30
0.0
 11
370.6173973836457
 21
-5.581985108183364
 31
0.0
  0
LINE
  5
351
330
221
100
AcDbEntity
  8
0
  6
Continuous
 62
     2
100
AcDbLine
 10
370.3225463094457
 20
-6.352819306183363
 30
0.0
 11
370.9122484579457
 21
-6.352819306183363
 31
0.0
  0
LINE
  5
352
330
221
100
AcDbEntity
  8
0
  6
Continuous
 62
     2
100
AcDbLine
 10
371.8950597371457
 20
-7.431985260683362
 30
0.0
 11
371.8950597371457
 21
-5.581985108183364
 31
0.0
  0
LWPOLYLINE
  5
353
330
221
100
AcDbEntity
  8
0
  6
Continuous
 62
     2
100
AcDbPolyline
 90
        7
 70
     0
 43
0.0
 10
371.8950597371457
 20
-6.506986786583361
 10
371.8950597371457
 20
-6.352819306183363
 10
372.0916271200457
 20
-6.198651825683363
 10
372.1898851766456
 20
-6.198651825683363
 10
372.2881688680457
 20
-6.198651825683363
 10
372.4847362508457
 20
-6.506986786583361
 10
372.4847362508457
 20
-7.431985260683362
  0
LWPOLYLINE
  5
354
330
221
100
AcDbEntity
  8
0
  6
Continuous
 62
     2
100
AcDbPolyline
 90
       11
 70
     0
 43
0.0
 10
374.1555333700456
 20
-6.969486023683363
 10
373.9589659871457
 20
-7.277820984583361
 10
373.7623986043457
 20
-7.431985260683362
 10
373.5658312215457
 20
-7.277820984583361
 10
373.3692638387457
 20
-6.969486023683363
 10
373.3692638387457
 20
-6.661154267083361
 10
373.5658312215457
 20
-6.352819306183363
 10
373.7623986043457
 20
-6.198651825683363
 10
373.9589659871457
 20
-6.352819306183363
 10
374.1555333700456
 20
-6.661154267083361
 10
374.1555333700456
 20
-6.969486023683363
  0
LINE
  5
355
330
221
100
AcDbEntity
  8
0
  6
Continuous
 62
     2
100
AcDbLine
 10
375.0400609579457
 20
-7.431985260683362
 30
0.0
 11
375.0400609579457
 21
-6.198651825683363
 31
0.0
  0
LWPOLYLINE
  5
356
330
221
100
AcDbEntity
  8
0
  6
Continuous
 62
     2
100
AcDbPolyline
 90
        4
 70
     0
 43
0.0
 10
375.0400609579457
 20
-6.506986786583361
 10
375.2366027059457
 20
-6.198651825683363
 10
375.4331700887457
 20
-6.198651825683363
 10
375.5314537801457
 20
-6.352819306183363
  0
LINE
  5
357
330
221
100
AcDbEntity
  8
0
  6
Continuous
 62
     2
100
AcDbLine
 10
376.9073998250457
 20
-5.581985108183364
 30
0.0
 11
376.9073998250457
 21
-5.736152588583362
 31
0.0
  0
LINE
  5
358
330
221
100
AcDbEntity
  8
0
  6
Continuous
 62
     2
100
AcDbLine
 10
376.9073998250457
 20
-6.198651825683363
 30
0.0
 11
376.9073998250457
 21
-7.431985260683362
 31
0.0
  0
LWPOLYLINE
  5
359
330
221
100
AcDbEntity
  8
0
  6
Continuous
 62
     2
100
AcDbPolyline
 90
       14
 70
     0
 43
0.0
 10
378.6764550008457
 20
-6.352819306183363
 10
378.5781713094457
 20
-6.198651825683363
 10
378.3816039266457
 20
-6.198651825683363
 10
378.2833458700457
 20
-6.352819306183363
 10
378.2833458700457
 20
-6.506986786583361
 10
378.4798876180457
 20
-6.661154267083361
 10
378.6764550008457
 20
-6.815318543183363
 10
378.7747386922456
 20
-6.969486023683363
 10
378.7747386922456
 20
-7.123653504183363
 10
378.6764550008457
 20
-7.277820984583361
 10
378.5781713094457
 20
-7.431985260683362
 10
378.3816039266457
 20
-7.431985260683362
 10
378.2833458700457
 20
-7.277820984583361
 10
378.1850621786457
 20
-7.123653504183363
  0
LWPOLYLINE
  5
35A
330
221
100
AcDbEntity
  8
0
  6
Continuous
 62
     2
100
AcDbPolyline
 90
       10
 70
     0
 43
0.0
 10
380.4455101766457
 20
-6.969486023683363
 10
380.2489684286457
 20
-7.277820984583361
 10
380.0524010457457
 20
-7.431985260683362
 10
379.8558336629457
 20
-7.277820984583361
 10
379.6592662801457
 20
-6.969486023683363
 10
379.6592662801457
 20
-6.661154267083361
 10
379.8558336629457
 20
-6.352819306183363
 10
380.0524010457457
 20
-6.198651825683363
 10
380.2489684286457
 20
-6.352819306183363
 10
380.4455101766457
 20
-6.661154267083361
  0
LINE
  5
35B
330
221
100
AcDbEntity
  8
0
  6
Continuous
 62
     2
100
AcDbLine
 10
380.4455101766457
 20
-6.198651825683363
 30
0.0
 11
380.4455101766457
 21
-7.431985260683362
 31
0.0
  0
LINE
  5
35C
330
221
100
AcDbEntity
  8
0
  6
Continuous
 62
     2
100
AcDbLine
 10
381.6248888387457
 20
-7.431985260683362
 30
0.0
 11
381.6248888387457
 21
-5.581985108183364
 31
0.0
  0
LINE
  5
35D
330
221
100
AcDbEntity
  8
0
  6
Continuous
 62
     2
100
AcDbLine
 10
381.3300633993456
 20
-6.352819306183363
 30
0.0
 11
381.9197399129457
 21
-6.352819306183363
 31
0.0
  0
LINE
  5
35E
330
221
100
AcDbEntity
  8
0
  6
Continuous
 62
     2
100
AcDbLine
 10
383.1974022664457
 20
-5.581985108183364
 30
0.0
 11
383.1974022664457
 21
-5.736152588583362
 31
0.0
  0
LINE
  5
35F
330
221
100
AcDbEntity
  8
0
  6
Continuous
 62
     2
100
AcDbLine
 10
383.1974022664457
 20
-6.198651825683363
 30
0.0
 11
383.1974022664457
 21
-7.431985260683362
 31
0.0
  0
LWPOLYLINE
  5
360
330
221
100
AcDbEntity
  8
0
  6
Continuous
 62
     2
100
AcDbPolyline
 90
       11
 70
     0
 43
0.0
 10
385.1630248250457
 20
-6.969486023683363
 10
384.9664574422457
 20
-7.277820984583361
 10
384.7698900594457
 20
-7.431985260683362
 10
384.5733226766457
 20
-7.277820984583361
 10
384.3767809286456
 20
-6.969486023683363
 10
384.3767809286456
 20
-6.661154267083361
 10
384.5733226766457
 20
-6.352819306183363
 10
384.7698900594457
 20
-6.198651825683363
 10
384.9664574422457
 20
-6.352819306183363
 10
385.1630248250457
 20
-6.661154267083361
 10
385.1630248250457
 20
-6.969486023683363
  0
LINE
  5
361
330
221
100
AcDbEntity
  8
0
  6
Continuous
 62
     2
100
AcDbLine
 10
386.0475524129457
 20
-7.431985260683362
 30
0.0
 11
386.0475524129457
 21
-6.198651825683363
 31
0.0
  0
LWPOLYLINE
  5
362
330
221
100
AcDbEntity
  8
0
  6
Continuous
 62
     2
100
AcDbPolyline
 90
        5
 70
     0
 43
0.0
 10
386.0475524129457
 20
-6.506986786583361
 10
386.2441197957457
 20
-6.198651825683363
 10
386.4406871786456
 20
-6.198651825683363
 10
386.6372289266457
 20
-6.506986786583361
 10
386.6372289266457
 20
-7.431985260683362
  0
LWPOLYLINE
  5
363
330
221
100
AcDbEntity
  8
0
  6
Continuous
 62
     2
100
AcDbPolyline
 90
       11
 70
     0
 43
0.0
 10
389.8805138387457
 20
-6.969486023683363
 10
389.6839464559457
 20
-7.277820984583361
 10
389.4874047079457
 20
-7.431985260683362
 10
389.2908373250457
 20
-7.277820984583361
 10
389.0942699422457
 20
-6.969486023683363
 10
389.0942699422457
 20
-6.661154267083361
 10
389.2908373250457
 20
-6.352819306183363
 10
389.4874047079457
 20
-6.198651825683363
 10
389.6839464559457
 20
-6.352819306183363
 10
389.8805138387457
 20
-6.661154267083361
 10
389.8805138387457
 20
-6.969486023683363
  0
LWPOLYLINE
  5
364
330
221
100
AcDbEntity
  8
0
  6
Continuous
 62
     2
100
AcDbPolyline
 90
        5
 70
     0
 43
0.0
 10
391.0598925008456
 20
-7.431985260683362
 10
391.0598925008456
 20
-5.890320069083362
 10
391.2564598836457
 20
-5.581985108183364
 10
391.3547435750457
 20
-5.581985108183364
 10
391.4530272664456
 20
-5.736152588583362
  0
LINE
  5
365
330
221
100
AcDbEntity
  8
0
  6
Continuous
 62
     2
100
AcDbLine
 10
390.8633251180457
 20
-6.352819306183363
 30
0.0
 11
391.2564598836457
 21
-6.352819306183363
 31
0.0
  0
LWPOLYLINE
  5
366
330
221
100
AcDbEntity
  8
0
  6
Continuous
 62
     2
100
AcDbPolyline
 90
        3
 70
     0
 43
0.0
 10
393.8117589559457
 20
-5.581985108183364
 10
393.8117589559457
 20
-7.431985260683362
 10
394.5980284872457
 20
-7.431985260683362
  0
LWPOLYLINE
  5
367
330
221
100
AcDbEntity
  8
0
  6
Continuous
 62
     2
100
AcDbPolyline
 90
       19
 70
     0
 43
0.0
 10
397.8413133993457
 20
-6.969486023683363
 10
397.7430297079457
 20
-7.123653504183363
 10
397.6447460164457
 20
-7.277820984583361
 10
397.4481786336457
 20
-7.431985260683362
 10
397.2516112508457
 20
-7.431985260683362
 10
397.0550438680457
 20
-7.277820984583361
 10
396.9567601766457
 20
-7.123653504183363
 10
396.9567601766457
 20
-6.815318543183363
 10
397.3498949422457
 20
-6.352819306183363
 10
397.5464623250457
 20
-6.044487549583362
 10
397.5464623250457
 20
-5.736152588583362
 10
397.4481786336457
 20
-5.581985108183364
 10
397.2516112508457
 20
-5.581985108183364
 10
397.1533275594457
 20
-5.736152588583362
 10
397.1533275594457
 20
-6.044487549583362
 10
397.3498949422457
 20
-6.352819306183363
 10
397.7430297079457
 20
-7.123653504183363
 10
397.8413133993457
 20
-7.277820984583361
 10
397.9395714559457
 20
-7.277820984583361
  0
LWPOLYLINE
  5
368
330
221
100
AcDbEntity
  8
0
  6
Continuous
 62
     2
100
AcDbPolyline
 90
        3
 70
     0
 43
0.0
 10
400.1017613973457
 20
-5.581985108183364
 10
400.1017613973457
 20
-7.431985260683362
 10
400.8880309286457
 20
-7.431985260683362
  0
LWPOLYLINE
  5
369
330
221
100
AcDbEntity
  8
0
  6
Continuous
 62
     2
100
AcDbPolyline
 90
        3
 70
     0
 43
0.0
 10
403.2467626180457
 20
-5.581985108183364
 10
403.2467626180457
 20
-7.431985260683362
 10
404.0330321493457
 20
-7.431985260683362
  0
LWPOLYLINE
  5
36A
330
221
100
AcDbEntity
  8
0
  6
Continuous
 62
     2
100
AcDbPolyline
 90
        5
 70
     0
 43
0.0
 10
404.9175597371457
 20
-6.198651825683363
 10
404.9175597371457
 20
-7.123653504183363
 10
405.1141271200457
 20
-7.431985260683362
 10
405.3106688680457
 20
-7.431985260683362
 10
405.5072362508457
 20
-7.123653504183363
  0
LINE
  5
36B
330
221
100
AcDbEntity
  8
0
  6
Continuous
 62
     2
100
AcDbLine
 10
405.5072362508457
 20
-6.198651825683363
 30
0.0
 11
405.5072362508457
 21
-7.431985260683362
 31
0.0
  0
LWPOLYLINE
  5
36C
330
221
100
AcDbEntity
  8
0
  6
Continuous
 62
     2
100
AcDbPolyline
 90
        8
 70
     0
 43
0.0
 10
406.9814659871457
 20
-7.277820984583361
 10
406.7848986043457
 20
-7.431985260683362
 10
406.5883312215457
 20
-7.277820984583361
 10
406.3917638387456
 20
-6.969486023683363
 10
406.3917638387456
 20
-6.661154267083361
 10
406.5883312215457
 20
-6.352819306183363
 10
406.7848986043457
 20
-6.198651825683363
 10
406.9814659871457
 20
-6.352819306183363
  0
LWPOLYLINE
  5
36D
330
221
100
AcDbEntity
  8
0
  6
Continuous
 62
     2
100
AcDbPolyline
 90
       11
 70
     0
 43
0.0
 10
408.6522374715457
 20
-7.123653504183363
 10
408.5539537801457
 20
-7.277820984583361
 10
408.3573863973457
 20
-7.431985260683362
 10
408.1608446493457
 20
-7.277820984583361
 10
407.9642772664457
 20
-6.969486023683363
 10
407.9642772664457
 20
-6.661154267083361
 10
408.1608446493457
 20
-6.352819306183363
 10
408.3573863973457
 20
-6.198651825683363
 10
408.5539537801457
 20
-6.352819306183363
 10
408.6522374715457
 20
-6.661154267083361
 10
407.9642772664457
 20
-6.661154267083361
  0
LWPOLYLINE
  5
36E
330
221
100
AcDbEntity
  8
0
  6
Continuous
 62
     2
100
AcDbPolyline
 90
       19
 70
     0
 43
0.0
 10
411.9938060750457
 20
-6.969486023683363
 10
411.8955223836457
 20
-7.123653504183363
 10
411.7972386922457
 20
-7.277820984583361
 10
411.6006713094457
 20
-7.431985260683362
 10
411.4041039266457
 20
-7.431985260683362
 10
411.2075621786457
 20
-7.277820984583361
 10
411.1092784871457
 20
-7.123653504183363
 10
411.1092784871457
 20
-6.815318543183363
 10
411.5023876180456
 20
-6.352819306183363
 10
411.6989550008457
 20
-6.044487549583362
 10
411.6989550008457
 20
-5.736152588583362
 10
411.6006713094457
 20
-5.581985108183364
 10
411.4041039266457
 20
-5.581985108183364
 10
411.3058458700457
 20
-5.736152588583362
 10
411.3058458700457
 20
-6.044487549583362
 10
411.5023876180456
 20
-6.352819306183363
 10
411.8955223836457
 20
-7.123653504183363
 10
411.9938060750457
 20
-7.277820984583361
 10
412.0920897664457
 20
-7.277820984583361
  0
LWPOLYLINE
  5
36F
330
221
100
AcDbEntity
  8
0
  6
Continuous
 62
     2
100
AcDbPolyline
 90
        3
 70
     0
 43
0.0
 10
414.2542797079457
 20
-5.581985108183364
 10
414.2542797079457
 20
-7.431985260683362
 10
415.0405236043457
 20
-7.431985260683362
  0
LINE
  5
370
330
221
100
AcDbEntity
  8
0
  6
Continuous
 62
     2
100
AcDbLine
 10
416.2199022664457
 20
-5.581985108183364
 30
0.0
 11
416.2199022664457
 21
-5.736152588583362
 31
0.0
  0
LINE
  5
371
330
221
100
AcDbEntity
  8
0
  6
Continuous
 62
     2
100
AcDbLine
 10
416.2199022664457
 20
-6.198651825683363
 30
0.0
 11
416.2199022664457
 21
-7.431985260683362
 31
0.0
  0
LWPOLYLINE
  5
372
330
221
100
AcDbEntity
  8
0
  6
Continuous
 62
     2
100
AcDbPolyline
 90
       10
 70
     0
 43
0.0
 10
418.1855248250457
 20
-6.969486023683363
 10
417.9889574422457
 20
-7.277820984583361
 10
417.7923900594457
 20
-7.431985260683362
 10
417.5958226766457
 20
-7.277820984583361
 10
417.3992809286457
 20
-6.969486023683363
 10
417.3992809286457
 20
-6.661154267083361
 10
417.5958226766457
 20
-6.352819306183363
 10
417.7923900594457
 20
-6.198651825683363
 10
417.9889574422457
 20
-6.352819306183363
 10
418.1855248250457
 20
-6.661154267083361
  0
LWPOLYLINE
  5
373
330
221
100
AcDbEntity
  8
0
  6
Continuous
 62
     2
100
AcDbPolyline
 90
        6
 70
     0
 43
0.0
 10
418.1855248250457
 20
-6.198651825683363
 10
418.1855248250457
 20
-7.586152741183362
 10
418.0872411336456
 20
-7.894487702183362
 10
417.9889574422457
 20
-8.048651978283363
 10
417.5958226766457
 20
-8.048651978283363
 10
417.4975646200457
 20
-7.894487702183362
  0
LINE
  5
374
330
221
100
AcDbEntity
  8
0
  6
Continuous
 62
     2
100
AcDbLine
 10
419.0700524129457
 20
-7.431985260683362
 30
0.0
 11
419.0700524129457
 21
-5.581985108183364
 31
0.0
  0
LWPOLYLINE
  5
375
330
221
100
AcDbEntity
  8
0
  6
Continuous
 62
     2
100
AcDbPolyline
 90
        7
 70
     0
 43
0.0
 10
419.0700524129457
 20
-6.506986786583361
 10
419.0700524129457
 20
-6.352819306183363
 10
419.2666197957457
 20
-6.198651825683363
 10
419.3649034871457
 20
-6.198651825683363
 10
419.4631871786457
 20
-6.198651825683363
 10
419.6597289266457
 20
-6.506986786583361
 10
419.6597289266457
 20
-7.431985260683362
  0
LINE
  5
376
330
221
100
AcDbEntity
  8
0
  6
Continuous
 62
     2
100
AcDbLine
 10
420.9373912801457
 20
-7.431985260683362
 30
0.0
 11
420.9373912801457
 21
-5.581985108183364
 31
0.0
  0
LINE
  5
377
330
221
100
AcDbEntity
  8
0
  6
Continuous
 62
     2
100
AcDbLine
 10
420.6425402059457
 20
-6.352819306183363
 30
0.0
 11
421.2322423543457
 21
-6.352819306183363
 31
0.0
  0
LWPOLYLINE
  5
378
330
221
100
AcDbEntity
  8
0
  6
Continuous
 62
     2
100
AcDbPolyline
 90
       14
 70
     0
 43
0.0
 10
424.2789598836457
 20
-6.352819306183363
 10
424.1806761922457
 20
-6.198651825683363
 10
423.9841088094457
 20
-6.198651825683363
 10
423.8858251180457
 20
-6.352819306183363
 10
423.8858251180457
 20
-6.506986786583361
 10
424.0823925008457
 20
-6.661154267083361
 10
424.2789598836457
 20
-6.815318543183363
 10
424.3772435750457
 20
-6.969486023683363
 10
424.3772435750457
 20
-7.123653504183363
 10
424.2789598836457
 20
-7.277820984583361
 10
424.1806761922457
 20
-7.431985260683362
 10
423.9841088094457
 20
-7.431985260683362
 10
423.8858251180457
 20
-7.277820984583361
 10
423.7875414266456
 20
-7.123653504183363
  0
LWPOLYLINE
  5
379
330
221
100
AcDbEntity
  8
0
  6
Continuous
 62
     2
100
AcDbPolyline
 90
        4
 70
     0
 43
0.0
 10
425.6549059286457
 20
-7.431985260683362
 10
425.5566222371457
 20
-7.431985260683362
 10
425.5566222371457
 20
-7.277820984583361
 10
425.6549059286457
 20
-7.431985260683362
  0
LINE
  5
37A
330
221
100
AcDbEntity
  8
0
  6
Continuous
 62
     2
100
AcDbLine
 10
426.9325426473457
 20
-7.431985260683362
 30
0.0
 11
426.9325426473457
 21
-6.198651825683363
 31
0.0
  0
LWPOLYLINE
  5
37B
330
221
100
AcDbEntity
  8
0
  6
Continuous
 62
     2
100
AcDbPolyline
 90
        4
 70
     0
 43
0.0
 10
426.9325426473457
 20
-6.506986786583361
 10
427.1291100301457
 20
-6.198651825683363
 10
427.3256774129457
 20
-6.198651825683363
 10
427.4239611043457
 20
-6.352819306183363
  0
LWPOLYLINE
  5
37C
330
221
100
AcDbEntity
  8
0
  6
Continuous
 62
     2
100
AcDbPolyline
 90
        4
 70
     0
 43
0.0
 10
428.7999071493457
 20
-7.431985260683362
 10
428.7016234579457
 20
-7.431985260683362
 10
428.7016234579457
 20
-7.277820984583361
 10
428.7999071493457
 20
-7.431985260683362
  0
LINE
  5
37D
330
221
100
AcDbEntity
  8
0
  6
Continuous
 62
     2
100
AcDbLine
 10
430.3723949422456
 20
-7.431985260683362
 30
0.0
 11
430.3723949422456
 21
-5.581985108183364
 31
0.0
  0
LWPOLYLINE
  5
37E
330
221
100
AcDbEntity
  8
0
  6
Continuous
 62
     2
100
AcDbPolyline
 90
        4
 70
     0
 43
0.0
 10
431.9449083700457
 20
-7.431985260683362
 10
431.8466246786457
 20
-7.431985260683362
 10
431.8466246786457
 20
-7.277820984583361
 10
431.9449083700457
 20
-7.431985260683362
  0
LWPOLYLINE
  5
37F
330
221
100
AcDbEntity
  8
0
  6
Continuous
 62
     2
100
AcDbPolyline
 90
        5
 70
     0
 43
0.0
 10
433.5173961629457
 20
-7.431985260683362
 10
433.4191124715456
 20
-7.277820984583361
 10
433.5173961629457
 20
-7.277820984583361
 10
433.5173961629457
 20
-7.431985260683362
 10
433.3208287801457
 20
-7.740320221683362
  0
LINE
  5
380
330
221
100
AcDbEntity
  8
0
  6
Continuous
 62
     2
100
AcDbLine
 10
345.4573876180457
 20
-8.356986939183361
 30
0.0
 11
345.4573876180457
 21
-8.511154419683361
 31
0.0
  0
LINE
  5
381
330
221
100
AcDbEntity
  8
0
  6
Continuous
 62
     2
100
AcDbLine
 10
345.4573876180457
 20
-8.973653656683364
 30
0.0
 11
345.4573876180457
 21
-10.20698709178336
 31
0.0
  0
LINE
  5
382
330
221
100
AcDbEntity
  8
0
  6
Continuous
 62
     2
100
AcDbLine
 10
346.7350499715457
 20
-10.20698709178336
 30
0.0
 11
346.7350499715457
 21
-8.973653656683364
 31
0.0
  0
LWPOLYLINE
  5
383
330
221
100
AcDbEntity
  8
0
  6
Continuous
 62
     2
100
AcDbPolyline
 90
        5
 70
     0
 43
0.0
 10
346.7350499715457
 20
-9.281985413283362
 10
346.9316173543457
 20
-8.973653656683364
 10
347.1281847372456
 20
-8.973653656683364
 10
347.3247521200457
 20
-9.281985413283362
 10
347.3247521200457
 20
-10.20698709178336
  0
LWPOLYLINE
  5
384
330
221
100
AcDbEntity
  8
0
  6
Continuous
 62
     2
100
AcDbPolyline
 90
       10
 70
     0
 43
0.0
 10
350.5680113973457
 20
-9.744487854683362
 10
350.3714696493457
 20
-10.05281961128336
 10
350.1749022664457
 20
-10.20698709178336
 10
349.9783348836457
 20
-10.05281961128336
 10
349.7817675008457
 20
-9.744487854683362
 10
349.7817675008457
 20
-9.436152893783362
 10
349.9783348836457
 20
-9.127821137183362
 10
350.1749022664457
 20
-8.973653656683364
 10
350.3714696493457
 20
-9.127821137183362
 10
350.5680113973457
 20
-9.436152893783362
  0
LINE
  5
385
330
221
100
AcDbEntity
  8
0
  6
Continuous
 62
     2
100
AcDbLine
 10
350.5680113973457
 20
-8.973653656683364
 30
0.0
 11
350.5680113973457
 21
-10.20698709178336
 31
0.0
  0
LWPOLYLINE
  5
386
330
221
100
AcDbEntity
  8
0
  6
Continuous
 62
     2
100
AcDbPolyline
 90
        8
 70
     0
 43
0.0
 10
351.9439574422457
 20
-10.05281961128336
 10
351.7473900594456
 20
-10.20698709178336
 10
351.5508226766457
 20
-10.05281961128336
 10
351.3542809286457
 20
-9.744487854683362
 10
351.3542809286457
 20
-9.436152893783362
 10
351.5508226766457
 20
-9.127821137183362
 10
351.7473900594456
 20
-8.973653656683364
 10
351.9439574422457
 20
-9.127821137183362
  0
LWPOLYLINE
  5
387
330
221
100
AcDbEntity
  8
0
  6
Continuous
 62
     2
100
AcDbPolyline
 90
        8
 70
     0
 43
0.0
 10
353.5164708700457
 20
-10.05281961128336
 10
353.3199034872457
 20
-10.20698709178336
 10
353.1233361043457
 20
-10.05281961128336
 10
352.9267687215457
 20
-9.744487854683362
 10
352.9267687215457
 20
-9.436152893783362
 10
353.1233361043457
 20
-9.127821137183362
 10
353.3199034872457
 20
-8.973653656683364
 10
353.5164708700457
 20
-9.127821137183362
  0
LWPOLYLINE
  5
388
330
221
100
AcDbEntity
  8
0
  6
Continuous
 62
     2
100
AcDbPolyline
 90
       11
 70
     0
 43
0.0
 10
355.2855260457457
 20
-9.744487854683362
 10
355.0889586629457
 20
-10.05281961128336
 10
354.8923912801457
 20
-10.20698709178336
 10
354.6958238973457
 20
-10.05281961128336
 10
354.4992821493457
 20
-9.744487854683362
 10
354.4992821493457
 20
-9.436152893783362
 10
354.6958238973457
 20
-9.127821137183362
 10
354.8923912801457
 20
-8.973653656683364
 10
355.0889586629457
 20
-9.127821137183362
 10
355.2855260457457
 20
-9.436152893783362
 10
355.2855260457457
 20
-9.744487854683362
  0
LINE
  5
389
330
221
100
AcDbEntity
  8
0
  6
Continuous
 62
     2
100
AcDbLine
 10
356.1700536336457
 20
-10.20698709178336
 30
0.0
 11
356.1700536336457
 21
-8.973653656683364
 31
0.0
  0
LWPOLYLINE
  5
38A
330
221
100
AcDbEntity
  8
0
  6
Continuous
 62
     2
100
AcDbPolyline
 90
        4
 70
     0
 43
0.0
 10
356.1700536336457
 20
-9.281985413283362
 10
356.3666210164457
 20
-8.973653656683364
 10
356.5631883993457
 20
-8.973653656683364
 10
356.6614464559457
 20
-9.127821137183362
  0
LWPOLYLINE
  5
38B
330
221
100
AcDbEntity
  8
0
  6
Continuous
 62
     2
100
AcDbPolyline
 90
       10
 70
     0
 43
0.0
 10
358.4305272664457
 20
-9.744487854683362
 10
358.2339598836457
 20
-10.05281961128336
 10
358.0373925008457
 20
-10.20698709178336
 10
357.8408251180457
 20
-10.05281961128336
 10
357.6442833700457
 20
-9.744487854683362
 10
357.6442833700457
 20
-9.436152893783362
 10
357.8408251180457
 20
-9.127821137183362
 10
358.0373925008457
 20
-8.973653656683364
 10
358.2339598836457
 20
-9.127821137183362
 10
358.4305272664457
 20
-9.436152893783362
  0
LINE
  5
38C
330
221
100
AcDbEntity
  8
0
  6
Continuous
 62
     2
100
AcDbLine
 10
358.4305272664457
 20
-8.356986939183361
 30
0.0
 11
358.4305272664457
 21
-10.20698709178336
 31
0.0
  0
LWPOLYLINE
  5
38D
330
221
100
AcDbEntity
  8
0
  6
Continuous
 62
     2
100
AcDbPolyline
 90
       10
 70
     0
 43
0.0
 10
360.0030150594457
 20
-9.744487854683362
 10
359.8064476766457
 20
-10.05281961128336
 10
359.6099059286457
 20
-10.20698709178336
 10
359.4133385457457
 20
-10.05281961128336
 10
359.2167711629457
 20
-9.744487854683362
 10
359.2167711629457
 20
-9.436152893783362
 10
359.4133385457457
 20
-9.127821137183362
 10
359.6099059286457
 20
-8.973653656683364
 10
359.8064476766457
 20
-9.127821137183362
 10
360.0030150594457
 20
-9.436152893783362
  0
LINE
  5
38E
330
221
100
AcDbEntity
  8
0
  6
Continuous
 62
     2
100
AcDbLine
 10
360.0030150594457
 20
-8.973653656683364
 30
0.0
 11
360.0030150594457
 21
-10.20698709178336
 31
0.0
  0
LINE
  5
38F
330
221
100
AcDbEntity
  8
0
  6
Continuous
 62
     2
100
AcDbLine
 10
360.8875426473457
 20
-10.20698709178336
 30
0.0
 11
360.8875426473457
 21
-8.973653656683364
 31
0.0
  0
LWPOLYLINE
  5
390
330
221
100
AcDbEntity
  8
0
  6
Continuous
 62
     2
100
AcDbPolyline
 90
        5
 70
     0
 43
0.0
 10
360.8875426473457
 20
-9.281985413283362
 10
361.0841100301457
 20
-8.973653656683364
 10
361.2806774129457
 20
-8.973653656683364
 10
361.4772447957457
 20
-9.281985413283362
 10
361.4772447957457
 20
-10.20698709178336
  0
LWPOLYLINE
  5
391
330
221
100
AcDbEntity
  8
0
  6
Continuous
 62
     2
100
AcDbPolyline
 90
        8
 70
     0
 43
0.0
 10
362.9514488973457
 20
-10.05281961128336
 10
362.7549071493457
 20
-10.20698709178336
 10
362.5583397664457
 20
-10.05281961128336
 10
362.3617723836457
 20
-9.744487854683362
 10
362.3617723836457
 20
-9.436152893783362
 10
362.5583397664457
 20
-9.127821137183362
 10
362.7549071493457
 20
-8.973653656683364
 10
362.9514488973457
 20
-9.127821137183362
  0
LWPOLYLINE
  5
392
330
221
100
AcDbEntity
  8
0
  6
Continuous
 62
     2
100
AcDbPolyline
 90
       11
 70
     0
 43
0.0
 10
364.6222460164457
 20
-9.898652130883363
 10
364.5239623250457
 20
-10.05281961128336
 10
364.3273949422457
 20
-10.20698709178336
 10
364.1308275594457
 20
-10.05281961128336
 10
363.9342601766457
 20
-9.744487854683362
 10
363.9342601766457
 20
-9.436152893783362
 10
364.1308275594457
 20
-9.127821137183362
 10
364.3273949422457
 20
-8.973653656683364
 10
364.5239623250457
 20
-9.127821137183362
 10
364.6222460164457
 20
-9.436152893783362
 10
363.9342601766457
 20
-9.436152893783362
  0
LWPOLYLINE
  5
393
330
221
100
AcDbEntity
  8
0
  6
Continuous
 62
     2
100
AcDbPolyline
 90
        5
 70
     0
 43
0.0
 10
366.9809777059457
 20
-8.973653656683364
 10
367.1775450887457
 20
-10.20698709178336
 10
367.4723961629457
 20
-8.973653656683364
 10
367.6689635457457
 20
-10.20698709178336
 10
367.9638146200457
 20
-8.973653656683364
  0
LINE
  5
394
330
221
100
AcDbEntity
  8
0
  6
Continuous
 62
     2
100
AcDbLine
 10
369.0448839559457
 20
-8.356986939183361
 30
0.0
 11
369.0448839559457
 21
-8.511154419683361
 31
0.0
  0
LINE
  5
395
330
221
100
AcDbEntity
  8
0
  6
Continuous
 62
     2
100
AcDbLine
 10
369.0448839559457
 20
-8.973653656683364
 30
0.0
 11
369.0448839559457
 21
-10.20698709178336
 31
0.0
  0
LINE
  5
396
330
221
100
AcDbEntity
  8
0
  6
Continuous
 62
     2
100
AcDbLine
 10
370.6173973836457
 20
-10.20698709178336
 30
0.0
 11
370.6173973836457
 21
-8.356986939183361
 31
0.0
  0
LINE
  5
397
330
221
100
AcDbEntity
  8
0
  6
Continuous
 62
     2
100
AcDbLine
 10
370.3225463094457
 20
-9.127821137183362
 30
0.0
 11
370.9122484579457
 21
-9.127821137183362
 31
0.0
  0
LINE
  5
398
330
221
100
AcDbEntity
  8
0
  6
Continuous
 62
     2
100
AcDbLine
 10
371.8950597371457
 20
-10.20698709178336
 30
0.0
 11
371.8950597371457
 21
-8.356986939183361
 31
0.0
  0
LWPOLYLINE
  5
399
330
221
100
AcDbEntity
  8
0
  6
Continuous
 62
     2
100
AcDbPolyline
 90
        7
 70
     0
 43
0.0
 10
371.8950597371457
 20
-9.281985413283362
 10
371.8950597371457
 20
-9.127821137183362
 10
372.0916271200457
 20
-8.973653656683364
 10
372.1898851766456
 20
-8.973653656683364
 10
372.2881688680457
 20
-8.973653656683364
 10
372.4847362508457
 20
-9.281985413283362
 10
372.4847362508457
 20
-10.20698709178336
  0
LINE
  5
39A
330
221
100
AcDbEntity
  8
0
  6
Continuous
 62
     2
100
AcDbLine
 10
375.3348863973457
 20
-10.20698709178336
 30
0.0
 11
375.3348863973457
 21
-8.356986939183361
 31
0.0
  0
LINE
  5
39B
330
221
100
AcDbEntity
  8
0
  6
Continuous
 62
     2
100
AcDbLine
 10
375.0400609579457
 20
-9.127821137183362
 30
0.0
 11
375.6297374715457
 21
-9.127821137183362
 31
0.0
  0
LINE
  5
39C
330
221
100
AcDbEntity
  8
0
  6
Continuous
 62
     2
100
AcDbLine
 10
376.6125487508457
 20
-10.20698709178336
 30
0.0
 11
376.6125487508457
 21
-8.356986939183361
 31
0.0
  0
LWPOLYLINE
  5
39D
330
221
100
AcDbEntity
  8
0
  6
Continuous
 62
     2
100
AcDbPolyline
 90
        7
 70
     0
 43
0.0
 10
376.6125487508457
 20
-9.281985413283362
 10
376.6125487508457
 20
-9.127821137183362
 10
376.8091161336457
 20
-8.973653656683364
 10
376.9073998250457
 20
-8.973653656683364
 10
377.0056835164457
 20
-8.973653656683364
 10
377.2022508993457
 20
-9.281985413283362
 10
377.2022508993457
 20
-10.20698709178336
  0
LWPOLYLINE
  5
39E
330
221
100
AcDbEntity
  8
0
  6
Continuous
 62
     2
100
AcDbPolyline
 90
       11
 70
     0
 43
0.0
 10
378.7747386922456
 20
-9.898652130883363
 10
378.6764550008457
 20
-10.05281961128336
 10
378.4798876180457
 20
-10.20698709178336
 10
378.2833458700457
 20
-10.05281961128336
 10
378.0867784871457
 20
-9.744487854683362
 10
378.0867784871457
 20
-9.436152893783362
 10
378.2833458700457
 20
-9.127821137183362
 10
378.4798876180457
 20
-8.973653656683364
 10
378.6764550008457
 20
-9.127821137183362
 10
378.7747386922456
 20
-9.436152893783362
 10
378.0867784871457
 20
-9.436152893783362
  0
LINE
  5
39F
330
221
100
AcDbEntity
  8
0
  6
Continuous
 62
     2
100
AcDbLine
 10
381.6248888387457
 20
-10.20698709178336
 30
0.0
 11
381.6248888387457
 21
-8.356986939183361
 31
0.0
  0
LWPOLYLINE
  5
3A0
330
221
100
AcDbEntity
  8
0
  6
Continuous
 62
     2
100
AcDbPolyline
 90
       10
 70
     0
 43
0.0
 10
383.5905113973457
 20
-9.744487854683362
 10
383.3939696493456
 20
-10.05281961128336
 10
383.1974022664457
 20
-10.20698709178336
 10
383.0008348836457
 20
-10.05281961128336
 10
382.8042675008457
 20
-9.744487854683362
 10
382.8042675008457
 20
-9.436152893783362
 10
383.0008348836457
 20
-9.127821137183362
 10
383.1974022664457
 20
-8.973653656683364
 10
383.3939696493456
 20
-9.127821137183362
 10
383.5905113973457
 20
-9.436152893783362
  0
LINE
  5
3A1
330
221
100
AcDbEntity
  8
0
  6
Continuous
 62
     2
100
AcDbLine
 10
383.5905113973457
 20
-8.973653656683364
 30
0.0
 11
383.5905113973457
 21
-10.20698709178336
 31
0.0
  0
LWPOLYLINE
  5
3A2
330
221
100
AcDbEntity
  8
0
  6
Continuous
 62
     2
100
AcDbPolyline
 90
        5
 70
     0
 43
0.0
 10
384.2784972371457
 20
-8.973653656683364
 10
384.4750646200457
 20
-10.20698709178336
 10
384.7698900594457
 20
-8.973653656683364
 10
384.9664574422457
 20
-10.20698709178336
 10
385.2613085164457
 20
-8.973653656683364
  0
LINE
  5
3A3
330
221
100
AcDbEntity
  8
0
  6
Continuous
 62
     2
100
AcDbLine
 10
387.9148912801457
 20
-8.356986939183361
 30
0.0
 11
387.9148912801457
 21
-8.511154419683361
 31
0.0
  0
LINE
  5
3A4
330
221
100
AcDbEntity
  8
0
  6
Continuous
 62
     2
100
AcDbLine
 10
387.9148912801457
 20
-8.973653656683364
 30
0.0
 11
387.9148912801457
 21
-10.20698709178336
 31
0.0
  0
LINE
  5
3A5
330
221
100
AcDbEntity
  8
0
  6
Continuous
 62
     2
100
AcDbLine
 10
389.1925536336457
 20
-10.20698709178336
 30
0.0
 11
389.1925536336457
 21
-8.973653656683364
 31
0.0
  0
LWPOLYLINE
  5
3A6
330
221
100
AcDbEntity
  8
0
  6
Continuous
 62
     2
100
AcDbPolyline
 90
        5
 70
     0
 43
0.0
 10
389.1925536336457
 20
-9.281985413283362
 10
389.3891210164457
 20
-8.973653656683364
 10
389.5856883993457
 20
-8.973653656683364
 10
389.7822301473457
 20
-9.281985413283362
 10
389.7822301473457
 20
-10.20698709178336
  0
LWPOLYLINE
  5
3A7
330
221
100
AcDbEntity
  8
0
  6
Continuous
 62
     2
100
AcDbPolyline
 90
        5
 70
     0
 43
0.0
 10
392.6324059286457
 20
-10.20698709178336
 10
392.6324059286457
 20
-8.665318695783363
 10
392.8289476766457
 20
-8.356986939183361
 10
392.9272313680457
 20
-8.356986939183361
 10
393.0255150594457
 20
-8.511154419683361
  0
LINE
  5
3A8
330
221
100
AcDbEntity
  8
0
  6
Continuous
 62
     2
100
AcDbLine
 10
392.4358385457457
 20
-9.127821137183362
 30
0.0
 11
392.8289476766457
 21
-9.127821137183362
 31
0.0
  0
LWPOLYLINE
  5
3A9
330
221
100
AcDbEntity
  8
0
  6
Continuous
 62
     2
100
AcDbPolyline
 90
       11
 70
     0
 43
0.0
 10
394.5980284872457
 20
-9.744487854683362
 10
394.4014611043457
 20
-10.05281961128336
 10
394.2048937215457
 20
-10.20698709178336
 10
394.0083263387457
 20
-10.05281961128336
 10
393.8117589559457
 20
-9.744487854683362
 10
393.8117589559457
 20
-9.436152893783362
 10
394.0083263387457
 20
-9.127821137183362
 10
394.2048937215457
 20
-8.973653656683364
 10
394.4014611043457
 20
-9.127821137183362
 10
394.5980284872457
 20
-9.436152893783362
 10
394.5980284872457
 20
-9.744487854683362
  0
LINE
  5
3AA
330
221
100
AcDbEntity
  8
0
  6
Continuous
 62
     2
100
AcDbLine
 10
395.4825560750457
 20
-10.20698709178336
 30
0.0
 11
395.4825560750457
 21
-8.973653656683364
 31
0.0
  0
LWPOLYLINE
  5
3AB
330
221
100
AcDbEntity
  8
0
  6
Continuous
 62
     2
100
AcDbPolyline
 90
        4
 70
     0
 43
0.0
 10
395.4825560750457
 20
-9.281985413283362
 10
395.6791234579456
 20
-8.973653656683364
 10
395.8756652059457
 20
-8.973653656683364
 10
395.9739488973457
 20
-9.127821137183362
  0
LWPOLYLINE
  5
3AC
330
221
100
AcDbEntity
  8
0
  6
Continuous
 62
     2
100
AcDbPolyline
 90
        8
 70
     0
 43
0.0
 10
397.5464623250457
 20
-10.05281961128336
 10
397.3498949422457
 20
-10.20698709178336
 10
397.1533275594457
 20
-10.05281961128336
 10
396.9567601766457
 20
-9.744487854683362
 10
396.9567601766457
 20
-9.436152893783362
 10
397.1533275594457
 20
-9.127821137183362
 10
397.3498949422457
 20
-8.973653656683364
 10
397.5464623250457
 20
-9.127821137183362
  0
LWPOLYLINE
  5
3AD
330
221
100
AcDbEntity
  8
0
  6
Continuous
 62
     2
100
AcDbPolyline
 90
       11
 70
     0
 43
0.0
 10
399.2172338094456
 20
-9.898652130883363
 10
399.1189501180457
 20
-10.05281961128336
 10
398.9224083700457
 20
-10.20698709178336
 10
398.7258409872456
 20
-10.05281961128336
 10
398.5292736043457
 20
-9.744487854683362
 10
398.5292736043457
 20
-9.436152893783362
 10
398.7258409872456
 20
-9.127821137183362
 10
398.9224083700457
 20
-8.973653656683364
 10
399.1189501180457
 20
-9.127821137183362
 10
399.2172338094456
 20
-9.436152893783362
 10
398.5292736043457
 20
-9.436152893783362
  0
LWPOLYLINE
  5
3AE
330
221
100
AcDbEntity
  8
0
  6
Continuous
 62
     2
100
AcDbPolyline
 90
        4
 70
     0
 43
0.0
 10
400.4948961629457
 20
-10.20698709178336
 10
400.3966124715457
 20
-10.20698709178336
 10
400.3966124715457
 20
-10.05281961128336
 10
400.4948961629457
 20
-10.20698709178336
  0
LWPOLYLINE
  5
3AF
330
221
100
AcDbEntity
  8
0
  6
Continuous
 62
     2
100
AcDbPolyline
 90
        3
 70
     0
 43
0.0
 10
344.9659947957457
 20
-12.98198571848336
 10
345.4573876180457
 20
-11.13198556588336
 10
345.9488060750457
 20
-12.98198571848336
  0
LINE
  5
3B0
330
221
100
AcDbEntity
  8
0
  6
Continuous
 62
     2
100
AcDbLine
 10
345.1625621786457
 20
-12.36531900098336
 30
0.0
 11
345.7522386922457
 21
-12.36531900098336
 31
0.0
  0
LINE
  5
3B1
330
221
100
AcDbEntity
  8
0
  6
Continuous
 62
     2
100
AcDbLine
 10
347.0299010457456
 20
-12.98198571848336
 30
0.0
 11
347.0299010457456
 21
-11.13198556588336
 31
0.0
  0
LINE
  5
3B2
330
221
100
AcDbEntity
  8
0
  6
Continuous
 62
     2
100
AcDbLine
 10
348.6023888387457
 20
-12.98198571848336
 30
0.0
 11
348.6023888387457
 21
-11.13198556588336
 31
0.0
  0
LINE
  5
3B3
330
221
100
AcDbEntity
  8
0
  6
Continuous
 62
     2
100
AcDbLine
 10
351.4525646200457
 20
-12.98198571848336
 30
0.0
 11
351.4525646200457
 21
-11.74865228338336
 31
0.0
  0
LWPOLYLINE
  5
3B4
330
221
100
AcDbEntity
  8
0
  6
Continuous
 62
     2
100
AcDbPolyline
 90
        4
 70
     0
 43
0.0
 10
351.4525646200457
 20
-12.05698724438336
 10
351.6491063680457
 20
-11.74865228338336
 10
351.8456737508457
 20
-11.74865228338336
 10
351.9439574422457
 20
-11.90281976388336
  0
LINE
  5
3B5
330
221
100
AcDbEntity
  8
0
  6
Continuous
 62
     2
100
AcDbLine
 10
353.3199034872457
 20
-11.13198556588336
 30
0.0
 11
353.3199034872457
 21
-11.28615304638336
 31
0.0
  0
LINE
  5
3B6
330
221
100
AcDbEntity
  8
0
  6
Continuous
 62
     2
100
AcDbLine
 10
353.3199034872457
 20
-11.74865228338336
 30
0.0
 11
353.3199034872457
 21
-12.98198571848336
 31
0.0
  0
LWPOLYLINE
  5
3B7
330
221
100
AcDbEntity
  8
0
  6
Continuous
 62
     2
100
AcDbPolyline
 90
       10
 70
     0
 43
0.0
 10
355.2855260457457
 20
-12.51948648138336
 10
355.0889586629457
 20
-12.82781823798336
 10
354.8923912801457
 20
-12.98198571848336
 10
354.6958238973457
 20
-12.82781823798336
 10
354.4992821493457
 20
-12.51948648138336
 10
354.4992821493457
 20
-12.21115152048336
 10
354.6958238973457
 20
-11.90281976388336
 10
354.8923912801457
 20
-11.74865228338336
 10
355.0889586629457
 20
-11.90281976388336
 10
355.2855260457457
 20
-12.21115152048336
  0
LWPOLYLINE
  5
3B8
330
221
100
AcDbEntity
  8
0
  6
Continuous
 62
     2
100
AcDbPolyline
 90
        6
 70
     0
 43
0.0
 10
355.2855260457457
 20
-11.74865228338336
 10
355.2855260457457
 20
-13.13615319898336
 10
355.1872423543457
 20
-13.44448495558336
 10
355.0889586629457
 20
-13.59865243598336
 10
354.6958238973457
 20
-13.59865243598336
 10
354.5975402059457
 20
-13.44448495558336
  0
LINE
  5
3B9
330
221
100
AcDbEntity
  8
0
  6
Continuous
 62
     2
100
AcDbLine
 10
356.1700536336457
 20
-12.98198571848336
 30
0.0
 11
356.1700536336457
 21
-11.13198556588336
 31
0.0
  0
LWPOLYLINE
  5
3BA
330
221
100
AcDbEntity
  8
0
  6
Continuous
 62
     2
100
AcDbPolyline
 90
        7
 70
     0
 43
0.0
 10
356.1700536336457
 20
-12.05698724438336
 10
356.1700536336457
 20
-11.90281976388336
 10
356.3666210164457
 20
-11.74865228338336
 10
356.4649047079457
 20
-11.74865228338336
 10
356.5631883993457
 20
-11.74865228338336
 10
356.7597301473457
 20
-12.05698724438336
 10
356.7597301473457
 20
-12.98198571848336
  0
LINE
  5
3BB
330
221
100
AcDbEntity
  8
0
  6
Continuous
 62
     2
100
AcDbLine
 10
358.0373925008457
 20
-12.98198571848336
 30
0.0
 11
358.0373925008457
 21
-11.13198556588336
 31
0.0
  0
LINE
  5
3BC
330
221
100
AcDbEntity
  8
0
  6
Continuous
 62
     2
100
AcDbLine
 10
357.7425414266457
 20
-11.90281976388336
 30
0.0
 11
358.3322435750457
 21
-11.90281976388336
 31
0.0
  0
LWPOLYLINE
  5
3BD
330
221
100
AcDbEntity
  8
0
  6
Continuous
 62
     2
100
AcDbPolyline
 90
       14
 70
     0
 43
0.0
 10
359.8064476766457
 20
-11.90281976388336
 10
359.7081896200457
 20
-11.74865228338336
 10
359.5116222371457
 20
-11.74865228338336
 10
359.4133385457457
 20
-11.90281976388336
 10
359.4133385457457
 20
-12.05698724438336
 10
359.6099059286457
 20
-12.21115152048336
 10
359.8064476766457
 20
-12.36531900098336
 10
359.9047313680456
 20
-12.51948648138336
 10
359.9047313680456
 20
-12.67365396188336
 10
359.8064476766457
 20
-12.82781823798336
 10
359.7081896200457
 20
-12.98198571848336
 10
359.5116222371457
 20
-12.98198571848336
 10
359.4133385457457
 20
-12.82781823798336
 10
359.3150548543456
 20
-12.67365396188336
  0
LINE
  5
3BE
330
221
100
AcDbEntity
  8
0
  6
Continuous
 62
     2
100
AcDbLine
 10
362.4600560750457
 20
-12.98198571848336
 30
0.0
 11
362.4600560750457
 21
-11.74865228338336
 31
0.0
  0
LWPOLYLINE
  5
3BF
330
221
100
AcDbEntity
  8
0
  6
Continuous
 62
     2
100
AcDbPolyline
 90
        4
 70
     0
 43
0.0
 10
362.4600560750457
 20
-12.05698724438336
 10
362.6566234579457
 20
-11.74865228338336
 10
362.8531652059457
 20
-11.74865228338336
 10
362.9514488973457
 20
-11.90281976388336
  0
LWPOLYLINE
  5
3C0
330
221
100
AcDbEntity
  8
0
  6
Continuous
 62
     2
100
AcDbPolyline
 90
       11
 70
     0
 43
0.0
 10
364.6222460164457
 20
-12.67365396188336
 10
364.5239623250457
 20
-12.82781823798336
 10
364.3273949422457
 20
-12.98198571848336
 10
364.1308275594457
 20
-12.82781823798336
 10
363.9342601766457
 20
-12.51948648138336
 10
363.9342601766457
 20
-12.21115152048336
 10
364.1308275594457
 20
-11.90281976388336
 10
364.3273949422457
 20
-11.74865228338336
 10
364.5239623250457
 20
-11.90281976388336
 10
364.6222460164457
 20
-12.21115152048336
 10
363.9342601766457
 20
-12.21115152048336
  0
LWPOLYLINE
  5
3C1
330
221
100
AcDbEntity
  8
0
  6
Continuous
 62
     2
100
AcDbPolyline
 90
       14
 70
     0
 43
0.0
 10
366.0964501180457
 20
-11.90281976388336
 10
365.9981664266457
 20
-11.74865228338336
 10
365.8016246786457
 20
-11.74865228338336
 10
365.7033409871457
 20
-11.90281976388336
 10
365.7033409871457
 20
-12.05698724438336
 10
365.8999083700457
 20
-12.21115152048336
 10
366.0964501180457
 20
-12.36531900098336
 10
366.1947338094457
 20
-12.51948648138336
 10
366.1947338094457
 20
-12.67365396188336
 10
366.0964501180457
 20
-12.82781823798336
 10
365.9981664266457
 20
-12.98198571848336
 10
365.8016246786457
 20
-12.98198571848336
 10
365.7033409871457
 20
-12.82781823798336
 10
365.6050572957457
 20
-12.67365396188336
  0
LWPOLYLINE
  5
3C2
330
221
100
AcDbEntity
  8
0
  6
Continuous
 62
     2
100
AcDbPolyline
 90
       11
 70
     0
 43
0.0
 10
367.7672472371457
 20
-12.67365396188336
 10
367.6689635457457
 20
-12.82781823798336
 10
367.4723961629457
 20
-12.98198571848336
 10
367.2758287801457
 20
-12.82781823798336
 10
367.0792613973456
 20
-12.51948648138336
 10
367.0792613973456
 20
-12.21115152048336
 10
367.2758287801457
 20
-11.90281976388336
 10
367.4723961629457
 20
-11.74865228338336
 10
367.6689635457457
 20
-11.90281976388336
 10
367.7672472371457
 20
-12.21115152048336
 10
367.0792613973456
 20
-12.21115152048336
  0
LINE
  5
3C3
330
221
100
AcDbEntity
  8
0
  6
Continuous
 62
     2
100
AcDbLine
 10
368.7500585164457
 20
-12.98198571848336
 30
0.0
 11
368.7500585164457
 21
-11.74865228338336
 31
0.0
  0
LWPOLYLINE
  5
3C4
330
221
100
AcDbEntity
  8
0
  6
Continuous
 62
     2
100
AcDbPolyline
 90
        4
 70
     0
 43
0.0
 10
368.7500585164457
 20
-12.05698724438336
 10
368.9466258993457
 20
-11.74865228338336
 10
369.1431676473456
 20
-11.74865228338336
 10
369.2414513387457
 20
-11.90281976388336
  0
LWPOLYLINE
  5
3C5
330
221
100
AcDbEntity
  8
0
  6
Continuous
 62
     2
100
AcDbPolyline
 90
        3
 70
     0
 43
0.0
 10
370.3225463094457
 20
-11.74865228338336
 10
370.6173973836457
 20
-12.98198571848336
 10
370.9122484579457
 20
-11.74865228338336
  0
LWPOLYLINE
  5
3C6
330
221
100
AcDbEntity
  8
0
  6
Continuous
 62
     2
100
AcDbPolyline
 90
       11
 70
     0
 43
0.0
 10
372.4847362508457
 20
-12.67365396188336
 10
372.3864525594457
 20
-12.82781823798336
 10
372.1898851766456
 20
-12.98198571848336
 10
371.9933434286457
 20
-12.82781823798336
 10
371.7967760457457
 20
-12.51948648138336
 10
371.7967760457457
 20
-12.21115152048336
 10
371.9933434286457
 20
-11.90281976388336
 10
372.1898851766456
 20
-11.74865228338336
 10
372.3864525594457
 20
-11.90281976388336
 10
372.4847362508457
 20
-12.21115152048336
 10
371.7967760457457
 20
-12.21115152048336
  0
LWPOLYLINE
  5
3C7
330
221
100
AcDbEntity
  8
0
  6
Continuous
 62
     2
100
AcDbPolyline
 90
       10
 70
     0
 43
0.0
 10
374.1555333700456
 20
-12.51948648138336
 10
373.9589659871457
 20
-12.82781823798336
 10
373.7623986043457
 20
-12.98198571848336
 10
373.5658312215457
 20
-12.82781823798336
 10
373.3692638387457
 20
-12.51948648138336
 10
373.3692638387457
 20
-12.21115152048336
 10
373.5658312215457
 20
-11.90281976388336
 10
373.7623986043457
 20
-11.74865228338336
 10
373.9589659871457
 20
-11.90281976388336
 10
374.1555333700456
 20
-12.21115152048336
  0
LINE
  5
3C8
330
221
100
AcDbEntity
  8
0
  6
Continuous
 62
     2
100
AcDbLine
 10
374.1555333700456
 20
-11.13198556588336
 30
0.0
 11
374.1555333700456
 21
-12.98198571848336
 31
0.0
  0
LWPOLYLINE
  5
3C9
330
221
100
AcDbEntity
  8
0
  6
Continuous
 62
     2
100
AcDbPolyline
 90
        4
 70
     0
 43
0.0
 10
375.3348863973457
 20
-12.98198571848336
 10
375.2366027059457
 20
-12.98198571848336
 10
375.2366027059457
 20
-12.82781823798336
 10
375.3348863973457
 20
-12.98198571848336
  0
ACAD_TABLE
  5
3CA
330
221
100
AcDbEntity
  8
0
  6
Continuous
 62
     2
 92
     3712
310
800E00001C000000880000001D000000000000000000F03F00000000000000000000000000000000D6288436F07275400000000000000000000000000000F03F000000000000000028BF955669F1394000000000000000000000000000000000000000000000F03F0000000000000000000000000000000000000000000000
310
000000000000000000000000000000F03FB8000000260000008FC2F5285C0F3E4000000000000012C0000000000000000000000000000000000000000000000000000000000000F03F000000000000F03F0000000000000000000000000000000020000000010000000100000000000000000008409DBAF2599EE71B400000
310
000000000000000000000000F03F000000000000000000000000000000000000000000000000000000000000000000000000000000007400780074002E00730068007800000000000000B800000026000000A4703D0AD78351407B14AE47E17A0CC00000000000000000000000000000000000000000000000000000000000
310
00F03F000000000000F03F000000000000000000000000000000002000000001000000010000000000000000000C4066666666666614400000000000000000000000000000F03F000000000000000000000000000000000000000000000000000000000000000000000000000000007400780074002E007300680078000000
310
00000000B8000000260000008FC2F5285C0F3E401E85EB51B81E23C0000000000000000000000000000000000000000000000000000000000000F03F000000000000F03F000000000000000000000000000000002000000001000000010000000000000000000C40F44E05DCF33C0F400000000000000000000000000000F0
310
3F000000000000000000000000000000000000000000000000000000000000000000000000000000007400780074002E00730068007800000000000000B8000000260000008D0A9C6C03DD45401E85EB51B81E23C0000000000000000000000000000000000000000000000000000000000000F03F000000000000F03F0000
310
00000000000000000000000000002000000001000000010000000000000000000C40000000000000F83F0000000000000000000000000000F03F000000000000000000000000000000000000000000000000000000000000000000000000000000007400780074002E00730068007800000000000000B800000026000000A4
310
703D0AD783514000000000008025C0000000000000000000000000000000000000000000000000000000000000F03F000000000000F03F000000000000000000000000000000002000000001000000010000000000000000000C4097C62FBC9224F93F0000000000000000000000000000F03F000000000000000000000000
310
000000000000000000000000000000000000000000000000000000007400780074002E00730068007800000000000000B8000000260000008FC2F5285C0F3E400000000000C032C0000000000000000000000000000000000000000000000000000000000000F03F000000000000F03F000000000000000000000000000000
310
002000000001000000010000000000000000000C405A0EF450DBB61F400000000000000000000000000000F03F000000000000000000000000000000000000000000000000000000000000000000000000000000007400780074002E00730068007800000000000000B8000000260000008EA7E507AEE74C400000000000C0
310
32C0000000000000000000000000000000000000000000000000000000000000F03F000000000000F03F000000000000000000000000000000002000000001000000010000000000000000000C408C4CC0AF9124E93F0000000000000000000000000000F03F00000000000000000000000000000000000000000000000000
310
0000000000000000000000000000007400780074002E00730068007800000000000000B8000000260000008FC2F5285C0F3E400000000000C039C0000000000000000000000000000000000000000000000000000000000000F03F000000000000F03F00000000000000000000000000000000200000000100000001000000
310
000000000000044000000000000024400000000000000000000000000000F03F000000000000000000000000000000000000000000000000000000000000000000000000000000007400780074002E00730068007800000000000000B800000026000000B81E85EB51B8AE3F295C8FC2F5E83CC00000000000000000000000
310
00000000000000000000000000000000000000F03F000000000000F03F000000000000000000000000000000002000000001000000010000009A9999999999FD3F00000000000024400000000000000000000000000000F03F0000000000000000000000000000000000000000000000000000000000000000000000000000
310
00007400780074002E00730068007800000000000000B800000026000000B81E85EB51B8AE3F7EB1E4174BFE3FC0000000000000000000000000000000000000000000000000000000000000F03F000000000000F03F000000000000000000000000000000002000000001000000010000009A9999999999FD3F0000000000
310
0024400000000000000000000000000000F03F000000000000000000000000000000000000000000000000000000000000000000000000000000007400780074002E00730068007800000000000000B8000000260000008FC2F5285C8F32407EB1E4174BFE3FC0000000000000000000000000000000000000000000000000
310
000000000000F03F000000000000F03F000000000000000000000000000000002000000001000000010000009A9999999999FD3F9A99999999991E400000000000000000000000000000F03F000000000000000000000000000000000000000000000000000000000000000000000000000000007400780074002E00730068
310
007800000000000000B80000002600000033333333335B40407EB1E4174BFE3FC0000000000000000000000000000000000000000000000000000000000000F03F000000000000F03F000000000000000000000000000000002000000001000000010000009A9999999999FD3F000000000000244000000000000000000000
310
00000000F03F000000000000000000000000000000000000000000000000000000000000000000000000000000007400780074002E00730068007800000000000000B800000026000000B81E85EB51B8AE3F6A039D36D08941C0000000000000000000000000000000000000000000000000000000000000F03F0000000000
310
00F03F000000000000000000000000000000002000000001000000010000009A9999999999FD3F00000000000024400000000000000000000000000000F03F000000000000000000000000000000000000000000000000000000000000000000000000000000007400780074002E00730068007800000000000000B8000000
310
26000000B81E85EB51B8AE3F15AE47E17A1443C0000000000000000000000000000000000000000000000000000000000000F03F000000000000F03F000000000000000000000000000000002000000001000000010000009A9999999999FD3F00000000000024400000000000000000000000000000F03F00000000000000
310
0000000000000000000000000000000000000000000000000000000000000000007400780074002E007300680078000000000000005400000020000000020000000000000000000000000000000000000000000000000000000000000000805640000000000000000000000000000000000000000000000000000000000000
310
0000000000000000F03F540000002000000002000000000000000000000000000000000000000000000000000000000000000000000000000000000044C0000000000000000000000000000000000000000000000000000000000000F03F5400000020000000020000000000000000003E4000000000000000000000000000
310
0000000000000000003E400000000000003BC0000000000000000000000000000000000000000000000000000000000000F03F540000002000000002000000000000000080514000000000000000000000000000000000000000000080514000000000000028C0000000000000000000000000000000000000000000000000
310
000000000000F03F540000002000000002000000000000000080564000000000000000000000000000000000000000000080564000000000000044C0000000000000000000000000000000000000000000000000000000000000F03F5400000020000000020000000000000000003E4000000000000018C000000000000000
310
00000000000080564000000000000018C0000000000000000000000000000000000000000000000000000000000000F03F5400000020000000020000000000000000003E4000000000000028C00000000000000000000000000080564000000000000028C00000000000000000000000000000000000000000000000000000
310
00000000F03F5400000020000000020000000000000000003E4000000000000036C00000000000000000000000000080564000000000000036C0000000000000000000000000000000000000000000000000000000000000F03F54000000200000000200000000000000000000000000000000003BC0000000000000000000
310
000000008056400000000000003BC0000000000000000000000000000000000000000000000000000000000000F03F540000002000000002000000000000000000000000000000000044C00000000000000000000000000080564000000000000044C000000000000000000000000000000000000000000000000000000000
310
0000F03F080000001F000000880000001D000000000000000000F03F0000000000000000000000000000000000000000000000000000000000000000000000000000F03F0000000000000000000000000000000000000000000000000000000000000000000000000000F03F00000000000000000000000000000000000000
310
00000000000000000000000000000000000000F03F080000001F000000
100
AcDbBlockReference
  2
*T6
 10
343.1836457407456
 20
25.94301358371663
 30
0.0
100
AcDbTable
342
5B3
343
229
 11
1.0
 21
0.0
 31
0.0
 90
       54
 91
        5
 92
        5
 93
        0
 94
        0
 95
        0
 96
        0
141
6.0
141
6.0
141
10.0
141
5.0
141
13.0
142
10.0
142
10.0
142
10.0
142
40.0
142
20.0
171
     1
172
     0
173
     0
174
     0
175
     3
176
     4
 91
        1
178
     0
145
0.0
170
     5
 92
        0
301
CELL_VALUE
 93
        3
 90
        0
 91
        0
 94
        0
300

302

304
ACVALUE_END
171
     1
172
     0
173
     1
174
     0
175
     1
176
     1
 91
        0
178
     0
145
0.0
 92
        0
301
CELL_VALUE
 93
        3
 90
        0
 91
        0
 94
        0
300

302

304
ACVALUE_END
171
     1
172
     0
173
     1
174
     0
175
     1
176
     1
 91
        0
178
     0
145
0.0
 92
        0
301
CELL_VALUE
 93
        3
 90
        0
 91
        0
 94
        0
300

302

304
ACVALUE_END
171
     1
172
     0
173
     0
174
     0
175
     1
176
     1
 91
       33
178
     0
145
0.0
170
     4
140
3.0
 92
        0
301
CELL_VALUE
 93
        4
 90
        4
  1
{\Ftxt.shx;\W6.976190;\H3.000000; }
 94
        0
300

302
{\Ftxt.shx;\W6.976190;\H3.000000; }
304
ACVALUE_END
171
     1
172
     0
173
     0
174
     0
175
     1
176
     1
 91
       32
178
     0
145
0.0
140
3.5
 92
        0
301
CELL_VALUE
 93
        4
 90
        4
  1
{\Ftxt.shx;\W5.100000;\H3.500000; }
 94
        0
300

302
{\Ftxt.shx;\W5.100000;\H3.500000; }
304
ACVALUE_END
171
     1
172
     0
173
     1
174
     0
175
     1
176
     1
 91
        0
178
     0
145
0.0
 92
        0
301
CELL_VALUE
 93
        3
 90
        0
 91
        0
 94
        0
300

302

304
ACVALUE_END
171
     1
172
     0
173
     1
174
     0
175
     1
176
     1
 91
        0
178
     0
145
0.0
 92
        0
301
CELL_VALUE
 93
        3
 90
        0
 91
        0
 94
        0
300

302

304
ACVALUE_END
171
     1
172
     0
173
     1
174
     0
175
     1
176
     1
 91
        0
178
     0
145
0.0
 92
        0
301
CELL_VALUE
 93
        3
 90
        0
 91
        0
 94
        0
300

302

304
ACVALUE_END
171
     1
172
     0
173
     0
174
     0
175
     1
176
     1
 91
       32
178
     0
145
0.0
140
3.5
 92
        0
301
CELL_VALUE
 93
        4
 90
        4
  1
{\Ftxt.shx;\W3.904762;\H3.500000; }{\Ftxt.shx;\W1.500000;\H3.500000; }
 94
        0
300

302
{\Ftxt.shx;\W3.904762;\H3.500000; }{\Ftxt.shx;\W1.500000;\H3.500000; }
304
ACVALUE_END
171
     1
172
     0
173
     0
174
     0
175
     1
176
     1
 91
       33
178
     0
145
0.0
170
     4
140
3.5
 92
        0
301
CELL_VALUE
 93
        4
 90
        4
  1
{\Ftxt.shx;\W1.571429;\H3.500000; }
 94
        0
300

302
{\Ftxt.shx;\W1.571429;\H3.500000; }
304
ACVALUE_END
171
     1
172
     0
173
     1
174
     0
175
     1
176
     1
 91
        0
178
     0
145
0.0
 92
        0
301
CELL_VALUE
 93
        3
 90
        0
 91
        0
 94
        0
300

302

304
ACVALUE_END
171
     1
172
     0
173
     1
174
     0
175
     1
176
     1
 91
        0
178
     0
145
0.0
 92
        0
301
CELL_VALUE
 93
        3
 90
        0
 91
        0
 94
        0
300

302

304
ACVALUE_END
171
     1
172
     0
173
     1
174
     0
175
     1
176
     1
 91
        0
178
     0
145
0.0
 92
        0
301
CELL_VALUE
 93
        3
 90
        0
 91
        0
 94
        0
300

302

304
ACVALUE_END
171
     1
172
     0
173
     0
174
     0
175
     2
176
     1
 91
       33
178
     0
145
0.0
170
     4
140
3.5
 92
        0
301
CELL_VALUE
 93
        4
 90
        4
  1
{\Ftxt.shx;\W7.928571;\H3.500000; }{\Ftxt.shx;\W0.785714;\H3.500000; }
 94
        0
300

302
{\Ftxt.shx;\W7.928571;\H3.500000; }{\Ftxt.shx;\W0.785714;\H3.500000; }
304
ACVALUE_END
171
     1
172
     0
173
     1
174
     0
175
     1
176
     1
 91
        0
178
     0
145
0.0
 92
        0
301
CELL_VALUE
 93
        3
 90
        0
 91
        0
 94
        0
300

302

304
ACVALUE_END
171
     1
172
     0
173
     1
174
     0
175
     1
176
     1
 91
        0
178
     0
145
0.0
 92
        0
301
CELL_VALUE
 93
        3
 90
        0
 91
        0
 94
        0
300

302

304
ACVALUE_END
171
     1
172
     0
173
     1
174
     0
175
     1
176
     1
 91
        0
178
     0
145
0.0
 92
        0
301
CELL_VALUE
 93
        3
 90
        0
 91
        0
 94
        0
300

302

304
ACVALUE_END
171
     1
172
     0
173
     1
174
     0
175
     1
176
     1
 91
        0
178
     0
145
0.0
 92
        0
301
CELL_VALUE
 93
        3
 90
        0
 91
        0
 94
        0
300

302

304
ACVALUE_END
171
     1
172
     0
173
     0
174
     0
175
     2
176
     1
 91
       33
178
     0
145
0.0
170
     4
140
2.5
 92
        0
301
CELL_VALUE
 93
        4
 90
        4
  1
{\Ftxt.shx;\W11.333333;\H2.500000; }
 94
        0
300

302
{\Ftxt.shx;\W11.333333;\H2.500000; }
304
ACVALUE_END
171
     1
172
     0
173
     1
174
     0
175
     1
176
     1
 91
        0
178
     0
145
0.0
 92
        0
301
CELL_VALUE
 93
        3
 90
        0
 91
        0
 94
        0
300

302

304
ACVALUE_END
171
     1
172
     0
173
     0
174
     0
175
     5
176
     1
 91
       32
178
     0
145
0.0
140
1.85
 92
        0
301
CELL_VALUE
 93
        4
 90
        4
  1
{\Ftxt.shx;\W45.050000;\H1.850000; }\P{\Ftxt.shx;\W28.050000;\H1.850000; }{\Ftxt.shx;\W7.650000;\H1.850000; }{\Ftxt.shx;\W13.600000;\H1.850000; }\P{\Ftxt.shx;\W31.450000;\H1.850000; }\P{\Ftxt.shx;\W17.000000;\H1.850000; }
 94
        0
300

302
{\Ftxt.shx;\W45.050000;\H1.850000; }\P{\Ftxt.shx;\W28.050000;\H1.850000; }{\Ftxt.shx;\W7.650000;\H1.850000; }{\Ftxt.shx;\W13.600000;\H1.850000; }\P{\Ftxt.shx;\W31.450000;\H1.850000; }\P{\Ftxt.shx;\W17.000000;\H1.850000; }
304
ACVALUE_END
171
     1
172
     0
173
     1
174
     0
175
     1
176
     1
 91
        0
178
     0
145
0.0
 92
        0
301
CELL_VALUE
 93
        3
 90
        0
 91
        0
 94
        0
300

302

304
ACVALUE_END
171
     1
172
     0
173
     1
174
     0
175
     1
176
     1
 91
        0
178
     0
145
0.0
 92
        0
301
CELL_VALUE
 93
        3
 90
        0
 91
        0
 94
        0
300

302

304
ACVALUE_END
171
     1
172
     0
173
     1
174
     0
175
     1
176
     1
 91
        0
178
     0
145
0.0
 92
        0
301
CELL_VALUE
 93
        3
 90
        0
 91
        0
 94
        0
300

302

304
ACVALUE_END
171
     1
172
     0
173
     1
174
     0
175
     1
176
     1
 91
        0
178
     0
145
0.0
 92
        0
301
CELL_VALUE
 93
        3
 90
        0
 91
        0
 94
        0
300

302

304
ACVALUE_END
  0
LINE
  5
3FC
330
221
100
AcDbEntity
  8
7_ALL_FEATURES
  6
Continuous
 62
     7
100
AcDbLine
 10
30.7962637607
 20
154.0803076725343
 30
0.0
 11
30.7962637607
 21
75.58030767253427
 31
0.0
  0
LINE
  5
3FD
330
221
100
AcDbEntity
  8
7_ALL_FEATURES
  6
Continuous
 62
     7
100
AcDbLine
 10
31.29626376069999
 20
154.0803076725343
 30
0.0
 11
31.29626376069999
 21
75.58030767253427
 31
0.0
  0
LINE
  5
3FE
330
221
100
AcDbEntity
  8
7_ALL_FEATURES
  6
Continuous
 62
     7
100
AcDbLine
 10
42.9962637607
 20
128.1303076725343
 30
0.0
 11
42.9962637607
 21
148.0303076725343
 31
0.0
  0
LINE
  5
3FF
330
221
100
AcDbEntity
  8
7_ALL_FEATURES
  6
Continuous
 62
     7
100
AcDbLine
 10
43.49626376069999
 20
128.1303076725343
 30
0.0
 11
43.49626376069999
 21
148.0303076725343
 31
0.0
  0
LINE
  5
400
330
221
100
AcDbEntity
  8
7_ALL_FEATURES
  6
Continuous
 62
     7
100
AcDbLine
 10
44.12126376069999
 20
148.8303076725343
 30
0.0
 11
44.12126376069999
 21
127.3303076725342
 31
0.0
  0
LINE
  5
401
330
221
100
AcDbEntity
  8
7_ALL_FEATURES
  6
Continuous
 62
     9
100
AcDbLine
 10
46.2962637607
 20
151.3303076725343
 30
0.0
 11
46.2962637607
 21
150.8303076725343
 31
0.0
  0
LINE
  5
402
330
221
100
AcDbEntity
  8
7_ALL_FEATURES
  6
Continuous
 62
     9
100
AcDbLine
 10
46.2962637607
 20
124.8303076725342
 30
0.0
 11
46.2962637607
 21
125.3303076725343
 31
0.0
  0
LINE
  5
403
330
221
100
AcDbEntity
  8
7_ALL_FEATURES
  6
Continuous
 62
     7
100
AcDbLine
 10
30.7962637607
 20
154.0803076725343
 30
0.0
 11
31.29626376069999
 21
154.5803076725343
 31
0.0
  0
LINE
  5
404
330
221
100
AcDbEntity
  8
7_ALL_FEATURES
  6
Continuous
 62
     7
100
AcDbLine
 10
31.29626376069999
 20
75.08030767253433
 30
0.0
 11
30.7962637607
 21
75.58030767253427
 31
0.0
  0
LINE
  5
405
330
221
100
AcDbEntity
  8
7_ALL_FEATURES
  6
Continuous
 62
     7
100
AcDbLine
 10
39.71891349144998
 20
83.58030767253422
 30
0.0
 11
39.14156322219999
 21
84.58030767253433
 31
0.0
  0
LINE
  5
406
330
221
100
AcDbEntity
  8
7_ALL_FEATURES
  6
Continuous
 62
     7
100
AcDbLine
 10
40.87361402969999
 20
85.58030767253427
 30
0.0
 11
41.45096429894998
 21
84.58030767253433
 31
0.0
  0
LINE
  5
407
330
221
100
AcDbEntity
  8
7_ALL_FEATURES
  6
Continuous
 62
     7
100
AcDbLine
 10
45.62126376069999
 20
150.3303076725343
 30
0.0
 11
44.12126376069999
 21
148.8303076725343
 31
0.0
  0
LINE
  5
408
330
221
100
AcDbEntity
  8
7_ALL_FEATURES
  6
Continuous
 62
     7
100
AcDbLine
 10
39.14156322219999
 20
84.58030767253433
 30
0.0
 11
39.71891349144998
 21
85.58030767253427
 31
0.0
  0
LINE
  5
409
330
221
100
AcDbEntity
  8
7_ALL_FEATURES
  6
Continuous
 62
     7
100
AcDbLine
 10
41.45096429894998
 20
84.58030767253433
 30
0.0
 11
40.87361402969999
 21
83.58030767253422
 31
0.0
  0
LINE
  5
40A
330
221
100
AcDbEntity
  8
7_ALL_FEATURES
  6
Continuous
 62
     7
100
AcDbLine
 10
44.12126376069999
 20
127.3303076725342
 30
0.0
 11
45.62126376069999
 21
125.8303076725343
 31
0.0
  0
LINE
  5
40B
330
221
100
AcDbEntity
  8
7_ALL_FEATURES
  6
Continuous
 62
     7
100
AcDbLine
 10
31.29626376069999
 20
75.58030767253427
 30
0.0
 11
31.04626376069999
 21
75.33030767253427
 31
0.0
  0
LINE
  5
40C
330
221
100
AcDbEntity
  8
7_ALL_FEATURES
  6
Continuous
 62
     7
100
AcDbLine
 10
31.29626376069999
 20
154.0803076725343
 30
0.0
 11
31.04626376069999
 21
154.3303076725343
 31
0.0
  0
LINE
  5
410
330
221
100
AcDbEntity
  8
7_ALL_FEATURES
  6
Continuous
 62
     7
100
AcDbLine
 10
31.29626376069999
 20
75.08030767253433
 30
0.0
 11
324.2962637607
 21
75.08030767253433
 31
0.0
  0
LINE
  5
411
330
221
100
AcDbEntity
  8
7_ALL_FEATURES
  6
Continuous
 62
     7
100
AcDbLine
 10
31.29626376069999
 20
75.58030767253427
 30
0.0
 11
324.2962637607
 21
75.58030767253427
 31
0.0
  0
LINE
  5
412
330
221
100
AcDbEntity
  8
7_ALL_FEATURES
  6
Continuous
 62
     7
100
AcDbLine
 10
39.71891349144998
 20
83.58030767253422
 30
0.0
 11
40.87361402969999
 21
83.58030767253422
 31
0.0
  0
LINE
  5
413
330
221
100
AcDbEntity
  8
7_ALL_FEATURES
  6
Continuous
 62
     7
100
AcDbLine
 10
314.71891349145
 20
83.58030767253422
 30
0.0
 11
315.8736140297
 21
83.58030767253422
 31
0.0
  0
LINE
  5
414
330
221
100
AcDbEntity
  8
7_ALL_FEATURES
  6
Continuous
 62
     7
100
AcDbLine
 10
315.8736140297
 20
85.58030767253427
 30
0.0
 11
314.71891349145
 21
85.58030767253427
 31
0.0
  0
LINE
  5
415
330
221
100
AcDbEntity
  8
7_ALL_FEATURES
  6
Continuous
 62
     7
100
AcDbLine
 10
40.87361402969999
 20
85.58030767253427
 30
0.0
 11
39.71891349144998
 21
85.58030767253427
 31
0.0
  0
LINE
  5
417
330
221
100
AcDbEntity
  8
7_ALL_FEATURES
  6
Continuous
 62
     7
100
AcDbLine
 10
176.2962637607
 20
125.3303076725343
 30
0.0
 11
176.2962637607
 21
125.8303076725343
 31
0.0
  0
LINE
  5
418
330
221
100
AcDbEntity
  8
7_ALL_FEATURES
  6
Continuous
 62
     7
100
AcDbLine
 10
177.7962637607
 20
125.3303076725343
 30
0.0
 11
177.7962637607
 21
125.8303076725343
 31
0.0
  0
LINE
  5
41E
330
221
100
AcDbEntity
  8
7_ALL_FEATURES
  6
Continuous
 62
     7
100
AcDbLine
 10
309.2962637607
 20
124.8303076725342
 30
0.0
 11
46.2962637607
 21
124.8303076725342
 31
0.0
  0
LINE
  5
41F
330
221
100
AcDbEntity
  8
7_ALL_FEATURES
  6
Continuous
 62
     7
100
AcDbLine
 10
309.2962637607
 20
125.3303076725343
 30
0.0
 11
46.2962637607
 21
125.3303076725343
 31
0.0
  0
LINE
  5
420
330
221
100
AcDbEntity
  8
7_ALL_FEATURES
  6
Continuous
 62
     7
100
AcDbLine
 10
45.62126376069999
 20
125.8303076725343
 30
0.0
 11
309.9712637607
 21
125.8303076725343
 31
0.0
  0
LINE
  5
421
330
221
100
AcDbEntity
  8
7_ALL_FEATURES
  6
Continuous
 62
     9
100
AcDbLine
 10
312.5962637607
 20
128.1303076725343
 30
0.0
 11
312.0962637607
 21
128.1303076725343
 31
0.0
  0
LINE
  5
422
330
221
100
AcDbEntity
  8
7_ALL_FEATURES
  6
Continuous
 62
     9
100
AcDbLine
 10
42.9962637607
 20
128.1303076725343
 30
0.0
 11
43.49626376069999
 21
128.1303076725343
 31
0.0
  0
LINE
  5
423
330
221
100
AcDbEntity
  8
7_ALL_FEATURES
  6
Continuous
 62
     9
100
AcDbLine
 10
312.5962637607
 20
148.0303076725343
 30
0.0
 11
312.0962637607
 21
148.0303076725343
 31
0.0
  0
LINE
  5
424
330
221
100
AcDbEntity
  8
7_ALL_FEATURES
  6
Continuous
 62
     9
100
AcDbLine
 10
42.9962637607
 20
148.0303076725343
 30
0.0
 11
43.49626376069999
 21
148.0303076725343
 31
0.0
  0
LINE
  5
425
330
221
100
AcDbEntity
  8
7_ALL_FEATURES
  6
Continuous
 62
     7
100
AcDbLine
 10
309.9712637607
 20
150.3303076725343
 30
0.0
 11
45.62126376069999
 21
150.3303076725343
 31
0.0
  0
LINE
  5
426
330
221
100
AcDbEntity
  8
7_ALL_FEATURES
  6
Continuous
 62
     7
100
AcDbLine
 10
46.2962637607
 20
150.8303076725343
 30
0.0
 11
309.2962637607
 21
150.8303076725343
 31
0.0
  0
LINE
  5
427
330
221
100
AcDbEntity
  8
7_ALL_FEATURES
  6
Continuous
 62
     7
100
AcDbLine
 10
46.2962637607
 20
151.3303076725343
 30
0.0
 11
309.2962637607
 21
151.3303076725343
 31
0.0
  0
LINE
  5
428
330
221
100
AcDbEntity
  8
7_ALL_FEATURES
  6
Continuous
 62
     7
100
AcDbLine
 10
324.2962637607
 20
154.0803076725343
 30
0.0
 11
31.29626376069999
 21
154.0803076725343
 31
0.0
  0
LINE
  5
429
330
221
100
AcDbEntity
  8
7_ALL_FEATURES
  6
Continuous
 62
     7
100
AcDbLine
 10
324.2962637607
 20
154.5803076725343
 30
0.0
 11
31.29626376069999
 21
154.5803076725343
 31
0.0
  0
LINE
  5
42A
330
221
100
AcDbEntity
  8
7_ALL_FEATURES
  6
Continuous
 62
     7
100
AcDbLine
 10
324.5462637607
 20
154.3303076725343
 30
0.0
 11
324.2962637607
 21
154.0803076725343
 31
0.0
  0
LINE
  5
42D
330
221
100
AcDbEntity
  8
7_ALL_FEATURES
  6
Continuous
 62
     7
100
AcDbLine
 10
324.2962637607
 20
75.58030767253427
 30
0.0
 11
324.5462637607
 21
75.33030767253427
 31
0.0
  0
LINE
  5
42E
330
221
100
AcDbEntity
  8
7_ALL_FEATURES
  6
Continuous
 62
     7
100
AcDbLine
 10
309.9712637607
 20
125.8303076725343
 30
0.0
 11
311.4712637607
 21
127.3303076725342
 31
0.0
  0
LINE
  5
430
330
221
100
AcDbEntity
  8
7_ALL_FEATURES
  6
Continuous
 62
     7
100
AcDbLine
 10
314.71891349145
 20
83.58030767253422
 30
0.0
 11
314.1415632222
 21
84.58030767253433
 31
0.0
  0
LINE
  5
431
330
221
100
AcDbEntity
  8
7_ALL_FEATURES
  6
Continuous
 62
     7
100
AcDbLine
 10
315.8736140297
 20
85.58030767253427
 30
0.0
 11
316.45096429895
 21
84.58030767253433
 31
0.0
  0
LINE
  5
432
330
221
100
AcDbEntity
  8
7_ALL_FEATURES
  6
Continuous
 62
     7
100
AcDbLine
 10
311.4712637607
 20
148.8303076725343
 30
0.0
 11
309.9712637607
 21
150.3303076725343
 31
0.0
  0
LINE
  5
433
330
221
100
AcDbEntity
  8
7_ALL_FEATURES
  6
Continuous
 62
     9
100
AcDbLine
 10
309.2962637607
 20
151.3303076725343
 30
0.0
 11
309.2962637607
 21
150.8303076725343
 31
0.0
  0
LINE
  5
434
330
221
100
AcDbEntity
  8
7_ALL_FEATURES
  6
Continuous
 62
     9
100
AcDbLine
 10
309.2962637607
 20
124.8303076725342
 30
0.0
 11
309.2962637607
 21
125.3303076725343
 31
0.0
  0
LINE
  5
435
330
221
100
AcDbEntity
  8
7_ALL_FEATURES
  6
Continuous
 62
     7
100
AcDbLine
 10
314.1415632222
 20
84.58030767253433
 30
0.0
 11
314.71891349145
 21
85.58030767253427
 31
0.0
  0
LINE
  5
436
330
221
100
AcDbEntity
  8
7_ALL_FEATURES
  6
Continuous
 62
     7
100
AcDbLine
 10
324.7962637607
 20
75.58030767253427
 30
0.0
 11
324.2962637607
 21
75.08030767253433
 31
0.0
  0
LINE
  5
437
330
221
100
AcDbEntity
  8
7_ALL_FEATURES
  6
Continuous
 62
     7
100
AcDbLine
 10
324.2962637607
 20
154.5803076725343
 30
0.0
 11
324.7962637607
 21
154.0803076725343
 31
0.0
  0
LINE
  5
438
330
221
100
AcDbEntity
  8
7_ALL_FEATURES
  6
Continuous
 62
     7
100
AcDbLine
 10
311.4712637607
 20
127.3303076725342
 30
0.0
 11
311.4712637607
 21
148.8303076725343
 31
0.0
  0
LINE
  5
439
330
221
100
AcDbEntity
  8
7_ALL_FEATURES
  6
Continuous
 62
     7
100
AcDbLine
 10
312.0962637607
 20
148.0303076725343
 30
0.0
 11
312.0962637607
 21
128.1303076725343
 31
0.0
  0
LINE
  5
43A
330
221
100
AcDbEntity
  8
7_ALL_FEATURES
  6
Continuous
 62
     7
100
AcDbLine
 10
312.5962637607
 20
148.0303076725343
 30
0.0
 11
312.5962637607
 21
128.1303076725343
 31
0.0
  0
LINE
  5
43B
330
221
100
AcDbEntity
  8
7_ALL_FEATURES
  6
Continuous
 62
     7
100
AcDbLine
 10
324.2962637607
 20
75.58030767253427
 30
0.0
 11
324.2962637607
 21
154.0803076725343
 31
0.0
  0
LINE
  5
43C
330
221
100
AcDbEntity
  8
7_ALL_FEATURES
  6
Continuous
 62
     7
100
AcDbLine
 10
324.7962637607
 20
75.58030767253427
 30
0.0
 11
324.7962637607
 21
154.0803076725343
 31
0.0
  0
LINE
  5
43D
330
221
100
AcDbEntity
  8
7_ALL_FEATURES
  6
Continuous
 62
     7
100
AcDbLine
 10
316.45096429895
 20
84.58030767253433
 30
0.0
 11
315.8736140297
 21
83.58030767253422
 31
0.0
  0
LINE
  5
444
330
221
100
AcDbEntity
  8
7_ALL_FEATURES
  6
Continuous
 62
     7
100
AcDbLine
 10
30.7962637607
 20
218.0958331854
 30
0.0
 11
30.7962637607
 21
190.0958331854
 31
0.0
  0
LINE
  5
445
330
221
100
AcDbEntity
  8
7_ALL_FEATURES
  6
Continuous
 62
     7
100
AcDbLine
 10
31.29626376069999
 20
218.0958331854
 30
0.0
 11
31.29626376069999
 21
190.0958331854
 31
0.0
  0
LINE
  5
446
330
221
100
AcDbEntity
  8
7_ALL_FEATURES
  6
Continuous
 62
     7
100
AcDbLine
 10
32.7962637607
 20
210.5958331854
 30
0.0
 11
32.7962637607
 21
197.5958331854
 31
0.0
  0
LINE
  5
447
330
221
100
AcDbEntity
  8
7_ALL_FEATURES
  6
Continuous
 62
     7
100
AcDbLine
 10
33.2962637607
 20
210.5958331854
 30
0.0
 11
33.2962637607
 21
197.5958331854
 31
0.0
  0
LINE
  5
448
330
221
100
AcDbEntity
  8
7_ALL_FEATURES
  6
Continuous
 62
     7
100
AcDbLine
 10
33.79626376069999
 20
198.0958331854
 30
0.0
 11
33.79626376069999
 21
210.0958331854
 31
0.0
  0
LINE
  5
449
330
221
100
AcDbEntity
  8
7_ALL_FEATURES
  6
Continuous
 62
     9
100
AcDbLine
 10
39.29626376069999
 20
191.5958331854
 30
0.0
 11
39.29626376069999
 21
191.0958331854
 31
0.0
  0
LINE
  5
44A
330
221
100
AcDbEntity
  8
7_ALL_FEATURES
  6
Continuous
 62
     9
100
AcDbLine
 10
39.29626376069999
 20
216.5958331854
 30
0.0
 11
39.29626376069999
 21
217.0958331854
 31
0.0
  0
LINE
  5
44B
330
221
100
AcDbEntity
  8
02___PRT_ALL_AXES
  6
Continuous
 62
     7
100
AcDbLine
 10
53.2962637607
 20
206.5958331854
 30
0.0
 11
53.2962637607
 21
201.5958331854
 31
0.0
  0
LINE
  5
44C
330
221
100
AcDbEntity
  8
06___PRT_ALL_SURFS
  6
Continuous
 62
     7
100
AcDbLine
 10
56.24626376069999
 20
207.4658331854
 30
0.0
 11
56.24626376069999
 21
207.5658331854
 31
0.0
  0
LINE
  5
44D
330
221
100
AcDbEntity
  8
06___PRT_ALL_SURFS
  6
Continuous
 62
     7
100
AcDbLine
 10
56.34626376069998
 20
207.4658331854
 30
0.0
 11
56.34626376069998
 21
208.2458331854001
 31
0.0
  0
LINE
  5
44E
330
221
100
AcDbEntity
  8
02___PRT_ALL_AXES
  6
Continuous
 62
     7
100
AcDbLine
 10
58.2962637607
 20
201.5958331854
 30
0.0
 11
58.2962637607
 21
206.5958331854
 31
0.0
  0
LINE
  5
44F
330
221
100
AcDbEntity
  8
7_ALL_FEATURES
  6
Continuous
 62
     7
100
AcDbLine
 10
30.7962637607
 20
190.0958331854
 30
0.0
 11
31.29626376069999
 21
189.5958331854
 31
0.0
  0
LINE
  5
450
330
221
100
AcDbEntity
  8
7_ALL_FEATURES
  6
Continuous
 62
     7
100
AcDbLine
 10
38.85288808769999
 20
204.0958331854
 30
0.0
 11
39.57457592419999
 21
202.8458331854
 31
0.0
  0
LINE
  5
451
330
221
100
AcDbEntity
  8
7_ALL_FEATURES
  6
Continuous
 62
     7
100
AcDbLine
 10
41.73963943344999
 20
204.0958331854
 30
0.0
 11
41.01795159695
 21
205.3458331854
 31
0.0
  0
LINE
  5
452
330
221
100
AcDbEntity
  8
7_ALL_FEATURES
  6
Continuous
 62
     7
100
AcDbLine
 10
39.57457592419999
 20
205.3458331854
 30
0.0
 11
38.85288808769999
 21
204.0958331854
 31
0.0
  0
LINE
  5
453
330
221
100
AcDbEntity
  8
7_ALL_FEATURES
  6
Continuous
 62
     7
100
AcDbLine
 10
41.01795159695
 20
202.8458331854
 30
0.0
 11
41.73963943344999
 21
204.0958331854
 31
0.0
  0
LINE
  5
454
330
221
100
AcDbEntity
  8
7_ALL_FEATURES
  6
Continuous
 62
     7
100
AcDbLine
 10
31.29626376069999
 20
218.5958331854
 30
0.0
 11
30.7962637607
 21
218.0958331854
 31
0.0
  0
LINE
  5
455
330
221
100
AcDbEntity
  8
7_ALL_FEATURES
  6
Continuous
 62
     7
100
AcDbLine
 10
72.79626376069999
 20
214.0958331854
 30
0.0
 11
72.79626376069999
 21
207.0958331854
 31
0.0
  0
LINE
  5
456
330
221
100
AcDbEntity
  8
7_ALL_FEATURES
  6
Continuous
 62
     7
100
AcDbLine
 10
31.29626376069999
 20
218.0958331854
 30
0.0
 11
31.04626376069999
 21
218.3458331854
 31
0.0
  0
LINE
  5
457
330
221
100
AcDbEntity
  8
06___PRT_ALL_SURFS
  6
Continuous
 62
     7
100
AcDbLine
 10
88.6454193872
 20
200.5560308569001
 30
0.0
 11
88.6454193872
 21
200.31026508765
 31
0.0
  0
LINE
  5
458
330
221
100
AcDbEntity
  8
02___PRT_ALL_AXES
  6
Continuous
 62
     7
100
AcDbLine
 10
88.94626376069998
 20
199.0958331854
 30
0.0
 11
88.94626376069998
 21
199.3458331854
 31
0.0
  0
LINE
  5
459
330
221
100
AcDbEntity
  8
02___PRT_ALL_AXES
  6
Continuous
 62
     7
100
AcDbLine
 10
89.6462637607
 20
199.3458331854
 30
0.0
 11
89.6462637607
 21
199.0958331854
 31
0.0
  0
LINE
  5
45A
330
221
100
AcDbEntity
  8
06___PRT_ALL_SURFS
  6
Continuous
 62
     7
100
AcDbLine
 10
89.7357990032
 20
200.5560302584
 30
0.0
 11
89.7357990032
 21
200.36099592165
 31
0.0
  0
LINE
  5
45B
330
221
100
AcDbEntity
  8
06___PRT_ALL_SURFS
  6
Continuous
 62
     7
100
AcDbLine
 10
89.94710813394998
 20
200.5560302584
 30
0.0
 11
89.94710813394998
 21
200.31026508765
 31
0.0
  0
LINE
  5
45C
330
221
100
AcDbEntity
  8
7_ALL_FEATURES
  6
Continuous
 62
     7
100
AcDbLine
 10
31.29626376069999
 20
190.0958331854
 30
0.0
 11
31.04626376069999
 21
189.8458331854
 31
0.0
  0
LINE
  5
45D
330
221
100
AcDbEntity
  8
02___PRT_ALL_AXES
  6
Continuous
 62
     7
100
AcDbLine
 10
95.7962637607
 20
200.0958331854
 30
0.0
 11
95.7962637607
 21
199.0958331854
 31
0.0
  0
LINE
  5
45E
330
221
100
AcDbEntity
  8
7_ALL_FEATURES
  6
Continuous
 62
     7
100
AcDbLine
 10
88.5745759242
 20
211.8458331854
 30
0.0
 11
87.85288808770001
 21
210.5958331854
 31
0.0
  0
LINE
  5
45F
330
221
100
AcDbEntity
  8
06___PRT_ALL_SURFS
  6
Continuous
 62
     7
100
AcDbLine
 10
87.25251716345001
 20
199.8340173824
 30
0.0
 11
87.37347629519998
 21
199.6245100204001
 31
0.0
  0
LINE
  5
460
330
221
100
AcDbEntity
  8
06___PRT_ALL_SURFS
  6
Continuous
 62
     7
100
AcDbLine
 10
88.19681390995
 20
200.3792066719
 30
0.0
 11
88.29811783095
 21
200.2037431339
 31
0.0
  0
LINE
  5
461
330
221
100
AcDbEntity
  8
06___PRT_ALL_SURFS
  6
Continuous
 62
     7
100
AcDbLine
 10
88.37981298544999
 20
200.4848612374001
 30
0.0
 11
88.5006785762
 21
200.2755158934001
 31
0.0
  0
LINE
  5
462
330
221
100
AcDbEntity
  8
7_ALL_FEATURES
  6
Continuous
 62
     7
100
AcDbLine
 10
87.85288808770001
 20
210.5958331854
 30
0.0
 11
88.5745759242
 21
209.3458331854
 31
0.0
  0
LINE
  5
463
330
221
100
AcDbEntity
  8
7_ALL_FEATURES
  6
Continuous
 62
     7
100
AcDbLine
 10
100.2962637607
 20
215.0958331854
 30
0.0
 11
100.2962637607
 21
216.5958331854
 31
0.0
  0
LINE
  5
464
330
221
100
AcDbEntity
  8
7_ALL_FEATURES
  6
Continuous
 62
     9
100
AcDbLine
 10
100.9372846812
 20
215.0958331854
 30
0.0
 11
100.9372846812
 21
216.5958331854
 31
0.0
  0
LINE
  5
465
330
221
100
AcDbEntity
  8
02___PRT_ALL_AXES
  6
Continuous
 62
     7
100
AcDbLine
 10
102.2962637607
 20
200.5958331854
 30
0.0
 11
102.2962637607
 21
199.0958331854
 31
0.0
  0
LINE
  5
466
330
221
100
AcDbEntity
  8
7_ALL_FEATURES
  6
Continuous
 62
     9
100
AcDbLine
 10
106.15524283995
 20
215.0958331854
 30
0.0
 11
106.15524283995
 21
216.5958331854
 31
0.0
  0
LINE
  5
467
330
221
100
AcDbEntity
  8
7_ALL_FEATURES
  6
Continuous
 62
     7
100
AcDbLine
 10
106.7962637607
 20
199.5373516254001
 30
0.0
 11
106.7962637607
 21
216.5958331854
 31
0.0
  0
LINE
  5
468
330
221
100
AcDbEntity
  8
7_ALL_FEATURES
  6
Continuous
 62
     9
100
AcDbLine
 10
108.7962637607
 20
199.5373516254001
 30
0.0
 11
108.7962637607
 21
216.5958331854
 31
0.0
  0
LINE
  5
469
330
221
100
AcDbEntity
  8
7_ALL_FEATURES
  6
Continuous
 62
     7
100
AcDbLine
 10
90.01795159695
 20
209.3458331854
 30
0.0
 11
90.73963943345
 21
210.5958331854
 31
0.0
  0
LINE
  5
46A
330
221
100
AcDbEntity
  8
06___PRT_ALL_SURFS
  6
Continuous
 62
     7
100
AcDbLine
 10
86.74260179944999
 20
199.1921785829001
 30
0.0
 11
86.68697675819998
 21
199.0958331854
 31
0.0
  0
LINE
  5
46B
330
221
100
AcDbEntity
  8
06___PRT_ALL_SURFS
  6
Continuous
 62
     7
100
AcDbLine
 10
87.05808008195
 20
199.6395794831501
 30
0.0
 11
86.95242551644999
 21
199.45658040765
 31
0.0
  0
LINE
  5
46C
330
221
100
AcDbEntity
  8
06___PRT_ALL_SURFS
  6
Continuous
 62
     7
100
AcDbLine
 10
90.21271483495
 20
200.4848617559001
 30
0.0
 11
90.09184894494997
 21
200.2755158934001
 31
0.0
  0
LINE
  5
46D
330
221
100
AcDbEntity
  8
06___PRT_ALL_SURFS
  6
Continuous
 62
     7
100
AcDbLine
 10
91.15701098294998
 20
199.9396714294001
 30
0.0
 11
91.0556340667
 21
199.7640814599
 31
0.0
  0
LINE
  5
46E
330
221
100
AcDbEntity
  8
06___PRT_ALL_SURFS
  6
Continuous
 62
     7
100
AcDbLine
 10
91.34001005844998
 20
199.8340168639
 30
0.0
 11
91.21905122595
 21
199.6245100204001
 31
0.0
  0
LINE
  5
46F
330
221
100
AcDbEntity
  8
7_ALL_FEATURES
  6
Continuous
 62
     7
100
AcDbLine
 10
90.73963943345
 20
210.5958331854
 30
0.0
 11
90.01795159695
 21
211.8458331854
 31
0.0
  0
LINE
  5
470
330
221
100
AcDbEntity
  8
7_ALL_FEATURES
  6
Continuous
 62
     9
100
AcDbLine
 10
108.6490909472
 20
199.0958331854
 30
0.0
 11
108.7962637607
 21
199.5373516254001
 31
0.0
  0
LINE
  5
471
330
221
100
AcDbEntity
  8
06___PRT_ALL_SURFS
  6
Continuous
 62
     7
100
AcDbLine
 10
86.95242551644999
 20
199.45658040765
 30
0.0
 11
87.1280154862
 21
199.3552034914001
 31
0.0
  0
LINE
  5
472
330
221
100
AcDbEntity
  8
06___PRT_ALL_SURFS
  6
Continuous
 62
     7
100
AcDbLine
 10
87.05808008195
 20
199.6395794831501
 30
0.0
 11
87.26758692545
 21
199.51862065065
 31
0.0
  0
LINE
  5
473
330
221
100
AcDbEntity
  8
06___PRT_ALL_SURFS
  6
Continuous
 62
     7
100
AcDbLine
 10
91.34001005844998
 20
199.8340168639
 30
0.0
 11
91.15701098294998
 21
199.9396714294001
 31
0.0
  0
LINE
  5
474
330
221
100
AcDbEntity
  8
06___PRT_ALL_SURFS
  6
Continuous
 62
     7
100
AcDbLine
 10
90.89260915819999
 20
200.1494951466501
 30
0.0
 11
90.70961008295
 21
200.2551497119001
 31
0.0
  0
LINE
  5
475
330
221
100
AcDbEntity
  8
06___PRT_ALL_SURFS
  6
Continuous
 62
     7
100
AcDbLine
 10
87.88290032844999
 20
200.25513983365
 30
0.0
 11
87.69990125295
 21
200.14948526815
 31
0.0
  0
LINE
  5
476
330
221
100
AcDbEntity
  8
06___PRT_ALL_SURFS
  6
Continuous
 62
     7
100
AcDbLine
 10
88.37981298544999
 20
200.4848612374001
 30
0.0
 11
88.19681390995
 21
200.3792066719
 31
0.0
  0
LINE
  5
477
330
221
100
AcDbEntity
  8
06___PRT_ALL_SURFS
  6
Continuous
 62
     7
100
AcDbLine
 10
91.53444795770001
 20
199.6395797824
 30
0.0
 11
91.3249405957
 21
199.51862065065
 31
0.0
  0
LINE
  5
478
330
221
100
AcDbEntity
  8
02___PRT_ALL_AXES
  6
Continuous
 62
     7
100
AcDbLine
 10
95.7962637607
 20
199.5958331854
 30
0.0
 11
90.1353629332
 21
200.99376087415
 31
0.0
  0
LINE
  5
479
330
221
100
AcDbEntity
  8
7_ALL_FEATURES
  6
Continuous
 62
     9
100
AcDbLine
 10
108.7962637607
 20
199.5373516254001
 30
0.0
 11
110.12081908095
 21
199.0958331854
 31
0.0
  0
LINE
  5
47A
330
221
100
AcDbEntity
  8
7_ALL_FEATURES
  6
Continuous
 62
     7
100
AcDbLine
 10
324.2962637607
 20
189.5958331854
 30
0.0
 11
31.29626376069999
 21
189.5958331854
 31
0.0
  0
LINE
  5
47B
330
221
100
AcDbEntity
  8
7_ALL_FEATURES
  6
Continuous
 62
     7
100
AcDbLine
 10
324.2962637607
 20
190.0958331854
 30
0.0
 11
31.29626376069999
 21
190.0958331854
 31
0.0
  0
LINE
  5
47C
330
221
100
AcDbEntity
  8
7_ALL_FEATURES
  6
Continuous
 62
     7
100
AcDbLine
 10
39.29626376069999
 20
191.0958331854
 30
0.0
 11
316.2962637607
 21
191.0958331854
 31
0.0
  0
LINE
  5
47D
330
221
100
AcDbEntity
  8
7_ALL_FEATURES
  6
Continuous
 62
     7
100
AcDbLine
 10
39.29626376069999
 20
191.5958331854
 30
0.0
 11
316.2962637607
 21
191.5958331854
 31
0.0
  0
LINE
  5
47E
330
221
100
AcDbEntity
  8
7_ALL_FEATURES
  6
Continuous
 62
     7
100
AcDbLine
 10
315.7962637607
 20
192.0958331854
 30
0.0
 11
181.36697797495
 21
192.0958331854
 31
0.0
  0
LINE
  5
47F
330
221
100
AcDbEntity
  8
7_ALL_FEATURES
  6
Continuous
 62
     7
100
AcDbLine
 10
177.7962637607
 20
192.0958331854
 30
0.0
 11
176.2962637607
 21
192.0958331854
 31
0.0
  0
LINE
  5
480
330
221
100
AcDbEntity
  8
7_ALL_FEATURES
  6
Continuous
 62
     7
100
AcDbLine
 10
174.2255495462
 20
192.0958331854
 30
0.0
 11
39.7962637607
 21
192.0958331854
 31
0.0
  0
LINE
  5
481
330
221
100
AcDbEntity
  8
7_ALL_FEATURES
  6
Continuous
 62
     7
100
AcDbLine
 10
179.8808096447
 20
193.0958331854
 30
0.0
 11
175.71171787645
 21
193.0958331854
 31
0.0
  0
LINE
  5
482
330
221
100
AcDbEntity
  8
7_ALL_FEATURES
  6
Continuous
 62
     9
100
AcDbLine
 10
33.2962637607
 20
197.5958331854
 30
0.0
 11
32.7962637607
 21
197.5958331854
 31
0.0
  0
LINE
  5
483
330
221
100
AcDbEntity
  8
7_ALL_FEATURES
  6
Continuous
 62
     9
100
AcDbLine
 10
322.2962637607
 20
197.5958331854
 30
0.0
 11
322.7962637607
 21
197.5958331854
 31
0.0
  0
LINE
  5
484
330
221
100
AcDbEntity
  8
7_ALL_FEATURES
  6
Continuous
 62
     7
100
AcDbLine
 10
80.7962637607
 20
199.0958331854
 30
0.0
 11
274.7962637607
 21
199.0958331854
 31
0.0
  0
LINE
  5
485
330
221
100
AcDbEntity
  8
02___PRT_ALL_AXES
  6
Continuous
 62
     7
100
AcDbLine
 10
88.94626376069998
 20
199.3458331854
 30
0.0
 11
89.6462637607
 21
199.3458331854
 31
0.0
  0
LINE
  5
486
330
221
100
AcDbEntity
  8
7_ALL_FEATURES
  6
Continuous
 62
     9
100
AcDbLine
 10
108.7962637607
 20
199.5373516254001
 30
0.0
 11
106.7962637607
 21
199.5373516254001
 31
0.0
  0
LINE
  5
487
330
221
100
AcDbEntity
  8
7_ALL_FEATURES
  6
Continuous
 62
     7
100
AcDbLine
 10
77.45354447819999
 20
200.0958331854
 30
0.0
 11
76.9945601157
 21
200.0958331854
 31
0.0
  0
LINE
  5
488
330
221
100
AcDbEntity
  8
02___PRT_ALL_AXES
  6
Continuous
 62
     7
100
AcDbLine
 10
95.7962637607
 20
200.0958331854
 30
0.0
 11
102.2962637607
 21
200.0958331854
 31
0.0
  0
LINE
  5
489
330
221
100
AcDbEntity
  8
06___PRT_ALL_SURFS
  6
Continuous
 62
     7
100
AcDbLine
 10
89.94710813394998
 20
200.5560302584
 30
0.0
 11
89.7357990032
 21
200.5560302584
 31
0.0
  0
LINE
  5
48A
330
221
100
AcDbEntity
  8
02___PRT_ALL_AXES
  6
Continuous
 62
     7
100
AcDbLine
 10
102.2962637607
 20
200.5958331854
 30
0.0
 11
106.7962637607
 21
200.5958331854
 31
0.0
  0
LINE
  5
48B
330
221
100
AcDbEntity
  8
06___PRT_ALL_SURFS
  6
Continuous
 62
     7
100
AcDbLine
 10
89.4019084477
 20
200.60554201515
 30
0.0
 11
89.19059931669999
 21
200.60554201515
 31
0.0
  0
LINE
  5
48C
330
221
100
AcDbEntity
  8
02___PRT_ALL_AXES
  6
Continuous
 62
     7
100
AcDbLine
 10
297.2962637607
 20
201.5958331854
 30
0.0
 11
302.2962637607
 21
201.5958331854
 31
0.0
  0
LINE
  5
48D
330
221
100
AcDbEntity
  8
7_ALL_FEATURES
  6
Continuous
 62
     7
100
AcDbLine
 10
176.2962637607
 20
192.0958331854
 30
0.0
 11
176.2962637607
 21
193.0958331854
 31
0.0
  0
LINE
  5
48F
330
221
100
AcDbEntity
  8
7_ALL_FEATURES
  6
Continuous
 62
     7
100
AcDbLine
 10
177.7962637607
 20
192.0958331854
 30
0.0
 11
177.7962637607
 21
193.0958331854
 31
0.0
  0
LINE
  5
490
330
221
100
AcDbEntity
  8
7_ALL_FEATURES
  6
Continuous
 62
     7
100
AcDbLine
 10
39.57457592419999
 20
202.8458331854
 30
0.0
 11
41.01795159695
 21
202.8458331854
 31
0.0
  0
LINE
  5
491
330
221
100
AcDbEntity
  8
7_ALL_FEATURES
  6
Continuous
 62
     7
100
AcDbLine
 10
314.5745759242
 20
202.8458331854
 30
0.0
 11
316.01795159695
 21
202.8458331854
 31
0.0
  0
LINE
  5
492
330
221
100
AcDbEntity
  8
7_ALL_FEATURES
  6
Continuous
 62
     7
100
AcDbLine
 10
316.01795159695
 20
205.3458331854
 30
0.0
 11
314.5745759242
 21
205.3458331854
 31
0.0
  0
LINE
  5
493
330
221
100
AcDbEntity
  8
7_ALL_FEATURES
  6
Continuous
 62
     7
100
AcDbLine
 10
41.01795159695
 20
205.3458331854
 30
0.0
 11
39.57457592419999
 21
205.3458331854
 31
0.0
  0
LINE
  5
494
330
221
100
AcDbEntity
  8
02___PRT_ALL_AXES
  6
Continuous
 62
     7
100
AcDbLine
 10
302.2962637607
 20
206.5958331854
 30
0.0
 11
297.2962637607
 21
206.5958331854
 31
0.0
  0
LINE
  5
495
330
221
100
AcDbEntity
  8
06___PRT_ALL_SURFS
  6
Continuous
 62
     7
100
AcDbLine
 10
54.60808272895
 20
207.4658331854
 30
0.0
 11
56.98444479219999
 21
207.4658331854
 31
0.0
  0
LINE
  5
496
330
221
100
AcDbEntity
  8
06___PRT_ALL_SURFS
  6
Continuous
 62
     7
100
AcDbLine
 10
54.61793186919999
 20
207.5658331854
 30
0.0
 11
56.24626376069999
 21
207.5658331854
 31
0.0
  0
LINE
  5
497
330
221
100
AcDbEntity
  8
7_ALL_FEATURES
  6
Continuous
 62
     7
100
AcDbLine
 10
72.79626376069999
 20
208.0958331854
 30
0.0
 11
77.45354447819999
 21
208.0958331854
 31
0.0
  0
LINE
  5
498
330
221
100
AcDbEntity
  8
06___PRT_ALL_SURFS
  6
Continuous
 62
     7
100
AcDbLine
 10
56.34626376069998
 20
208.2458331854001
 30
0.0
 11
56.58207325194999
 21
208.2458331854001
 31
0.0
  0
LINE
  5
499
330
221
100
AcDbEntity
  8
7_ALL_FEATURES
  6
Continuous
 62
     7
100
AcDbLine
 10
72.79626376069999
 20
208.5958331854
 30
0.0
 11
77.09995302594999
 21
208.5958331854
 31
0.0
  0
LINE
  5
49A
330
221
100
AcDbEntity
  8
7_ALL_FEATURES
  6
Continuous
 62
     7
100
AcDbLine
 10
88.5745759242
 20
209.3458331854
 30
0.0
 11
90.01795159695
 21
209.3458331854
 31
0.0
  0
LINE
  5
49B
330
221
100
AcDbEntity
  8
7_ALL_FEATURES
  6
Continuous
 62
     9
100
AcDbLine
 10
33.2962637607
 20
210.5958331854
 30
0.0
 11
32.7962637607
 21
210.5958331854
 31
0.0
  0
LINE
  5
49C
330
221
100
AcDbEntity
  8
7_ALL_FEATURES
  6
Continuous
 62
     9
100
AcDbLine
 10
322.2962637607
 20
210.5958331854
 30
0.0
 11
322.7962637607
 21
210.5958331854
 31
0.0
  0
LINE
  5
49D
330
221
100
AcDbEntity
  8
7_ALL_FEATURES
  6
Continuous
 62
     7
100
AcDbLine
 10
90.01795159695
 20
211.8458331854
 30
0.0
 11
88.5745759242
 21
211.8458331854
 31
0.0
  0
LINE
  5
49F
330
221
100
AcDbEntity
  8
7_ALL_FEATURES
  6
Continuous
 62
     7
100
AcDbLine
 10
100.2962637607
 20
215.0958331854
 30
0.0
 11
106.7962637607
 21
215.0958331854
 31
0.0
  0
LINE
  5
4A0
330
221
100
AcDbEntity
  8
7_ALL_FEATURES
  6
Continuous
 62
     7
100
AcDbLine
 10
218.7962637607
 20
215.0958331854
 30
0.0
 11
223.2223744047
 21
215.0958331854
 31
0.0
  0
LINE
  5
4A1
330
221
100
AcDbEntity
  8
7_ALL_FEATURES
  6
Continuous
 62
     7
100
AcDbLine
 10
39.7962637607
 20
216.0958331854
 30
0.0
 11
70.7962637607
 21
216.0958331854
 31
0.0
  0
LINE
  5
4A2
330
221
100
AcDbEntity
  8
7_ALL_FEATURES
  6
Continuous
 62
     7
100
AcDbLine
 10
284.7962637607
 20
216.0958331854
 30
0.0
 11
315.7962637607
 21
216.0958331854
 31
0.0
  0
LINE
  5
4A3
330
221
100
AcDbEntity
  8
7_ALL_FEATURES
  6
Continuous
 62
     7
100
AcDbLine
 10
316.2962637607
 20
216.5958331854
 30
0.0
 11
39.29626376069999
 21
216.5958331854
 31
0.0
  0
LINE
  5
4A4
330
221
100
AcDbEntity
  8
7_ALL_FEATURES
  6
Continuous
 62
     7
100
AcDbLine
 10
316.2962637607
 20
217.0958331854
 30
0.0
 11
39.29626376069999
 21
217.0958331854
 31
0.0
  0
LINE
  5
4A5
330
221
100
AcDbEntity
  8
7_ALL_FEATURES
  6
Continuous
 62
     7
100
AcDbLine
 10
31.29626376069999
 20
218.0958331854
 30
0.0
 11
324.2962637607
 21
218.0958331854
 31
0.0
  0
LINE
  5
4A6
330
221
100
AcDbEntity
  8
7_ALL_FEATURES
  6
Continuous
 62
     7
100
AcDbLine
 10
31.29626376069999
 20
218.5958331854
 30
0.0
 11
324.2962637607
 21
218.5958331854
 31
0.0
  0
LINE
  5
4A7
330
221
100
AcDbEntity
  8
7_ALL_FEATURES
  6
Continuous
 62
     9
100
AcDbLine
 10
216.7962637607
 20
199.0958331854
 30
0.0
 11
216.7962637607
 21
216.5958331854
 31
0.0
  0
LINE
  5
4A9
330
221
100
AcDbEntity
  8
7_ALL_FEATURES
  6
Continuous
 62
     7
100
AcDbLine
 10
218.7962637607
 20
199.0958331854
 30
0.0
 11
218.7962637607
 21
216.5001824899
 31
0.0
  0
LINE
  5
4AA
330
221
100
AcDbEntity
  8
7_ALL_FEATURES
  6
Continuous
 62
     9
100
AcDbLine
 10
219.4372846812
 20
216.4037270504
 30
0.0
 11
219.4372846812
 21
215.0958331854
 31
0.0
  0
LINE
  5
4AD
330
221
100
AcDbEntity
  8
7_ALL_FEATURES
  6
Continuous
 62
     7
100
AcDbLine
 10
324.2962637607
 20
190.0958331854
 30
0.0
 11
324.5462637607
 21
189.8458331854
 31
0.0
  0
LINE
  5
4AE
330
221
100
AcDbEntity
  8
7_ALL_FEATURES
  6
Continuous
 62
     7
100
AcDbLine
 10
324.5462637607
 20
218.3458331854
 30
0.0
 11
324.2962637607
 21
218.0958331854
 31
0.0
  0
LINE
  5
4AF
330
221
100
AcDbEntity
  8
7_ALL_FEATURES
  6
Continuous
 62
     7
100
AcDbLine
 10
282.7962637607
 20
214.0958331854
 30
0.0
 11
282.7962637607
 21
207.0958331854
 31
0.0
  0
LINE
  5
4B0
330
221
100
AcDbEntity
  8
7_ALL_FEATURES
  6
Continuous
 62
     7
100
AcDbLine
 10
324.7962637607
 20
218.0958331854
 30
0.0
 11
324.2962637607
 21
218.5958331854
 31
0.0
  0
LINE
  5
4B1
330
221
100
AcDbEntity
  8
7_ALL_FEATURES
  6
Continuous
 62
     7
100
AcDbLine
 10
324.7962637607
 20
190.0958331854
 30
0.0
 11
324.2962637607
 21
189.5958331854
 31
0.0
  0
LINE
  5
4B2
330
221
100
AcDbEntity
  8
7_ALL_FEATURES
  6
Continuous
 62
     7
100
AcDbLine
 10
313.8528880877
 20
204.0958331854
 30
0.0
 11
314.5745759242
 21
202.8458331854
 31
0.0
  0
LINE
  5
4B3
330
221
100
AcDbEntity
  8
7_ALL_FEATURES
  6
Continuous
 62
     7
100
AcDbLine
 10
316.73963943345
 20
204.0958331854
 30
0.0
 11
316.01795159695
 21
205.3458331854
 31
0.0
  0
LINE
  5
4B4
330
221
100
AcDbEntity
  8
7_ALL_FEATURES
  6
Continuous
 62
     7
100
AcDbLine
 10
314.5745759242
 20
205.3458331854
 30
0.0
 11
313.8528880877
 21
204.0958331854
 31
0.0
  0
LINE
  5
4B5
330
221
100
AcDbEntity
  8
7_ALL_FEATURES
  6
Continuous
 62
     7
100
AcDbLine
 10
316.01795159695
 20
202.8458331854
 30
0.0
 11
316.73963943345
 21
204.0958331854
 31
0.0
  0
LINE
  5
4B6
330
221
100
AcDbEntity
  8
7_ALL_FEATURES
  6
Continuous
 62
     9
100
AcDbLine
 10
316.2962637607
 20
191.5958331854
 30
0.0
 11
316.2962637607
 21
191.0958331854
 31
0.0
  0
LINE
  5
4B7
330
221
100
AcDbEntity
  8
7_ALL_FEATURES
  6
Continuous
 62
     9
100
AcDbLine
 10
316.2962637607
 20
216.5958331854
 30
0.0
 11
316.2962637607
 21
217.0958331854
 31
0.0
  0
LINE
  5
4B8
330
221
100
AcDbEntity
  8
7_ALL_FEATURES
  6
Continuous
 62
     7
100
AcDbLine
 10
321.7962637607
 20
210.0958331854
 30
0.0
 11
321.7962637607
 21
198.0958331854
 31
0.0
  0
LINE
  5
4B9
330
221
100
AcDbEntity
  8
7_ALL_FEATURES
  6
Continuous
 62
     7
100
AcDbLine
 10
322.2962637607
 20
197.5958331854
 30
0.0
 11
322.2962637607
 21
210.5958331854
 31
0.0
  0
LINE
  5
4BA
330
221
100
AcDbEntity
  8
7_ALL_FEATURES
  6
Continuous
 62
     7
100
AcDbLine
 10
322.7962637607
 20
197.5958331854
 30
0.0
 11
322.7962637607
 21
210.5958331854
 31
0.0
  0
LINE
  5
4BB
330
221
100
AcDbEntity
  8
7_ALL_FEATURES
  6
Continuous
 62
     7
100
AcDbLine
 10
324.2962637607
 20
218.0958331854
 30
0.0
 11
324.2962637607
 21
190.0958331854
 31
0.0
  0
LINE
  5
4BC
330
221
100
AcDbEntity
  8
7_ALL_FEATURES
  6
Continuous
 62
     7
100
AcDbLine
 10
324.7962637607
 20
218.0958331854
 30
0.0
 11
324.7962637607
 21
190.0958331854
 31
0.0
  0
LINE
  5
4BD
330
221
100
AcDbEntity
  8
7_ALL_FEATURES
  6
Continuous
 62
     7
100
AcDbLine
 10
346.6503251828323
 20
190.0958331854
 30
0.0
 11
347.1503251828324
 21
189.5958331854
 31
0.0
  0
LINE
  5
4BE
330
221
100
AcDbEntity
  8
7_ALL_FEATURES
  6
Continuous
 62
     7
100
AcDbLine
 10
346.6503251828323
 20
218.0958331854
 30
0.0
 11
346.6503251828323
 21
190.0958331854
 31
0.0
  0
LINE
  5
4BF
330
221
100
AcDbEntity
  8
7_ALL_FEATURES
  6
Continuous
 62
     7
100
AcDbLine
 10
347.1503251828324
 20
218.0958331854
 30
0.0
 11
347.1503251828324
 21
190.0958331854
 31
0.0
  0
LINE
  5
4C0
330
221
100
AcDbEntity
  8
7_ALL_FEATURES
  6
Continuous
 62
     7
100
AcDbLine
 10
347.1503251828324
 20
218.5958331854
 30
0.0
 11
346.6503251828323
 21
218.0958331854
 31
0.0
  0
LINE
  5
4C1
330
221
100
AcDbEntity
  8
7_ALL_FEATURES
  6
Continuous
 62
     7
100
AcDbLine
 10
425.6503251828324
 20
189.5958331854
 30
0.0
 11
347.1503251828324
 21
189.5958331854
 31
0.0
  0
LINE
  5
4C2
330
221
100
AcDbEntity
  8
7_ALL_FEATURES
  6
Continuous
 62
     7
100
AcDbLine
 10
347.1503251828324
 20
218.0958331854
 30
0.0
 11
346.9003251828324
 21
218.3458331854
 31
0.0
  0
LINE
  5
4C3
330
221
100
AcDbEntity
  8
7_ALL_FEATURES
  6
Continuous
 62
     7
100
AcDbLine
 10
425.6503251828324
 20
190.0958331854
 30
0.0
 11
347.1503251828324
 21
190.0958331854
 31
0.0
  0
LINE
  5
4C4
330
221
100
AcDbEntity
  8
7_ALL_FEATURES
  6
Continuous
 62
     7
100
AcDbLine
 10
347.1503251828324
 20
190.0958331854
 30
0.0
 11
346.9003251828324
 21
189.8458331854
 31
0.0
  0
LINE
  5
4C5
330
221
100
AcDbEntity
  8
7_ALL_FEATURES
  6
Continuous
 62
     7
100
AcDbLine
 10
347.1503251828324
 20
218.0958331854
 30
0.0
 11
425.6503251828324
 21
218.0958331854
 31
0.0
  0
LINE
  5
4C6
330
221
100
AcDbEntity
  8
7_ALL_FEATURES
  6
Continuous
 62
     7
100
AcDbLine
 10
347.1503251828324
 20
218.5958331854
 30
0.0
 11
425.6503251828324
 21
218.5958331854
 31
0.0
  0
LINE
  5
4C7
330
221
100
AcDbEntity
  8
7_ALL_FEATURES
  6
Continuous
 62
     7
100
AcDbLine
 10
425.6503251828324
 20
190.0958331854
 30
0.0
 11
425.9003251828324
 21
189.8458331854
 31
0.0
  0
LINE
  5
4C8
330
221
100
AcDbEntity
  8
7_ALL_FEATURES
  6
Continuous
 62
     7
100
AcDbLine
 10
425.9003251828324
 20
218.3458331854
 30
0.0
 11
425.6503251828324
 21
218.0958331854
 31
0.0
  0
LINE
  5
4C9
330
221
100
AcDbEntity
  8
7_ALL_FEATURES
  6
Continuous
 62
     7
100
AcDbLine
 10
426.1503251828324
 20
218.0958331854
 30
0.0
 11
425.6503251828324
 21
218.5958331854
 31
0.0
  0
LINE
  5
4CA
330
221
100
AcDbEntity
  8
7_ALL_FEATURES
  6
Continuous
 62
     7
100
AcDbLine
 10
425.6503251828324
 20
218.0958331854
 30
0.0
 11
425.6503251828324
 21
190.0958331854
 31
0.0
  0
LINE
  5
4CB
330
221
100
AcDbEntity
  8
7_ALL_FEATURES
  6
Continuous
 62
     7
100
AcDbLine
 10
426.1503251828324
 20
218.0958331854
 30
0.0
 11
426.1503251828324
 21
190.0958331854
 31
0.0
  0
LINE
  5
4CD
330
221
100
AcDbEntity
  8
7_ALL_FEATURES
  6
Continuous
 62
     7
100
AcDbLine
 10
426.1503251828324
 20
190.0958331854
 30
0.0
 11
425.6503251828324
 21
189.5958331854
 31
0.0
  0
LINE
  5
4CF
330
221
100
AcDbEntity
  8
7_ALL_FEATURES
  6
Continuous
 62
     7
100
AcDbLine
 10
145.5741898477704
 20
45.56508889830904
 30
0.0
 11
144.1890772192703
 21
32.70713094790904
 31
0.0
  0
LINE
  5
4D0
330
221
100
AcDbEntity
  8
7_ALL_FEATURES
  6
Continuous
 62
     7
100
AcDbLine
 10
151.7527074128703
 20
44.00145058600904
 30
0.0
 11
151.7407160865703
 21
43.89013547240904
 31
0.0
  0
LINE
  5
4D1
330
221
100
AcDbEntity
  8
7_ALL_FEATURES
  6
Continuous
 62
     7
100
AcDbLine
 10
145.5741898477704
 20
45.56508889830904
 30
0.0
 11
145.6471145119703
 21
45.73821927100904
 31
0.0
  0
LINE
  5
4D2
330
221
100
AcDbEntity
  8
7_ALL_FEATURES
  6
Continuous
 62
     7
100
AcDbLine
 10
144.2372677293703
 20
32.65065492870903
 30
0.0
 11
144.3900578182703
 21
32.49727203800904
 31
0.0
  0
LINE
  5
4D3
330
221
100
AcDbEntity
  8
7_ALL_FEATURES
  6
Continuous
 62
     7
100
AcDbLine
 10
160.6112110778703
 20
17.49275214380904
 30
0.0
 11
160.7640011667704
 21
17.33936925320904
 31
0.0
  0
LINE
  5
4D4
330
221
100
AcDbEntity
  8
7_ALL_FEATURES
  6
Continuous
 62
     7
100
AcDbLine
 10
144.1890772192703
 20
32.70713094790904
 30
0.0
 11
144.2372677293703
 21
32.65065492870903
 31
0.0
  0
LINE
  5
4D5
330
221
100
AcDbEntity
  8
7_ALL_FEATURES
  6
Continuous
 62
     7
100
AcDbLine
 10
160.8121916768704
 20
17.28289323400904
 30
0.0
 11
160.7640011667704
 21
17.33936925320904
 31
0.0
  0
LINE
  5
4D6
330
221
100
AcDbEntity
  8
7_ALL_FEATURES
  6
Continuous
 62
     7
100
AcDbLine
 10
162.4279114914704
 20
36.17630130570903
 30
0.0
 11
162.3898408664703
 21
35.82289286440904
 31
0.0
  0
LINE
  5
4D7
330
221
100
AcDbEntity
  8
7_ALL_FEATURES
  6
Continuous
 62
     7
100
AcDbLine
 10
161.9963237064703
 20
30.35071009420903
 30
0.0
 11
160.6112110778703
 21
17.49275214380904
 31
0.0
  0
LINE
  5
4D8
330
221
100
AcDbEntity
  8
7_ALL_FEATURES
  6
Continuous
 62
     7
100
AcDbLine
 10
162.3266380381703
 20
30.27355070490904
 30
0.0
 11
160.9415254096703
 21
17.41559275460904
 31
0.0
  0
LINE
  5
4D9
330
221
100
AcDbEntity
  8
7_ALL_FEATURES
  6
Continuous
 62
     7
100
AcDbLine
 10
160.8121916768704
 20
17.28289323400904
 30
0.0
 11
144.3900578182703
 21
32.49727203800904
 31
0.0
  0
LINE
  5
4DA
330
221
100
AcDbEntity
  8
7_ALL_FEATURES
  6
Continuous
 62
     7
100
AcDbLine
 10
160.6112110778703
 20
17.49275214380904
 30
0.0
 11
144.1890772192703
 21
32.70713094790904
 31
0.0
  0
LINE
  5
4DB
330
221
100
AcDbEntity
  8
7_ALL_FEATURES
  6
Continuous
 62
     9
100
AcDbLine
 10
162.8991398507704
 20
36.86154040560903
 30
0.0
 11
162.9771701535703
 21
36.54252965810903
 31
0.0
  0
LINE
  5
4DC
330
221
100
AcDbEntity
  8
7_ALL_FEATURES
  6
Continuous
 62
     7
100
AcDbLine
 10
166.9256933762703
 20
32.00930583710904
 30
0.0
 11
166.9135852999704
 21
31.89690693650904
 31
0.0
  0
LINE
  5
4DD
330
221
100
AcDbEntity
  8
7_ALL_FEATURES
  6
Continuous
 62
     7
100
AcDbLine
 10
167.9166363716703
 20
31.77782766920903
 30
0.0
 11
167.9103032814704
 21
31.71903778770904
 31
0.0
  0
LINE
  5
4DE
330
221
100
AcDbEntity
  8
7_ALL_FEATURES
  6
Continuous
 62
     7
100
AcDbLine
 10
162.1738479493704
 20
30.42693359560904
 30
0.0
 11
162.2467726135703
 21
30.60006396830903
 31
0.0
  0
LINE
  5
4DF
330
221
100
AcDbEntity
  8
7_ALL_FEATURES
  6
Continuous
 62
     7
100
AcDbLine
 10
162.3266380381703
 20
30.27355070490904
 30
0.0
 11
162.1738479493704
 21
30.42693359560904
 31
0.0
  0
LINE
  5
4E0
330
221
100
AcDbEntity
  8
7_ALL_FEATURES
  6
Continuous
 62
     7
100
AcDbLine
 10
145.5741898477704
 20
45.56508889830904
 30
0.0
 11
161.9963237064703
 21
30.35071009420903
 31
0.0
  0
LINE
  5
4E1
330
221
100
AcDbEntity
  8
7_ALL_FEATURES
  6
Continuous
 62
     7
100
AcDbLine
 10
145.8246387549704
 20
45.81444277230904
 30
0.0
 11
162.2467726135703
 21
30.60006396830903
 31
0.0
  0
LINE
  5
4E2
330
221
100
AcDbEntity
  8
7_ALL_FEATURES
  6
Continuous
 62
     7
100
AcDbLine
 10
166.2628429329703
 20
32.23472819250904
 30
0.0
 11
162.0997796999704
 21
36.09162167280904
 31
0.0
  0
LINE
  5
4E3
330
221
100
AcDbEntity
  8
7_ALL_FEATURES
  6
Continuous
 62
     7
100
AcDbLine
 10
162.4279114914704
 20
36.17630130570903
 30
0.0
 11
166.9256933762703
 21
32.00930583710904
 31
0.0
  0
LINE
  5
4E4
330
221
100
AcDbEntity
  8
7_ALL_FEATURES
  6
Continuous
 62
     7
100
AcDbLine
 10
150.5062941099704
 20
44.31498786560904
 30
0.0
 11
150.4798048572704
 21
44.34098958770903
 31
0.0
  0
LINE
  5
4E5
330
221
100
AcDbEntity
  8
7_ALL_FEATURES
  6
Continuous
 62
     7
100
AcDbLine
 10
162.0997796999704
 20
36.09162167280904
 30
0.0
 11
162.0685660006703
 21
36.12225949570903
 31
0.0
  0
LINE
  5
4E6
330
221
100
AcDbEntity
  8
7_ALL_FEATURES
  6
Continuous
 62
     7
100
AcDbLine
 10
152.4758915023703
 20
43.91869922450904
 30
0.0
 11
152.4920087510703
 21
43.90287419370904
 31
0.0
  0
LINE
  5
4E7
330
221
100
AcDbEntity
  8
7_ALL_FEATURES
  6
Continuous
 62
     7
100
AcDbLine
 10
162.7912570144703
 20
36.52626436600903
 30
0.0
 11
162.4279114914704
 21
36.17630130570903
 31
0.0
  0
LINE
  5
4E8
330
221
100
AcDbEntity
  8
7_ALL_FEATURES
  6
Continuous
 62
     7
100
AcDbLine
 10
145.8246387549704
 20
45.81444277230904
 30
0.0
 11
145.6471145119703
 21
45.73821927100904
 31
0.0
  0
LINE
  5
4EE
330
221
100
AcDbEntity
  8
7_ALL_FEATURES
  6
Continuous
 62
     7
100
AcDbLine
 10
293.0810369766704
 20
28.85491773540903
 30
0.0
 11
160.8121916768704
 21
17.28289323400904
 31
0.0
  0
LINE
  5
4EF
330
221
100
AcDbEntity
  8
7_ALL_FEATURES
  6
Continuous
 62
     7
100
AcDbLine
 10
293.2103707094703
 20
28.98761725600903
 30
0.0
 11
160.9415254096703
 21
17.41559275460904
 31
0.0
  0
LINE
  5
4F0
330
221
100
AcDbEntity
  8
7_ALL_FEATURES
  6
Continuous
 62
     7
100
AcDbLine
 10
166.9256933762703
 20
32.00930583710904
 30
0.0
 11
167.9166363716703
 21
31.77782766920903
 31
0.0
  0
LINE
  5
4F1
330
221
100
AcDbEntity
  8
7_ALL_FEATURES
  6
Continuous
 62
     7
100
AcDbLine
 10
161.9963237064703
 20
30.35071009420903
 30
0.0
 11
162.1738479493704
 21
30.42693359560904
 31
0.0
  0
LINE
  5
4F2
330
221
100
AcDbEntity
  8
7_ALL_FEATURES
  6
Continuous
 62
     7
100
AcDbLine
 10
162.3266380381703
 20
30.27355070490904
 30
0.0
 11
294.5954833379703
 21
41.84557520630904
 31
0.0
  0
LINE
  5
4F3
330
221
100
AcDbEntity
  8
7_ALL_FEATURES
  6
Continuous
 62
     7
100
AcDbLine
 10
160.7640011667704
 20
17.33936925320904
 30
0.0
 11
160.9415254096703
 21
17.41559275460904
 31
0.0
  0
LINE
  5
4F4
330
221
100
AcDbEntity
  8
7_ALL_FEATURES
  6
Continuous
 62
     7
100
AcDbLine
 10
162.2467726135703
 20
30.60006396830903
 30
0.0
 11
294.5156179133704
 21
42.17208846970904
 31
0.0
  0
LINE
  5
4F5
330
221
100
AcDbEntity
  8
7_ALL_FEATURES
  6
Continuous
 62
     7
100
AcDbLine
 10
287.1688776382703
 20
42.11265179960904
 30
0.0
 11
168.4429175227704
 21
31.72547622330903
 31
0.0
  0
LINE
  5
4F6
330
221
100
AcDbEntity
  8
7_ALL_FEATURES
  6
Continuous
 62
     7
100
AcDbLine
 10
167.9166363716703
 20
31.77782766920903
 30
0.0
 11
287.2520263204703
 21
42.21832144720904
 31
0.0
  0
LINE
  5
4F8
330
221
100
AcDbEntity
  8
7_ALL_FEATURES
  6
Continuous
 62
     7
100
AcDbLine
 10
282.1266469632703
 20
46.96675814400903
 30
0.0
 11
162.7912570144703
 21
36.52626436600903
 31
0.0
  0
LINE
  5
4F9
330
221
100
AcDbEntity
  8
7_ALL_FEATURES
  6
Continuous
 62
     7
100
AcDbLine
 10
162.8991398507704
 20
36.86154040560903
 30
0.0
 11
281.6250999662703
 21
47.24871598190904
 31
0.0
  0
LINE
  5
4FE
330
221
100
AcDbEntity
  8
7_ALL_FEATURES
  6
Continuous
 62
     7
100
AcDbLine
 10
278.0934840547703
 20
57.38646727370903
 30
0.0
 11
145.8246387549704
 21
45.81444277230904
 31
0.0
  0
LINE
  5
4FF
330
221
100
AcDbEntity
  8
7_ALL_FEATURES
  6
Continuous
 62
     7
100
AcDbLine
 10
283.1175899586704
 20
46.73527997620904
 30
0.0
 11
282.1266469632703
 21
46.96675814400903
 31
0.0
  0
LINE
  5
501
330
221
100
AcDbEntity
  8
7_ALL_FEATURES
  6
Continuous
 62
     9
100
AcDbLine
 10
283.8051745560704
 20
46.73946401270904
 30
0.0
 11
283.5547256488703
 21
46.49011013860904
 31
0.0
  0
LINE
  5
502
330
221
100
AcDbEntity
  8
7_ALL_FEATURES
  6
Continuous
 62
     7
100
AcDbLine
 10
293.2585612195704
 20
28.93114123670904
 30
0.0
 11
293.0810369766704
 21
28.85491773540903
 31
0.0
  0
LINE
  5
503
330
221
100
AcDbEntity
  8
7_ALL_FEATURES
  6
Continuous
 62
     9
100
AcDbLine
 10
287.9682377889703
 20
42.88257053240903
 30
0.0
 11
287.7177888818703
 21
42.63321665830904
 31
0.0
  0
LINE
  5
504
330
221
100
AcDbEntity
  8
7_ALL_FEATURES
  6
Continuous
 62
     7
100
AcDbLine
 10
287.2520263204703
 20
42.21832144720904
 30
0.0
 11
287.6153718434704
 21
42.56828450750903
 31
0.0
  0
LINE
  5
505
330
221
100
AcDbEntity
  8
7_ALL_FEATURES
  6
Continuous
 62
     7
100
AcDbLine
 10
287.6153718434704
 20
42.56828450750903
 30
0.0
 11
283.1175899586704
 21
46.73527997620904
 31
0.0
  0
LINE
  5
506
330
221
100
AcDbEntity
  8
7_ALL_FEATURES
  6
Continuous
 62
     7
100
AcDbLine
 10
283.5547256488703
 20
46.49011013860904
 30
0.0
 11
287.7177888818703
 21
42.63321665830904
 31
0.0
  0
LINE
  5
507
330
221
100
AcDbEntity
  8
7_ALL_FEATURES
  6
Continuous
 62
     7
100
AcDbLine
 10
283.8051745560704
 20
46.73946401270904
 30
0.0
 11
287.9682377889703
 21
42.88257053240903
 31
0.0
  0
LINE
  5
508
330
221
100
AcDbEntity
  8
7_ALL_FEATURES
  6
Continuous
 62
     7
100
AcDbLine
 10
294.5156179133704
 20
42.17208846970904
 30
0.0
 11
278.0934840547703
 21
57.38646727370903
 31
0.0
  0
LINE
  5
509
330
221
100
AcDbEntity
  8
7_ALL_FEATURES
  6
Continuous
 62
     7
100
AcDbLine
 10
274.6494082991703
 20
55.17610301200904
 30
0.0
 11
274.6229190464703
 21
55.20210473410904
 31
0.0
  0
LINE
  5
50A
330
221
100
AcDbEntity
  8
7_ALL_FEATURES
  6
Continuous
 62
     7
100
AcDbLine
 10
276.6190056915704
 20
54.77981437080904
 30
0.0
 11
276.6351229402703
 21
54.76398934010903
 31
0.0
  0
LINE
  5
50B
330
221
100
AcDbEntity
  8
7_ALL_FEATURES
  6
Continuous
 62
     7
100
AcDbLine
 10
293.2103707094703
 20
28.98761725600903
 30
0.0
 11
293.2585612195704
 21
28.93114123670904
 31
0.0
  0
LINE
  5
50C
330
221
100
AcDbEntity
  8
7_ALL_FEATURES
  6
Continuous
 62
     7
100
AcDbLine
 10
275.8958216020703
 20
54.86256573240904
 30
0.0
 11
275.8838302757703
 21
54.75125061870904
 31
0.0
  0
LINE
  5
50D
330
221
100
AcDbEntity
  8
7_ALL_FEATURES
  6
Continuous
 62
     7
100
AcDbLine
 10
294.5156179133704
 20
42.17208846970904
 30
0.0
 11
294.6684080021703
 21
42.01870557900904
 31
0.0
  0
LINE
  5
50E
330
221
100
AcDbEntity
  8
7_ALL_FEATURES
  6
Continuous
 62
     9
100
AcDbLine
 10
283.5547256488703
 20
46.49011013860904
 30
0.0
 11
283.5390717803704
 21
46.34479575830903
 31
0.0
  0
LINE
  5
50F
330
221
100
AcDbEntity
  8
7_ALL_FEATURES
  6
Continuous
 62
     7
100
AcDbLine
 10
294.7165985123704
 20
41.96222955980903
 30
0.0
 11
294.6684080021703
 21
42.01870557900904
 31
0.0
  0
LINE
  5
510
330
221
100
AcDbEntity
  8
7_ALL_FEATURES
  6
Continuous
 62
     9
100
AcDbLine
 10
281.6250999662703
 20
47.24871598190904
 30
0.0
 11
281.7031302690704
 21
46.92970523440904
 31
0.0
  0
LINE
  5
511
330
221
100
AcDbEntity
  8
7_ALL_FEATURES
  6
Continuous
 62
     7
100
AcDbLine
 10
287.2520263204703
 20
42.21832144720904
 30
0.0
 11
287.2415012698704
 21
42.12061772650904
 31
0.0
  0
LINE
  5
512
330
221
100
AcDbEntity
  8
7_ALL_FEATURES
  6
Continuous
 62
     7
100
AcDbLine
 10
287.6153718434704
 20
42.56828450750903
 30
0.0
 11
287.5734475025703
 21
42.17910213970903
 31
0.0
  0
LINE
  5
513
330
221
100
AcDbEntity
  8
7_ALL_FEATURES
  6
Continuous
 62
     9
100
AcDbLine
 10
287.7177888818703
 20
42.63321665830904
 30
0.0
 11
287.6718658772704
 21
42.20691481800904
 31
0.0
  0
LINE
  5
514
330
221
100
AcDbEntity
  8
7_ALL_FEATURES
  6
Continuous
 62
     7
100
AcDbLine
 10
294.6684080021703
 20
42.01870557900904
 30
0.0
 11
294.5954833379703
 21
41.84557520630904
 31
0.0
  0
LINE
  5
515
330
221
100
AcDbEntity
  8
7_ALL_FEATURES
  6
Continuous
 62
     7
100
AcDbLine
 10
294.5954833379703
 20
41.84557520630904
 30
0.0
 11
293.2103707094703
 21
28.98761725600903
 31
0.0
  0
LINE
  5
516
330
221
100
AcDbEntity
  8
7_ALL_FEATURES
  6
Continuous
 62
     7
100
AcDbLine
 10
294.7165985123704
 20
41.96222955980903
 30
0.0
 11
293.3314858837704
 21
29.10427160940904
 31
0.0
  0
LINE
  5
517
330
221
100
AcDbEntity
  8
7_ALL_FEATURES
  6
Continuous
 62
     7
100
AcDbLine
 10
293.3314858837704
 20
29.10427160940904
 30
0.0
 11
293.2585612195704
 21
28.93114123670904
 31
0.0
  0
ARC
  5
518
330
221
100
AcDbEntity
  8
7_ALL_FEATURES
  6
Continuous
 62
     7
100
AcDbCircle
 10
309.2962637607
 20
148.0303076725343
 30
0.0
 40
3.3
100
AcDbArc
 50
0.0
 51
90.0
  0
ARC
  5
519
330
221
100
AcDbEntity
  8
7_ALL_FEATURES
  6
Continuous
 62
     7
100
AcDbCircle
 10
46.2962637607
 20
148.0303076725343
 30
0.0
 40
3.3
100
AcDbArc
 50
90.0
 51
180.0
  0
ARC
  5
51A
330
221
100
AcDbEntity
  8
7_ALL_FEATURES
  6
Continuous
 62
     7
100
AcDbCircle
 10
46.2962637607
 20
128.1303076725343
 30
0.0
 40
3.3
100
AcDbArc
 50
180.0
 51
270.0
  0
ARC
  5
51B
330
221
100
AcDbEntity
  8
7_ALL_FEATURES
  6
Continuous
 62
     7
100
AcDbCircle
 10
309.2962637607
 20
128.1303076725343
 30
0.0
 40
3.3
100
AcDbArc
 50
270.0
 51
0.0
  0
ARC
  5
51C
330
221
100
AcDbEntity
  8
7_ALL_FEATURES
  6
Continuous
 62
     7
100
AcDbCircle
 10
309.2962637607
 20
128.1303076725343
 30
0.0
 40
2.8
100
AcDbArc
 50
270.0
 51
0.0
  0
ARC
  5
51D
330
221
100
AcDbEntity
  8
7_ALL_FEATURES
  6
Continuous
 62
     7
100
AcDbCircle
 10
309.2962637607
 20
148.0303076725343
 30
0.0
 40
2.8
100
AcDbArc
 50
0.0
 51
90.0
  0
ARC
  5
51E
330
221
100
AcDbEntity
  8
7_ALL_FEATURES
  6
Continuous
 62
     7
100
AcDbCircle
 10
46.2962637607
 20
128.1303076725343
 30
0.0
 40
2.8
100
AcDbArc
 50
180.0
 51
270.0
  0
ARC
  5
51F
330
221
100
AcDbEntity
  8
7_ALL_FEATURES
  6
Continuous
 62
     7
100
AcDbCircle
 10
46.2962637607
 20
148.0303076725343
 30
0.0
 40
2.8
100
AcDbArc
 50
90.0
 51
180.0
  0
CIRCLE
  5
520
330
221
100
AcDbEntity
  8
7_ALL_FEATURES
  6
Continuous
 62
     7
100
AcDbCircle
 10
315.2962637607
 20
84.58030767253433
 30
0.0
 40
2.8
  0
CIRCLE
  5
521
330
221
100
AcDbEntity
  8
7_ALL_FEATURES
  6
Continuous
 62
     7
100
AcDbCircle
 10
40.29626376069999
 20
84.58030767253433
 30
0.0
 40
2.8
  0
CIRCLE
  5
522
330
221
100
AcDbEntity
  8
7_ALL_FEATURES
  6
Continuous
 62
     7
100
AcDbCircle
 10
315.2962637607
 20
84.58030767253433
 30
0.0
 40
2.5
  0
CIRCLE
  5
523
330
221
100
AcDbEntity
  8
7_ALL_FEATURES
  6
Continuous
 62
     7
100
AcDbCircle
 10
40.29626376069999
 20
84.58030767253433
 30
0.0
 40
2.5
  0
CIRCLE
  5
524
330
221
100
AcDbEntity
  8
7_ALL_FEATURES
  6
Continuous
 62
     7
100
AcDbCircle
 10
315.2962637607
 20
84.58030767253433
 30
0.0
 40
2.2
  0
CIRCLE
  5
525
330
221
100
AcDbEntity
  8
7_ALL_FEATURES
  6
Continuous
 62
     7
100
AcDbCircle
 10
40.29626376069999
 20
84.58030767253433
 30
0.0
 40
2.2
  0
CIRCLE
  5
526
330
221
100
AcDbEntity
  8
7_ALL_FEATURES
  6
Continuous
 62
     7
100
AcDbCircle
 10
315.2962637607
 20
84.58030767253433
 30
0.0
 40
1.70000006075
  0
CIRCLE
  5
527
330
221
100
AcDbEntity
  8
7_ALL_FEATURES
  6
Continuous
 62
     7
100
AcDbCircle
 10
40.29626376069999
 20
84.58030767253433
 30
0.0
 40
1.70000006075
  0
CIRCLE
  5
528
330
221
100
AcDbEntity
  8
02___PRT_ALL_AXES
  6
Continuous
 62
     7
100
AcDbCircle
 10
315.2962637607
 20
84.58030767253433
 30
0.0
 40
1.65
  0
CIRCLE
  5
529
330
221
100
AcDbEntity
  8
02___PRT_ALL_AXES
  6
Continuous
 62
     7
100
AcDbCircle
 10
40.29626376069999
 20
84.58030767253433
 30
0.0
 40
1.65
  0
CIRCLE
  5
52A
330
221
100
AcDbEntity
  8
7_ALL_FEATURES
  6
Continuous
 62
     7
100
AcDbCircle
 10
315.2962637607
 20
84.58030767253433
 30
0.0
 40
1.3
  0
CIRCLE
  5
52B
330
221
100
AcDbEntity
  8
7_ALL_FEATURES
  6
Continuous
 62
     7
100
AcDbCircle
 10
40.29626376069999
 20
84.58030767253433
 30
0.0
 40
1.3
  0
ARC
  5
52C
330
221
100
AcDbEntity
  8
7_ALL_FEATURES
  6
Continuous
 62
     7
100
AcDbCircle
 10
112.69743581695
 20
174.8004900754
 30
0.0
 40
43.38186556325
100
AcDbArc
 50
144.3321355002001
 51
144.6552318010001
  0
ARC
  5
52D
330
221
100
AcDbEntity
  8
7_ALL_FEATURES
  6
Continuous
 62
     7
100
AcDbCircle
 10
89.29626334269999
 20
204.09583419315
 30
0.0
 40
13.000000419
100
AcDbArc
 50
247.4424419192001
 51
254.0576343857001
  0
ARC
  5
52E
330
221
100
AcDbEntity
  8
7_ALL_FEATURES
  6
Continuous
 62
     7
100
AcDbCircle
 10
59.79626432644999
 20
204.09583381015
 30
0.0
 40
13.0000000135
100
AcDbArc
 50
285.9422833616001
 51
292.5575607091999
  0
ARC
  5
52F
330
221
100
AcDbEntity
  8
7_ALL_FEATURES
  6
Continuous
 62
     7
100
AcDbCircle
 10
59.7962637607
 20
204.0958331854
 30
0.0
 40
13.0
100
AcDbArc
 50
247.4379038002998
 51
254.0577015872999
  0
ARC
  5
530
330
221
100
AcDbEntity
  8
7_ALL_FEATURES
  6
Continuous
 62
     7
100
AcDbCircle
 10
59.7962637607
 20
204.0958331854
 30
0.0
 40
13.0
100
AcDbArc
 50
105.9422985382
 51
112.5620961969
  0
ARC
  5
531
330
221
100
AcDbEntity
  8
7_ALL_FEATURES
  6
Continuous
 62
     7
100
AcDbCircle
 10
59.79626349394999
 20
204.0958337726501
 30
0.0
 40
12.9999996975
100
AcDbArc
 50
67.44242852780002
 51
74.05771074150002
  0
ARC
  5
532
330
221
100
AcDbEntity
  8
7_ALL_FEATURES
  6
Continuous
 62
     7
100
AcDbCircle
 10
89.29626346394998
 20
204.0958340134
 30
0.0
 40
12.999999096
100
AcDbArc
 50
105.9423683514
 51
159.7477559504001
  0
ARC
  5
533
330
221
100
AcDbEntity
  8
7_ALL_FEATURES
  6
Continuous
 62
     7
100
AcDbCircle
 10
89.29626334269999
 20
204.09583419315
 30
0.0
 40
12.50000054225
100
AcDbArc
 50
253.8295584667999
 51
270.0000019159
  0
ARC
  5
534
330
221
100
AcDbEntity
  8
7_ALL_FEATURES
  6
Continuous
 62
     7
100
AcDbCircle
 10
59.7962637607
 20
204.0958331854
 30
0.0
 40
12.5
100
AcDbArc
 50
253.8301592498999
 51
286.1704383516001
  0
ARC
  5
535
330
221
100
AcDbEntity
  8
7_ALL_FEATURES
  6
Continuous
 62
     7
100
AcDbCircle
 10
59.79626349394999
 20
204.0958337726501
 30
0.0
 40
12.49999969675
100
AcDbArc
 50
73.82955656499993
 51
106.169838069
  0
ARC
  5
536
330
221
100
AcDbEntity
  8
7_ALL_FEATURES
  6
Continuous
 62
     7
100
AcDbCircle
 10
89.29626346394998
 20
204.0958340134
 30
0.0
 40
12.49999920225
100
AcDbArc
 50
89.99999864079997
 51
200.0865403060998
  0
ARC
  5
537
330
221
100
AcDbEntity
  8
7_ALL_FEATURES
  6
Continuous
 62
     7
100
AcDbCircle
 10
39.29626376069999
 20
197.5958331854
 30
0.0
 40
6.5
100
AcDbArc
 50
180.0
 51
270.0
  0
ARC
  5
538
330
221
100
AcDbEntity
  8
7_ALL_FEATURES
  6
Continuous
 62
     7
100
AcDbCircle
 10
39.7962637607
 20
198.0958331854
 30
0.0
 40
6.0
100
AcDbArc
 50
180.0
 51
270.0
  0
ARC
  5
539
330
221
100
AcDbEntity
  8
7_ALL_FEATURES
  6
Continuous
 62
     7
100
AcDbCircle
 10
39.29626376069999
 20
197.5958331854
 30
0.0
 40
6.0
100
AcDbArc
 50
180.0
 51
270.0
  0
CIRCLE
  5
53A
330
221
100
AcDbEntity
  8
7_ALL_FEATURES
  6
Continuous
 62
     7
100
AcDbCircle
 10
40.29626376069999
 20
204.0958331854
 30
0.0
 40
4.35
  0
CIRCLE
  5
53B
330
221
100
AcDbEntity
  8
02___PRT_ALL_AXES
  6
Continuous
 62
     7
100
AcDbCircle
 10
40.29626376069999
 20
204.0958331854
 30
0.0
 40
4.0
  0
ARC
  5
53C
330
221
100
AcDbEntity
  8
06___PRT_ALL_SURFS
  6
Continuous
 62
     7
100
AcDbCircle
 10
88.7962395247
 20
197.42739734665
 30
0.0
 40
3.5269607685
100
AcDbArc
 50
28.23643823540017
 51
30.02472568930051
  0
ARC
  5
53D
330
221
100
AcDbEntity
  8
02___PRT_ALL_AXES
  6
Continuous
 62
     7
100
AcDbCircle
 10
89.2962637607
 20
197.5958331854
 30
0.0
 40
3.5
100
AcDbArc
 50
76.12864986469997
 51
154.6038938723001
  0
ARC
  5
53E
330
221
100
AcDbEntity
  8
02___PRT_ALL_AXES
  6
Continuous
 62
     7
100
AcDbCircle
 10
89.2962637607
 20
197.5958331854
 30
0.0
 40
2.8
100
AcDbArc
 50
32.4973312460999
 51
147.5026687539001
  0
ARC
  5
53F
330
221
100
AcDbEntity
  8
02___PRT_ALL_AXES
  6
Continuous
 62
     7
100
AcDbCircle
 10
55.7962637607
 20
201.5958331854
 30
0.0
 40
2.5
100
AcDbArc
 50
180.0
 51
0.0
  0
ARC
  5
540
330
221
100
AcDbEntity
  8
7_ALL_FEATURES
  6
Continuous
 62
     7
100
AcDbCircle
 10
108.7962637607
 20
199.5373516254001
 30
0.0
 40
2.0
100
AcDbArc
 50
180.0
 51
192.763073886301
  0
ARC
  5
541
330
221
100
AcDbEntity
  8
7_ALL_FEATURES
  6
Continuous
 62
     7
100
AcDbCircle
 10
113.32703237045
 20
233.8399907271501
 30
0.0
 40
44.15505385675
100
AcDbArc
 50
214.8699852528
 51
215.6646372663
  0
ARC
  5
542
330
221
100
AcDbEntity
  8
7_ALL_FEATURES
  6
Continuous
 62
     7
100
AcDbCircle
 10
80.7962637607
 20
207.0958331854
 30
0.0
 40
8.0
100
AcDbArc
 50
180.0
 51
270.0
  0
ARC
  5
543
330
221
100
AcDbEntity
  8
7_ALL_FEATURES
  6
Continuous
 62
     7
100
AcDbCircle
 10
39.29626376069999
 20
210.5958331854
 30
0.0
 40
6.5
100
AcDbArc
 50
90.0
 51
180.0
  0
ARC
  5
544
330
221
100
AcDbEntity
  8
7_ALL_FEATURES
  6
Continuous
 62
     7
100
AcDbCircle
 10
39.7962637607
 20
210.0958331854
 30
0.0
 40
6.0
100
AcDbArc
 50
90.0
 51
180.0
  0
ARC
  5
545
330
221
100
AcDbEntity
  8
7_ALL_FEATURES
  6
Continuous
 62
     7
100
AcDbCircle
 10
39.29626376069999
 20
210.5958331854
 30
0.0
 40
6.0
100
AcDbArc
 50
90.0
 51
180.0
  0
ARC
  5
546
330
221
100
AcDbEntity
  8
02___PRT_ALL_AXES
  6
Continuous
 62
     7
100
AcDbCircle
 10
55.7962637607
 20
209.0958331854
 30
0.0
 40
4.699999999999999
100
AcDbArc
 50
237.8525561963004
 51
302.1474438036996
  0
ARC
  5
547
330
221
100
AcDbEntity
  8
02___PRT_ALL_AXES
  6
Continuous
 62
     7
100
AcDbCircle
 10
55.7962637607
 20
209.0958331854
 30
0.0
 40
4.600000000000001
100
AcDbArc
 50
237.0028463672001
 51
302.9971536327998
  0
CIRCLE
  5
548
330
221
100
AcDbEntity
  8
02___PRT_ALL_AXES
  6
Continuous
 62
     7
100
AcDbCircle
 10
89.2962637607
 20
210.5958331854
 30
0.0
 40
4.0
  0
CIRCLE
  5
549
330
221
100
AcDbEntity
  8
02___PRT_ALL_AXES
  6
Continuous
 62
     7
100
AcDbCircle
 10
89.2962637607
 20
210.5958331854
 30
0.0
 40
3.8
  0
ARC
  5
54A
330
221
100
AcDbEntity
  8
02___PRT_ALL_AXES
  6
Continuous
 62
     7
100
AcDbCircle
 10
55.7962637607
 20
209.0958331854
 30
0.0
 40
3.6
100
AcDbArc
 50
225.8822048841997
 51
314.1177951158002
  0
ARC
  5
54B
330
221
100
AcDbEntity
  8
02___PRT_ALL_AXES
  6
Continuous
 62
     7
100
AcDbCircle
 10
55.7962637607
 20
206.5958331854
 30
0.0
 40
2.5
100
AcDbArc
 50
0.0
 51
180.0
  0
ARC
  5
54C
330
221
100
AcDbEntity
  8
7_ALL_FEATURES
  6
Continuous
 62
     7
100
AcDbCircle
 10
70.7962637607
 20
214.0958331854
 30
0.0
 40
2.0
100
AcDbArc
 50
0.0
 51
90.0
  0
CIRCLE
  5
54D
330
221
100
AcDbEntity
  8
02___PRT_ALL_AXES
  6
Continuous
 62
     7
100
AcDbCircle
 10
89.2962637607
 20
210.5958331854
 30
0.0
 40
1.965
  0
CIRCLE
  5
54E
330
221
100
AcDbEntity
  8
02___PRT_ALL_AXES
  6
Continuous
 62
     7
100
AcDbCircle
 10
55.7962637607
 20
207.3458331854
 30
0.0
 40
1.2
  0
ARC
  5
54F
330
221
100
AcDbEntity
  8
7_ALL_FEATURES
  6
Continuous
 62
     7
100
AcDbCircle
 10
245.7962619542
 20
204.0958355894001
 30
0.0
 40
12.99999967775
100
AcDbArc
 50
247.4379399775997
 51
254.0576419603999
  0
ARC
  5
550
330
221
100
AcDbEntity
  8
7_ALL_FEATURES
  6
Continuous
 62
     7
100
AcDbCircle
 10
245.7962619542
 20
204.0958355894001
 30
0.0
 40
12.99999967775
100
AcDbArc
 50
105.9423638604001
 51
202.6329087036997
  0
ARC
  5
551
330
221
100
AcDbEntity
  8
7_ALL_FEATURES
  6
Continuous
 62
     7
100
AcDbCircle
 10
295.79626557245
 20
204.0958307941501
 30
0.0
 40
12.99999966825
100
AcDbArc
 50
67.43793992879993
 51
74.0576419670999
  0
ARC
  5
552
330
221
100
AcDbEntity
  8
7_ALL_FEATURES
  6
Continuous
 62
     7
100
AcDbCircle
 10
295.79626557245
 20
204.0958307941501
 30
0.0
 40
12.99999966825
100
AcDbArc
 50
285.9423638224998
 51
292.5621169381998
  0
ARC
  5
553
330
221
100
AcDbEntity
  8
7_ALL_FEATURES
  6
Continuous
 62
     7
100
AcDbCircle
 10
217.29626557245
 20
204.0958307941501
 30
0.0
 40
12.99999966825
100
AcDbArc
 50
337.3671142080998
 51
74.05764196710014
  0
ARC
  5
554
330
221
100
AcDbEntity
  8
7_ALL_FEATURES
  6
Continuous
 62
     7
100
AcDbCircle
 10
217.29626557245
 20
204.0958307941501
 30
0.0
 40
12.99999966825
100
AcDbArc
 50
285.9423638224998
 51
292.5621169381998
  0
ARC
  5
555
330
221
100
AcDbEntity
  8
7_ALL_FEATURES
  6
Continuous
 62
     7
100
AcDbCircle
 10
245.7962619542
 20
204.0958355894001
 30
0.0
 40
12.49999882475
100
AcDbArc
 50
89.99999171970022
 51
203.5797380970002
  0
ARC
  5
556
330
221
100
AcDbEntity
  8
7_ALL_FEATURES
  6
Continuous
 62
     7
100
AcDbCircle
 10
245.7962619542
 20
204.0958355894001
 30
0.0
 40
12.49999882475
100
AcDbArc
 50
253.7952052191999
 51
270.0000082802998
  0
ARC
  5
557
330
221
100
AcDbEntity
  8
7_ALL_FEATURES
  6
Continuous
 62
     7
100
AcDbCircle
 10
295.79626557245
 20
204.0958307941501
 30
0.0
 40
12.4999988215
100
AcDbArc
 50
269.9999916955
 51
286.2048006728998
  0
ARC
  5
558
330
221
100
AcDbEntity
  8
7_ALL_FEATURES
  6
Continuous
 62
     7
100
AcDbCircle
 10
295.79626557245
 20
204.0958307941501
 30
0.0
 40
12.4999988215
100
AcDbArc
 50
73.7952052256998
 51
90.00000830450004
  0
ARC
  5
559
330
221
100
AcDbEntity
  8
7_ALL_FEATURES
  6
Continuous
 62
     7
100
AcDbCircle
 10
217.29626557245
 20
204.0958307941501
 30
0.0
 40
12.4999988215
100
AcDbArc
 50
269.9999916955
 51
286.2048006728998
  0
ARC
  5
55A
330
221
100
AcDbEntity
  8
7_ALL_FEATURES
  6
Continuous
 62
     7
100
AcDbCircle
 10
217.29626557245
 20
204.0958307941501
 30
0.0
 40
12.4999988215
100
AcDbArc
 50
336.4202821892003
 51
90.00000830450004
  0
ARC
  5
55B
330
221
100
AcDbEntity
  8
7_ALL_FEATURES
  6
Continuous
 62
     7
100
AcDbCircle
 10
316.2962637607
 20
197.5958331854
 30
0.0
 40
6.5
100
AcDbArc
 50
270.0
 51
0.0
  0
ARC
  5
55C
330
221
100
AcDbEntity
  8
7_ALL_FEATURES
  6
Continuous
 62
     7
100
AcDbCircle
 10
315.7962637607
 20
198.0958331854
 30
0.0
 40
6.0
100
AcDbArc
 50
270.0
 51
0.0
  0
ARC
  5
55D
330
221
100
AcDbEntity
  8
7_ALL_FEATURES
  6
Continuous
 62
     7
100
AcDbCircle
 10
316.2962637607
 20
197.5958331854
 30
0.0
 40
6.0
100
AcDbArc
 50
270.0
 51
0.0
  0
ARC
  5
55E
330
221
100
AcDbEntity
  8
02___PRT_ALL_AXES
  6
Continuous
 62
     7
100
AcDbCircle
 10
177.7962637607
 20
188.5958331854
 30
0.0
 40
5.0
100
AcDbArc
 50
44.4270040008
 51
135.5729959992
  0
CIRCLE
  5
55F
330
221
100
AcDbEntity
  8
7_ALL_FEATURES
  6
Continuous
 62
     7
100
AcDbCircle
 10
315.2962637607
 20
204.0958331854
 30
0.0
 40
4.35
  0
CIRCLE
  5
560
330
221
100
AcDbEntity
  8
02___PRT_ALL_AXES
  6
Continuous
 62
     7
100
AcDbCircle
 10
315.2962637607
 20
204.0958331854
 30
0.0
 40
4.0
  0
ARC
  5
561
330
221
100
AcDbEntity
  8
02___PRT_ALL_AXES
  6
Continuous
 62
     7
100
AcDbCircle
 10
302.2962637607
 20
204.0958331854
 30
0.0
 40
2.5
100
AcDbArc
 50
270.0
 51
90.0
  0
ARC
  5
562
330
221
100
AcDbEntity
  8
02___PRT_ALL_AXES
  6
Continuous
 62
     7
100
AcDbCircle
 10
297.2962637607
 20
204.0958331854
 30
0.0
 40
2.5
100
AcDbArc
 50
90.0
 51
270.0
  0
ARC
  5
563
330
221
100
AcDbEntity
  8
7_ALL_FEATURES
  6
Continuous
 62
     7
100
AcDbCircle
 10
274.7962637607
 20
207.0958331854
 30
0.0
 40
8.0
100
AcDbArc
 50
270.0
 51
0.0
  0
ARC
  5
564
330
221
100
AcDbEntity
  8
7_ALL_FEATURES
  6
Continuous
 62
     7
100
AcDbCircle
 10
316.2962637607
 20
210.5958331854
 30
0.0
 40
6.5
100
AcDbArc
 50
0.0
 51
90.0
  0
ARC
  5
565
330
221
100
AcDbEntity
  8
7_ALL_FEATURES
  6
Continuous
 62
     7
100
AcDbCircle
 10
315.7962637607
 20
210.0958331854
 30
0.0
 40
6.0
100
AcDbArc
 50
0.0
 51
90.0
  0
ARC
  5
566
330
221
100
AcDbEntity
  8
7_ALL_FEATURES
  6
Continuous
 62
     7
100
AcDbCircle
 10
316.2962637607
 20
210.5958331854
 30
0.0
 40
6.0
100
AcDbArc
 50
0.0
 51
90.0
  0
ARC
  5
567
330
221
100
AcDbEntity
  8
7_ALL_FEATURES
  6
Continuous
 62
     7
100
AcDbCircle
 10
284.7962637607
 20
214.0958331854
 30
0.0
 40
2.0
100
AcDbArc
 50
90.0
 51
180.0
  0
ARC
  5
568
330
221
100
AcDbEntity
  8
7_ALL_FEATURES
  6
Continuous
 62
     7
100
AcDbCircle
 10
282.3170500677704
 20
44.61395742040904
 30
0.0
 40
2.2692768569
100
AcDbArc
 50
69.02524468850007
 51
69.31841129570034
  0
ARC
  5
569
330
221
100
AcDbEntity
  8
02___PRT_ALL_AXES
  6
Continuous
 62
     7
100
AcDbCircle
 10
276.3386325508703
 20
54.49939548710904
 30
0.0
 40
0.3794638788
100
AcDbArc
 50
44.99872290889907
 51
47.20447923810016
  0
ARC
  5
56A
330
221
100
AcDbEntity
  8
02___PRT_ALL_AXES
  6
Continuous
 62
     7
100
AcDbCircle
 10
152.1955183616703
 20
43.63828034080903
 30
0.0
 40
0.3794638787
100
AcDbArc
 50
44.99872290869845
 51
47.20447923819995
  0
ARC
  5
56B
330
221
100
AcDbEntity
  8
7_ALL_FEATURES
  6
Continuous
 62
     7
100
AcDbCircle
 10
152.2418049677703
 20
43.66305638000904
 30
0.0
 40
0.3465767344
100
AcDbArc
 50
42.96664527429934
 51
43.78561865239843
  0
ARC
  5
56C
330
221
100
AcDbEntity
  8
7_ALL_FEATURES
  6
Continuous
 62
     7
100
AcDbCircle
 10
276.3849191576704
 20
54.52417152710903
 30
0.0
 40
0.3465767334
100
AcDbArc
 50
42.96664527289808
 51
43.78561865330047
  0
ARC
  5
56D
330
221
100
AcDbEntity
  8
7_ALL_FEATURES
  6
Continuous
 62
     7
100
AcDbCircle
 10
151.1471714635703
 20
43.78099250690903
 30
0.0
 40
0.3465397198
100
AcDbArc
 50
123.8968073303992
 51
124.731555560601
  0
ARC
  5
56E
330
221
100
AcDbEntity
  8
7_ALL_FEATURES
  6
Continuous
 62
     7
100
AcDbCircle
 10
275.2902856522704
 20
54.64210765390904
 30
0.0
 40
0.3465397189
100
AcDbArc
 50
123.8968073294021
 51
124.7315555616964
  0
ARC
  5
56F
330
221
100
AcDbEntity
  8
02___PRT_ALL_AXES
  6
Continuous
 62
     7
100
AcDbCircle
 10
276.3650931379703
 20
54.52582405560904
 30
0.0
 40
0.3420655984
100
AcDbArc
 50
42.53027349159748
 51
45.0023755787966
  0
ARC
  5
570
330
221
100
AcDbEntity
  8
02___PRT_ALL_AXES
  6
Continuous
 62
     7
100
AcDbCircle
 10
152.2219789487704
 20
43.66470890920904
 30
0.0
 40
0.3420655985
100
AcDbArc
 50
42.53027349179932
 51
45.00237557869828
  0
ARC
  5
571
330
221
100
AcDbEntity
  8
7_ALL_FEATURES
  6
Continuous
 62
     7
100
AcDbCircle
 10
274.8933962536703
 20
55.27463714840904
 30
0.0
 40
0.2401762735
100
AcDbArc
 50
198.1638830990012
 51
201.6344046446997
  0
ARC
  5
572
330
221
100
AcDbEntity
  8
7_ALL_FEATURES
  6
Continuous
 62
     7
100
AcDbCircle
 10
150.7502820645703
 20
44.41352200210903
 30
0.0
 40
0.2401762736
100
AcDbArc
 50
198.1638830997016
 51
201.6344046439999
  0
SPLINE
  5
573
330
221
100
AcDbEntity
  8
06___PRT_ALL_SURFS
  6
Continuous
 62
     7
100
AcDbSpline
210
0.0
220
0.0
230
1.0
 70
     8
 71
     3
 72
    11
 73
     7
 74
     0
 42
0.000000001
 43
0.0000001
 40
0.0
 40
0.0
 40
0.0
 40
0.0
 40
0.2502570903
 40
0.5003318619
 40
0.7501883674
 40
1.0
 40
1.0
 40
1.0
 40
1.0
 10
87.25251716345001
 20
199.8340173824
 30
0.0
 10
87.28738502219998
 20
199.8636132146501
 30
0.0
 10
87.35743352019999
 20
199.92243749515
 30
0.0
 10
87.4678418537
 20
200.0038599399001
 30
0.0
 10
87.58207726369999
 20
200.0795949479
 30
0.0
 10
87.66036417144998
 20
200.1266585234001
 30
0.0
 10
87.69990125295
 20
200.14948526815
 30
0.0
  0
SPLINE
  5
574
330
221
100
AcDbEntity
  8
06___PRT_ALL_SURFS
  6
Continuous
 62
     7
100
AcDbSpline
210
0.0
220
0.0
230
1.0
 70
     8
 71
     3
 72
    11
 73
     7
 74
     0
 42
0.000000001
 43
0.0000001
 40
0.0
 40
0.0
 40
0.0
 40
0.0
 40
0.2502570107
 40
0.5003316614
 40
0.7501883624
 40
1.0
 40
1.0
 40
1.0
 40
1.0
 10
88.37981298544999
 20
200.4848612374001
 30
0.0
 10
88.33674597619999
 20
200.4694643116501
 30
0.0
 10
88.25077401344997
 20
200.4382147184
 30
0.0
 10
88.1250534087
 20
200.3833025594
 30
0.0
 10
88.00234351545
 20
200.3222357324
 30
0.0
 10
87.92243885744999
 20
200.2779674139
 30
0.0
 10
87.88290032844999
 20
200.25513983365
 30
0.0
  0
SPLINE
  5
575
330
221
100
AcDbEntity
  8
06___PRT_ALL_SURFS
  6
Continuous
 62
     7
100
AcDbSpline
210
0.0
220
0.0
230
1.0
 70
     8
 71
     3
 72
    11
 73
     7
 74
     0
 42
0.000000001
 43
0.0000001
 40
0.0
 40
0.0
 40
0.0
 40
0.0
 40
0.2502570107
 40
0.5003316614
 40
0.7501883624
 40
1.0
 40
1.0
 40
1.0
 40
1.0
 10
87.05808008195
 20
199.6395794831501
 30
0.0
 10
87.0284814207
 20
199.60471184965
 30
0.0
 10
86.9696523137
 20
199.5346629266501
 30
0.0
 10
86.88823115544999
 20
199.42424729965
 30
0.0
 10
86.81249468444999
 20
199.3100069294001
 30
0.0
 10
86.76542937994999
 20
199.23171711215
 30
0.0
 10
86.74260179944999
 20
199.1921785829001
 30
0.0
  0
SPLINE
  5
576
330
221
100
AcDbEntity
  8
06___PRT_ALL_SURFS
  6
Continuous
 62
     7
100
AcDbSpline
210
0.0
220
0.0
230
1.0
 70
     8
 71
     3
 72
    11
 73
     7
 74
     0
 42
0.000000001
 43
0.0000001
 40
0.0
 40
0.0
 40
0.0
 40
0.0
 40
0.2502570107
 40
0.5003316614
 40
0.7501883624
 40
1.0
 40
1.0
 40
1.0
 40
1.0
 10
89.94710813394998
 20
200.5560302584
 30
0.0
 10
89.90211254695
 20
200.56422963415
 30
0.0
 10
89.8120338467
 20
200.5801526736501
 30
0.0
 10
89.6757005297
 20
200.59545765165
 30
0.0
 10
89.53889723145001
 20
200.6039271744
 30
0.0
 10
89.44756360845001
 20
200.60554201515
 30
0.0
 10
89.4019084477
 20
200.60554201515
 30
0.0
  0
SPLINE
  5
577
330
221
100
AcDbEntity
  8
06___PRT_ALL_SURFS
  6
Continuous
 62
     7
100
AcDbSpline
210
0.0
220
0.0
230
1.0
 70
     8
 71
     3
 72
    11
 73
     7
 74
     0
 42
0.000000001
 43
0.0000001
 40
0.0
 40
0.0
 40
0.0
 40
0.0
 40
0.2502570903
 40
0.5003318619
 40
0.7501883674
 40
1.0
 40
1.0
 40
1.0
 40
1.0
 10
88.6454193872
 20
200.5560308569001
 30
0.0
 10
88.6904137547
 20
200.5642276699
 30
0.0
 10
88.78048967369999
 20
200.5801467421501
 30
0.0
 10
88.9168173177
 20
200.5954564814
 30
0.0
 10
89.05361558869997
 20
200.60392721715
 30
0.0
 10
89.1449458272
 20
200.60554201515
 30
0.0
 10
89.19059931669999
 20
200.60554201515
 30
0.0
  0
SPLINE
  5
578
330
221
100
AcDbEntity
  8
06___PRT_ALL_SURFS
  6
Continuous
 62
     7
100
AcDbSpline
210
0.0
220
0.0
230
1.0
 70
     8
 71
     3
 72
    11
 73
     7
 74
     0
 42
0.000000001
 43
0.0000001
 40
0.0
 40
0.0
 40
0.0
 40
0.0
 40
0.2502570107
 40
0.5003316614
 40
0.7501883624
 40
1.0
 40
1.0
 40
1.0
 40
1.0
 10
91.34001005844998
 20
199.8340168639
 30
0.0
 10
91.30514242495
 20
199.8636155254001
 30
0.0
 10
91.23509350194998
 20
199.92244463215
 30
0.0
 10
91.12467787495
 20
200.0038657904
 30
0.0
 10
91.0104375047
 20
200.0796022614001
 30
0.0
 10
90.93214768745001
 20
200.1266675661501
 30
0.0
 10
90.89260915819999
 20
200.1494951466501
 30
0.0
  0
SPLINE
  5
579
330
221
100
AcDbEntity
  8
06___PRT_ALL_SURFS
  6
Continuous
 62
     7
100
AcDbSpline
210
0.0
220
0.0
230
1.0
 70
     8
 71
     3
 72
    11
 73
     7
 74
     0
 42
0.000000001
 43
0.0000001
 40
0.0
 40
0.0
 40
0.0
 40
0.0
 40
0.2502570903
 40
0.5003318619
 40
0.7501883674
 40
1.0
 40
1.0
 40
1.0
 40
1.0
 10
90.21271483495
 20
200.4848617559001
 30
0.0
 10
90.25577950694999
 20
200.4694632204
 30
0.0
 10
90.3417470772
 20
200.4382115819001
 30
0.0
 10
90.4674651497
 20
200.3833063829001
 30
0.0
 10
90.59017129544999
 20
200.3222431199
 30
0.0
 10
90.67007300119998
 20
200.27797645665
 30
0.0
 10
90.70961008295
 20
200.2551497119001
 30
0.0
  0
SPLINE
  5
57A
330
221
100
AcDbEntity
  8
06___PRT_ALL_SURFS
  6
Continuous
 62
     7
100
AcDbSpline
210
0.0
220
0.0
230
1.0
 70
     8
 71
     3
 72
    11
 73
     7
 74
     0
 42
0.000000001
 43
0.0000001
 40
0.0
 40
0.0
 40
0.0
 40
0.0
 40
0.2502570903
 40
0.5003318619
 40
0.7501883674
 40
1.0
 40
1.0
 40
1.0
 40
1.0
 10
91.53444795770001
 20
199.6395797824
 30
0.0
 10
91.5640437897
 20
199.60471192365
 30
0.0
 10
91.6228680702
 20
199.53466342565
 30
0.0
 10
91.70429051519999
 20
199.4242550924
 30
0.0
 10
91.7800255232
 20
199.3100196824
 30
0.0
 10
91.8270890987
 20
199.23173277465
 30
0.0
 10
91.84991584344998
 20
199.1921956929001
 30
0.0
  0
SPLINE
  5
57B
330
221
100
AcDbEntity
  8
06___PRT_ALL_SURFS
  6
Continuous
 62
     7
100
AcDbSpline
210
0.0
220
0.0
230
1.0
 70
     8
 71
     3
 72
    11
 73
     7
 74
     0
 42
0.000000001
 43
0.0000001
 40
0.0
 40
0.0
 40
0.0
 40
0.0
 40
0.2498116376
 40
0.4996683386
 40
0.7497429893
 40
1.0
 40
1.0
 40
1.0
 40
1.0
 10
89.19059931669999
 20
200.60554201515
 30
0.0
 10
89.23625447769997
 20
200.60554201515
 30
0.0
 10
89.32758810045
 20
200.6039271744
 30
0.0
 10
89.46439139869999
 20
200.59545765165
 30
0.0
 10
89.60072471595
 20
200.5801526736501
 30
0.0
 10
89.69080341620001
 20
200.56422963415
 30
0.0
 10
89.7357990032
 20
200.5560302584
 30
0.0
  0
SPLINE
  5
57C
330
221
100
AcDbEntity
  8
06___PRT_ALL_SURFS
  6
Continuous
 62
     7
100
AcDbSpline
210
0.0
220
0.0
230
1.0
 70
     8
 71
     3
 72
    10
 73
     6
 74
     0
 42
0.000000001
 43
0.0000001
 40
0.0
 40
0.0
 40
0.0
 40
0.0
 40
0.4996326473
 40
0.749746052
 40
1.0
 40
1.0
 40
1.0
 40
1.0
 10
86.68875911094999
 20
199.0961098489
 30
0.0
 10
86.72780838645001
 20
199.1595014056501
 30
0.0
 10
86.7897337072
 20
199.2526701351501
 30
0.0
 10
86.88013370769998
 20
199.3712017084
 30
0.0
 10
86.92829179419998
 20
199.42815054815
 30
0.0
 10
86.95242551644999
 20
199.45658040765
 30
0.0
  0
SPLINE
  5
57D
330
221
100
AcDbEntity
  8
06___PRT_ALL_SURFS
  6
Continuous
 62
     7
100
AcDbSpline
210
0.0
220
0.0
230
1.0
 70
     8
 71
     3
 72
    11
 73
     7
 74
     0
 42
0.000000001
 43
0.0000001
 40
0.0
 40
0.0
 40
0.0
 40
0.0
 40
0.2498116376
 40
0.4996683386
 40
0.7497429893
 40
1.0
 40
1.0
 40
1.0
 40
1.0
 10
87.69990125295
 20
200.14948526815
 30
0.0
 10
87.7394397822
 20
200.17231284865
 30
0.0
 10
87.8193444402
 20
200.2165811669
 30
0.0
 10
87.94205433319998
 20
200.27764799415
 30
0.0
 10
88.06777493819997
 20
200.3325601529001
 30
0.0
 10
88.1537469007
 20
200.3638097464001
 30
0.0
 10
88.19681390995
 20
200.3792066719
 30
0.0
  0
SPLINE
  5
57E
330
221
100
AcDbEntity
  8
06___PRT_ALL_SURFS
  6
Continuous
 62
     7
100
AcDbSpline
210
0.0
220
0.0
230
1.0
 70
     8
 71
     3
 72
    11
 73
     7
 74
     0
 42
0.000000001
 43
0.0000001
 40
0.0
 40
0.0
 40
0.0
 40
0.0
 40
0.2498116376
 40
0.4996683386
 40
0.7497429893
 40
1.0
 40
1.0
 40
1.0
 40
1.0
 10
90.70961008295
 20
200.2551497119001
 30
0.0
 10
90.74914861219999
 20
200.2323221314001
 30
0.0
 10
90.8274384292
 20
200.1852568269001
 30
0.0
 10
90.94167879945
 20
200.1095203559
 30
0.0
 10
91.05209442645001
 20
200.02809919765
 30
0.0
 10
91.12214334944998
 20
199.9692700906501
 30
0.0
 10
91.15701098294998
 20
199.9396714294001
 30
0.0
  0
SPLINE
  5
57F
330
221
100
AcDbEntity
  8
7_ALL_FEATURES
  6
Continuous
 62
     7
100
AcDbSpline
210
0.0
220
0.0
230
1.0
 70
     8
 71
     3
 72
    19
 73
    15
 74
     0
 42
0.000000001
 43
0.0000001
 40
0.0
 40
0.0
 40
0.0
 40
0.0
 40
0.0434945911
 40
0.0933958494
 40
0.1494507881
 40
0.2110715383
 40
0.3474780172
 40
0.4943653332
 40
0.6420923554
 40
0.7809215581
 40
0.8442576415
 40
0.9022832897
 40
0.9543266493
 40
1.0
 40
1.0
 40
1.0
 40
1.0
 10
275.0970208469703
 20
54.92975064760904
 30
0.0
 10
275.1162236202703
 20
54.94265403850903
 30
0.0
 10
275.1601450846703
 20
54.96639378140904
 30
0.0
 10
275.2346171171703
 20
54.99463190950904
 30
0.0
 10
275.3209125596703
 20
55.01749696170904
 30
0.0
 10
275.4541298308703
 20
55.04098217970903
 30
0.0
 10
275.6377528536703
 20
55.05306130560903
 30
0.0
 10
275.8671811361704
 20
55.04247931420903
 30
0.0
 10
276.0955274858703
 20
55.00782573510904
 30
0.0
 10
276.2758856773704
 20
54.95983334510903
 30
0.0
 10
276.4053362133703
 20
54.91056174860904
 30
0.0
 10
276.4887739292703
 20
54.87095706150903
 30
0.0
 10
276.5599777741704
 20
54.82835365360904
 30
0.0
 10
276.6011842322703
 20
54.79632516270904
 30
0.0
 10
276.6190056915704
 20
54.77981437080904
 30
0.0
  0
SPLINE
  5
580
330
221
100
AcDbEntity
  8
7_ALL_FEATURES
  6
Continuous
 62
     7
100
AcDbSpline
210
0.0
220
0.0
230
1.0
 70
     8
 71
     3
 72
     9
 73
     5
 74
     0
 42
0.000000001
 43
0.0000001
 40
0.0
 40
0.0
 40
0.0
 40
0.0
 40
0.5078489356
 40
1.0
 40
1.0
 40
1.0
 40
1.0
 10
275.8958216020703
 20
54.86256573240904
 30
0.0
 10
275.9202514475704
 20
54.83842009650904
 30
0.0
 10
275.9703301868703
 20
54.79280106270903
 30
0.0
 10
276.0260687494704
 20
54.75387438520903
 30
0.0
 10
276.0550691772704
 20
54.73753445530903
 30
0.0
  0
SPLINE
  5
581
330
221
100
AcDbEntity
  8
7_ALL_FEATURES
  6
Continuous
 62
     7
100
AcDbSpline
210
0.0
220
0.0
230
1.0
 70
     8
 71
     3
 72
    11
 73
     7
 74
     0
 42
0.000000001
 43
0.0000001
 40
0.0
 40
0.0
 40
0.0
 40
0.0
 40
0.2997846408
 40
0.569262534
 40
0.8033813492
 40
1.0
 40
1.0
 40
1.0
 40
1.0
 10
275.5796166264703
 20
54.96463079730904
 30
0.0
 10
275.5463883681704
 20
54.96172370140904
 30
0.0
 10
275.4834634652703
 20
54.95373653870904
 30
0.0
 10
275.3961139958703
 20
54.93390822700904
 30
0.0
 10
275.3226272409703
 20
54.90742740090904
 30
0.0
 10
275.2805104830703
 20
54.88368125180904
 30
0.0
 10
275.2630642765703
 20
54.87048227480904
 30
0.0
  0
SPLINE
  5
582
330
221
100
AcDbEntity
  8
7_ALL_FEATURES
  6
Continuous
 62
     7
100
AcDbSpline
210
0.0
220
0.0
230
1.0
 70
     8
 71
     3
 72
    15
 73
    11
 74
     0
 42
0.000000001
 43
0.0000001
 40
0.0
 40
0.0
 40
0.0
 40
0.0
 40
0.083697105
 40
0.1857094334
 40
0.3043359869
 40
0.4361701516
 40
0.5767715433
 40
0.7211099052
 40
0.8639040057
 40
1.0
 40
1.0
 40
1.0
 40
1.0
 10
276.4602604515703
 20
54.74144372180903
 30
0.0
 10
276.4433518381703
 20
54.76119168980904
 30
0.0
 10
276.3989196162703
 20
54.79900602460904
 30
0.0
 10
276.3167712276704
 20
54.84630460060903
 30
0.0
 10
276.2153636056703
 20
54.88827474740904
 30
0.0
 10
276.0988109297704
 20
54.92307445110903
 30
0.0
 10
275.9718755824703
 20
54.94924852890904
 30
0.0
 10
275.8398907184703
 20
54.96565271740904
 30
0.0
 10
275.7084335847703
 20
54.97159679110904
 30
0.0
 10
275.6217295156703
 20
54.96831519770903
 30
0.0
 10
275.5796166264703
 20
54.96463079730904
 30
0.0
  0
SPLINE
  5
583
330
221
100
AcDbEntity
  8
7_ALL_FEATURES
  6
Continuous
 62
     7
100
AcDbSpline
210
0.0
220
0.0
230
1.0
 70
     8
 71
     3
 72
     9
 73
     5
 74
     0
 42
0.000000001
 43
0.0000001
 40
0.0
 40
0.0
 40
0.0
 40
0.0
 40
0.2549640882
 40
1.0
 40
1.0
 40
1.0
 40
1.0
 10
275.8958216020703
 20
54.86256573240904
 30
0.0
 10
275.8787157633703
 20
54.85289845880904
 30
0.0
 10
275.8108115385704
 20
54.81662735300904
 30
0.0
 10
275.7379063538704
 20
54.78821409290903
 30
0.0
 10
275.6816624730703
 20
54.77667451390904
 30
0.0
  0
SPLINE
  5
584
330
221
100
AcDbEntity
  8
7_ALL_FEATURES
  6
Continuous
 62
     7
100
AcDbSpline
210
0.0
220
0.0
230
1.0
 70
     8
 71
     3
 72
    19
 73
    15
 74
     0
 42
0.000000001
 43
0.0000001
 40
0.0
 40
0.0
 40
0.0
 40
0.0
 40
0.0434945911
 40
0.0933958494
 40
0.1494507881
 40
0.2110715383
 40
0.3474780172
 40
0.4943653332
 40
0.6420923554
 40
0.7809215581
 40
0.8442576415
 40
0.9022832897
 40
0.9543266493
 40
1.0
 40
1.0
 40
1.0
 40
1.0
 10
150.9539066577703
 20
44.06863550120903
 30
0.0
 10
150.9731094310704
 20
44.08153889210904
 30
0.0
 10
151.0170308954704
 20
44.10527863500904
 30
0.0
 10
151.0915029279703
 20
44.13351676310904
 30
0.0
 10
151.1777983704704
 20
44.15638181540903
 30
0.0
 10
151.3110156416703
 20
44.17986703330904
 30
0.0
 10
151.4946386644703
 20
44.19194615920904
 30
0.0
 10
151.7240669468704
 20
44.18136416790904
 30
0.0
 10
151.9524132966703
 20
44.14671058880904
 30
0.0
 10
152.1327714881703
 20
44.09871819880904
 30
0.0
 10
152.2622220241703
 20
44.04944660220903
 30
0.0
 10
152.3456597400703
 20
44.00984191510904
 30
0.0
 10
152.4168635849703
 20
43.96723850720903
 30
0.0
 10
152.4580700430703
 20
43.93521001630904
 30
0.0
 10
152.4758915023703
 20
43.91869922450904
 30
0.0
  0
SPLINE
  5
585
330
221
100
AcDbEntity
  8
7_ALL_FEATURES
  6
Continuous
 62
     7
100
AcDbSpline
210
0.0
220
0.0
230
1.0
 70
     8
 71
     3
 72
     9
 73
     5
 74
     0
 42
0.000000001
 43
0.0000001
 40
0.0
 40
0.0
 40
0.0
 40
0.0
 40
0.5078489356
 40
1.0
 40
1.0
 40
1.0
 40
1.0
 10
151.7527074128703
 20
44.00145058600904
 30
0.0
 10
151.7771372583703
 20
43.97730495020903
 30
0.0
 10
151.8272159976704
 20
43.93168591640904
 30
0.0
 10
151.8829545602703
 20
43.89275923880903
 30
0.0
 10
151.9119549880703
 20
43.87641930900904
 30
0.0
  0
SPLINE
  5
586
330
221
100
AcDbEntity
  8
7_ALL_FEATURES
  6
Continuous
 62
     7
100
AcDbSpline
210
0.0
220
0.0
230
1.0
 70
     8
 71
     3
 72
    11
 73
     7
 74
     0
 42
0.000000001
 43
0.0000001
 40
0.0
 40
0.0
 40
0.0
 40
0.0
 40
0.2997846408
 40
0.569262534
 40
0.8033813492
 40
1.0
 40
1.0
 40
1.0
 40
1.0
 10
151.4365024372703
 20
44.10351565090903
 30
0.0
 10
151.4032741788703
 20
44.10060855500903
 30
0.0
 10
151.3403492760704
 20
44.09262139240904
 30
0.0
 10
151.2529998066703
 20
44.07279308060903
 30
0.0
 10
151.1795130517703
 20
44.04631225460903
 30
0.0
 10
151.1373962938704
 20
44.02256610540904
 30
0.0
 10
151.1199500873703
 20
44.00936712840904
 30
0.0
  0
SPLINE
  5
587
330
221
100
AcDbEntity
  8
7_ALL_FEATURES
  6
Continuous
 62
     7
100
AcDbSpline
210
0.0
220
0.0
230
1.0
 70
     8
 71
     3
 72
    15
 73
    11
 74
     0
 42
0.000000001
 43
0.0000001
 40
0.0
 40
0.0
 40
0.0
 40
0.0
 40
0.083697105
 40
0.1857094334
 40
0.3043359869
 40
0.4361701516
 40
0.5767715433
 40
0.7211099052
 40
0.8639040057
 40
1.0
 40
1.0
 40
1.0
 40
1.0
 10
152.3171462623703
 20
43.88032857540904
 30
0.0
 10
152.3002376489704
 20
43.90007654340904
 30
0.0
 10
152.2558054270704
 20
43.93789087820903
 30
0.0
 10
152.1736570384703
 20
43.98518945430904
 30
0.0
 10
152.0722494164704
 20
44.02715960100903
 30
0.0
 10
151.9556967405703
 20
44.06195930470903
 30
0.0
 10
151.8287613932704
 20
44.08813338260903
 30
0.0
 10
151.6967765292704
 20
44.10453757110903
 30
0.0
 10
151.5653193955704
 20
44.11048164480904
 30
0.0
 10
151.4786153264703
 20
44.10720005130904
 30
0.0
 10
151.4365024372703
 20
44.10351565090903
 30
0.0
  0
SPLINE
  5
588
330
221
100
AcDbEntity
  8
7_ALL_FEATURES
  6
Continuous
 62
     7
100
AcDbSpline
210
0.0
220
0.0
230
1.0
 70
     8
 71
     3
 72
     9
 73
     5
 74
     0
 42
0.000000001
 43
0.0000001
 40
0.0
 40
0.0
 40
0.0
 40
0.0
 40
0.2549640882
 40
1.0
 40
1.0
 40
1.0
 40
1.0
 10
151.7527074128703
 20
44.00145058600904
 30
0.0
 10
151.7356015741703
 20
43.99178331240904
 30
0.0
 10
151.6676973493703
 20
43.95551220670903
 30
0.0
 10
151.5947921646703
 20
43.92709894650903
 30
0.0
 10
151.5385482838703
 20
43.91555936760903
 30
0.0
  0
SPLINE
  5
589
330
221
100
AcDbEntity
  8
7_ALL_FEATURES
  6
Continuous
 62
     7
100
AcDbSpline
210
0.0
220
0.0
230
1.0
 70
     8
 71
     3
 72
    15
 73
    11
 74
     0
 42
0.000000001
 43
0.0000001
 40
0.0
 40
0.0
 40
0.0
 40
0.0
 40
0.1330567553
 40
0.2725840537
 40
0.414059016
 40
0.5528495558
 40
0.6844752675
 40
0.8048815307
 40
0.9107603682
 40
1.0
 40
1.0
 40
1.0
 40
1.0
 10
168.4429175227704
 20
31.72547622330903
 30
0.0
 10
168.3419107032703
 20
31.71663927160904
 30
0.0
 10
168.1340664110704
 20
31.70822081280903
 30
0.0
 10
167.8184960858703
 20
31.72041272120903
 30
0.0
 10
167.5003531323703
 20
31.75658692120903
 30
0.0
 10
167.1917169849704
 20
31.81537142220904
 30
0.0
 10
166.9042400177703
 20
31.89448266630903
 30
0.0
 10
166.6485749798703
 20
31.99090842570904
 30
0.0
 10
166.4341777725704
 20
32.10087520540904
 30
0.0
 10
166.3127275969703
 20
32.18851226340904
 30
0.0
 10
166.2628429329703
 20
32.23472819250904
 30
0.0
  0
SPLINE
  5
58A
330
221
100
AcDbEntity
  8
7_ALL_FEATURES
  6
Continuous
 62
     7
100
AcDbSpline
210
0.0
220
0.0
230
1.0
 70
     8
 71
     3
 72
     9
 73
     5
 74
     0
 42
0.000000001
 43
0.0000001
 40
0.0
 40
0.0
 40
0.0
 40
0.0
 40
0.2381459391
 40
1.0
 40
1.0
 40
1.0
 40
1.0
 10
277.1562556423704
 20
54.92918095300904
 30
0.0
 10
277.1498089177703
 20
54.92484858490904
 30
0.0
 10
277.1223737879703
 20
54.90720035020904
 30
0.0
 10
277.0936191477704
 20
54.89164396470903
 30
0.0
 10
277.0712736240703
 20
54.88077620490904
 30
0.0
  0
SPLINE
  5
58B
330
221
100
AcDbEntity
  8
7_ALL_FEATURES
  6
Continuous
 62
     7
100
AcDbSpline
210
0.0
220
0.0
230
1.0
 70
     8
 71
     3
 72
    17
 73
    13
 74
     0
 42
0.000000001
 43
0.0000001
 40
0.0
 40
0.0
 40
0.0
 40
0.0
 40
0.0473914484
 40
0.1003271272
 40
0.2209045009
 40
0.3564831156
 40
0.499959101
 40
0.6434408571
 40
0.7790363792
 40
0.8996397329
 40
0.9525911478
 40
1.0
 40
1.0
 40
1.0
 40
1.0
 10
277.0712736240703
 20
54.88077620490904
 30
0.0
 10
277.0361928643703
 20
54.86371465470904
 30
0.0
 10
276.9594612649703
 20
54.83259591970904
 30
0.0
 10
276.7847577738704
 20
54.78142796950904
 30
0.0
 10
276.5326014551703
 20
54.74088379610903
 30
0.0
 10
276.2033820129703
 20
54.72719927440903
 30
0.0
 10
275.8556256230704
 20
54.74789566470903
 30
0.0
 10
275.5114187690704
 20
54.80169244210903
 30
0.0
 10
275.1926152844703
 20
54.88513933160904
 30
0.0
 10
274.9548170552703
 20
54.97842897580904
 30
0.0
 10
274.7949542096703
 20
55.06561246650904
 30
0.0
 10
274.7265728114704
 20
55.11235209740903
 30
0.0
 10
274.6959108508703
 20
55.13649165540903
 30
0.0
  0
SPLINE
  5
58C
330
221
100
AcDbEntity
  8
7_ALL_FEATURES
  6
Continuous
 62
     7
100
AcDbSpline
210
0.0
220
0.0
230
1.0
 70
     8
 71
     3
 72
     9
 73
     5
 74
     0
 42
0.000000001
 43
0.0000001
 40
0.0
 40
0.0
 40
0.0
 40
0.0
 40
0.2572254398
 40
1.0
 40
1.0
 40
1.0
 40
1.0
 10
274.6959108508703
 20
55.13649165540903
 30
0.0
 10
274.6917949087704
 20
55.13973205560903
 30
0.0
 10
274.6759103860704
 20
55.15247659730903
 30
0.0
 10
274.6605047520703
 20
55.16582264040903
 30
0.0
 10
274.6494082991703
 20
55.17610301200904
 30
0.0
  0
SPLINE
  5
58D
330
221
100
AcDbEntity
  8
7_ALL_FEATURES
  6
Continuous
 62
     7
100
AcDbSpline
210
0.0
220
0.0
230
1.0
 70
     8
 71
     3
 72
     9
 73
     5
 74
     0
 42
0.000000001
 43
0.0000001
 40
0.0
 40
0.0
 40
0.0
 40
0.0
 40
0.259962224
 40
1.0
 40
1.0
 40
1.0
 40
1.0
 10
274.6958168704704
 20
55.13661515470903
 30
0.0
 10
274.6932063982703
 20
55.14068393970904
 30
0.0
 10
274.6835016467704
 20
55.15654608020904
 30
0.0
 10
274.6752080873703
 20
55.17329424900903
 30
0.0
 10
274.6701391331703
 20
55.18608828900904
 30
0.0
  0
SPLINE
  5
58E
330
221
100
AcDbEntity
  8
7_ALL_FEATURES
  6
Continuous
 62
     7
100
AcDbSpline
210
0.0
220
0.0
230
1.0
 70
     8
 71
     3
 72
     9
 73
     5
 74
     0
 42
0.000000001
 43
0.0000001
 40
0.0
 40
0.0
 40
0.0
 40
0.0
 40
0.2594289922
 40
1.0
 40
1.0
 40
1.0
 40
1.0
 10
274.6651882650704
 20
55.19976554960904
 30
0.0
 10
274.6629284625703
 20
55.20666230800903
 30
0.0
 10
274.6554498996703
 20
55.23362480640904
 30
0.0
 10
274.6535424328703
 20
55.26220725570904
 30
0.0
 10
274.6557609760703
 20
55.28280565940904
 30
0.0
  0
SPLINE
  5
58F
330
221
100
AcDbEntity
  8
7_ALL_FEATURES
  6
Continuous
 62
     7
100
AcDbSpline
210
0.0
220
0.0
230
1.0
 70
     8
 71
     3
 72
     9
 73
     5
 74
     0
 42
0.000000001
 43
0.0000001
 40
0.0
 40
0.0
 40
0.0
 40
0.0
 40
0.2381459391
 40
1.0
 40
1.0
 40
1.0
 40
1.0
 10
153.0131414531703
 20
44.06806580670904
 30
0.0
 10
153.0066947285704
 20
44.06373343860903
 30
0.0
 10
152.9792595987703
 20
44.04608520380904
 30
0.0
 10
152.9505049585703
 20
44.03052881830904
 30
0.0
 10
152.9281594348703
 20
44.01966105850903
 30
0.0
  0
SPLINE
  5
590
330
221
100
AcDbEntity
  8
7_ALL_FEATURES
  6
Continuous
 62
     7
100
AcDbSpline
210
0.0
220
0.0
230
1.0
 70
     8
 71
     3
 72
    17
 73
    13
 74
     0
 42
0.000000001
 43
0.0000001
 40
0.0
 40
0.0
 40
0.0
 40
0.0
 40
0.0473914484
 40
0.1003271272
 40
0.2209045009
 40
0.3564831156
 40
0.499959101
 40
0.6434408571
 40
0.7790363792
 40
0.8996397329
 40
0.9525911478
 40
1.0
 40
1.0
 40
1.0
 40
1.0
 10
152.9281594348703
 20
44.01966105850903
 30
0.0
 10
152.8930786751703
 20
44.00259950840903
 30
0.0
 10
152.8163470757704
 20
43.97148077340904
 30
0.0
 10
152.6416435846703
 20
43.92031282310904
 30
0.0
 10
152.3894872659703
 20
43.87976864970904
 30
0.0
 10
152.0602678237703
 20
43.86608412800904
 30
0.0
 10
151.7125114338703
 20
43.88678051830904
 30
0.0
 10
151.3683045798703
 20
43.94057729580904
 30
0.0
 10
151.0495010952703
 20
44.02402418530903
 30
0.0
 10
150.8117028660703
 20
44.11731382940904
 30
0.0
 10
150.6518400204703
 20
44.20449732010904
 30
0.0
 10
150.5834586222703
 20
44.25123695100903
 30
0.0
 10
150.5527966616704
 20
44.27537650900904
 30
0.0
  0
SPLINE
  5
591
330
221
100
AcDbEntity
  8
7_ALL_FEATURES
  6
Continuous
 62
     7
100
AcDbSpline
210
0.0
220
0.0
230
1.0
 70
     8
 71
     3
 72
     9
 73
     5
 74
     0
 42
0.000000001
 43
0.0000001
 40
0.0
 40
0.0
 40
0.0
 40
0.0
 40
0.2572254398
 40
1.0
 40
1.0
 40
1.0
 40
1.0
 10
150.5527966616704
 20
44.27537650900904
 30
0.0
 10
150.5486807195703
 20
44.27861690920903
 30
0.0
 10
150.5327961967703
 20
44.29136145100904
 30
0.0
 10
150.5173905628703
 20
44.30470749400904
 30
0.0
 10
150.5062941099704
 20
44.31498786560904
 30
0.0
  0
SPLINE
  5
592
330
221
100
AcDbEntity
  8
7_ALL_FEATURES
  6
Continuous
 62
     7
100
AcDbSpline
210
0.0
220
0.0
230
1.0
 70
     8
 71
     3
 72
     9
 73
     5
 74
     0
 42
0.000000001
 43
0.0000001
 40
0.0
 40
0.0
 40
0.0
 40
0.0
 40
0.259962224
 40
1.0
 40
1.0
 40
1.0
 40
1.0
 10
150.5527026812703
 20
44.27550000830904
 30
0.0
 10
150.5500922089703
 20
44.27956879330904
 30
0.0
 10
150.5403874574703
 20
44.29543093380903
 30
0.0
 10
150.5320938981703
 20
44.31217910270904
 30
0.0
 10
150.5270249439703
 20
44.32497314270904
 30
0.0
  0
SPLINE
  5
593
330
221
100
AcDbEntity
  8
7_ALL_FEATURES
  6
Continuous
 62
     7
100
AcDbSpline
210
0.0
220
0.0
230
1.0
 70
     8
 71
     3
 72
     9
 73
     5
 74
     0
 42
0.000000001
 43
0.0000001
 40
0.0
 40
0.0
 40
0.0
 40
0.0
 40
0.2594289922
 40
1.0
 40
1.0
 40
1.0
 40
1.0
 10
150.5220740758703
 20
44.33865040330903
 30
0.0
 10
150.5198142732704
 20
44.34554716160903
 30
0.0
 10
150.5123357104704
 20
44.37250966010903
 30
0.0
 10
150.5104282436703
 20
44.40109210940903
 30
0.0
 10
150.5126467868703
 20
44.42169051300904
 30
0.0
  0
SPLINE
  5
594
330
221
100
AcDbEntity
  8
7_ALL_FEATURES
  6
Continuous
 62
     7
100
AcDbSpline
210
0.0
220
0.0
230
1.0
 70
     8
 71
     3
 72
     9
 73
     5
 74
     0
 42
0.000000001
 43
0.0000001
 40
0.0
 40
0.0
 40
0.0
 40
0.0
 40
0.4724829734
 40
1.0
 40
1.0
 40
1.0
 40
1.0
 10
152.9982656824703
 20
44.15392934720904
 30
0.0
 10
152.9956757086703
 20
44.12988233900904
 30
0.0
 10
152.9795191903704
 20
44.07980055360903
 30
0.0
 10
152.9472615032703
 20
44.03893725900903
 30
0.0
 10
152.9281897826703
 20
44.01982066070903
 30
0.0
  0
SPLINE
  5
595
330
221
100
AcDbEntity
  8
7_ALL_FEATURES
  6
Continuous
 62
     7
100
AcDbSpline
210
0.0
220
0.0
230
1.0
 70
     8
 71
     3
 72
     9
 73
     5
 74
     0
 42
0.000000001
 43
0.0000001
 40
0.0
 40
0.0
 40
0.0
 40
0.0
 40
0.4724829734
 40
1.0
 40
1.0
 40
1.0
 40
1.0
 10
277.1413798716703
 20
55.01504449360904
 30
0.0
 10
277.1387898978704
 20
54.99099748540904
 30
0.0
 10
277.1226333795703
 20
54.94091569990904
 30
0.0
 10
277.0903756924703
 20
54.90005240540904
 30
0.0
 10
277.0713039719703
 20
54.88093580700904
 30
0.0
  0
SPLINE
  5
596
330
221
100
AcDbEntity
  8
7_ALL_FEATURES
  6
Continuous
 62
     7
100
AcDbSpline
210
0.0
220
0.0
230
1.0
 70
     8
 71
     3
 72
    11
 73
     7
 74
     0
 42
0.000000001
 43
0.0000001
 40
0.0
 40
0.0
 40
0.0
 40
0.0
 40
0.2008613121
 40
0.4364107479
 40
0.704322292
 40
1.0
 40
1.0
 40
1.0
 40
1.0
 10
287.9432811548704
 20
42.33087467570904
 30
0.0
 10
287.8981751874703
 20
42.30056346460904
 30
0.0
 10
287.7925475154703
 20
42.24603903960903
 30
0.0
 10
287.6116936247703
 20
42.18466976300904
 30
0.0
 10
287.4000742050703
 20
42.13853514410904
 30
0.0
 10
287.2485709007703
 20
42.11962405670904
 30
0.0
 10
287.1688776382703
 20
42.11265179960904
 30
0.0
  0
SPLINE
  5
597
330
221
100
AcDbEntity
  8
7_ALL_FEATURES
  6
Continuous
 62
     7
100
AcDbSpline
210
0.0
220
0.0
230
1.0
 70
     8
 71
     3
 72
     9
 73
     5
 74
     0
 42
0.000000001
 43
0.0000001
 40
0.0
 40
0.0
 40
0.0
 40
0.0
 40
0.5252488826
 40
1.0
 40
1.0
 40
1.0
 40
1.0
 10
162.2124738192703
 20
35.98691496540904
 30
0.0
 10
162.1977466710703
 20
36.01127182060904
 30
0.0
 10
162.1748642980703
 20
36.06135351730903
 30
0.0
 10
162.1700612135703
 20
36.11671627760904
 30
0.0
 10
162.1728161425704
 20
36.14229494190904
 30
0.0
  0
SPLINE
  5
598
330
221
100
AcDbEntity
  8
7_ALL_FEATURES
  6
Continuous
 62
     7
100
AcDbSpline
210
0.0
220
0.0
230
1.0
 70
     8
 71
     3
 72
     9
 73
     5
 74
     0
 42
0.000000001
 43
0.0000001
 40
0.0
 40
0.0
 40
0.0
 40
0.0
 40
0.4815325736
 40
1.0
 40
1.0
 40
1.0
 40
1.0
 10
287.8457330382703
 20
42.37268447930904
 30
0.0
 10
287.8434350754703
 20
42.35134860380904
 30
0.0
 10
287.8314403066703
 20
42.30759017430904
 30
0.0
 10
287.8073997925703
 20
42.26938956360904
 30
0.0
 10
287.7930231757703
 20
42.25130184410904
 30
0.0
  0
SPLINE
  5
599
330
221
100
AcDbEntity
  8
7_ALL_FEATURES
  6
Continuous
 62
     7
100
AcDbSpline
210
0.0
220
0.0
230
1.0
 70
     8
 71
     3
 72
    15
 73
    11
 74
     0
 42
0.000000001
 43
0.0000001
 40
0.0
 40
0.0
 40
0.0
 40
0.0
 40
0.1330567553
 40
0.2725840537
 40
0.414059016
 40
0.5528495558
 40
0.6844752675
 40
0.8048815307
 40
0.9107603682
 40
1.0
 40
1.0
 40
1.0
 40
1.0
 10
281.6250999662703
 20
47.24871598190904
 30
0.0
 10
281.7261067857704
 20
47.25755293360903
 30
0.0
 10
281.9339510779703
 20
47.26597139240904
 30
0.0
 10
282.2495214030703
 20
47.25377948400903
 30
0.0
 10
282.5676643566703
 20
47.21760528400904
 30
0.0
 10
282.8763005040703
 20
47.15882078300903
 30
0.0
 10
283.1637774711704
 20
47.07970953890904
 30
0.0
 10
283.4194425091703
 20
46.98328377950904
 30
0.0
 10
283.6338397164703
 20
46.87331699980903
 30
0.0
 10
283.7552898920703
 20
46.78567994180904
 30
0.0
 10
283.8051745560704
 20
46.73946401270904
 30
0.0
  0
SPLINE
  5
59A
330
221
100
AcDbEntity
  8
7_ALL_FEATURES
  6
Continuous
 62
     7
100
AcDbSpline
210
0.0
220
0.0
230
1.0
 70
     8
 71
     3
 72
     9
 73
     5
 74
     0
 42
0.000000001
 43
0.0000001
 40
0.0
 40
0.0
 40
0.0
 40
0.0
 40
0.2348550641
 40
1.0
 40
1.0
 40
1.0
 40
1.0
 10
277.0602644187703
 20
54.87595278550904
 30
0.0
 10
277.0558262605704
 20
54.88222943620903
 30
0.0
 10
277.0360941498703
 20
54.90836426610903
 30
0.0
 10
277.0133616738703
 20
54.93215344070903
 30
0.0
 10
276.9949897889703
 20
54.94917417730903
 30
0.0
  0
SPLINE
  5
59B
330
221
100
AcDbEntity
  8
7_ALL_FEATURES
  6
Continuous
 62
     7
100
AcDbSpline
210
0.0
220
0.0
230
1.0
 70
     8
 71
     3
 72
    15
 73
    11
 74
     0
 42
0.000000001
 43
0.0000001
 40
0.0
 40
0.0
 40
0.0
 40
0.0
 40
0.1502434959
 40
0.2828189436
 40
0.4010163363
 40
0.5102696311
 40
0.6178684214
 40
0.7315008282
 40
0.8574889742
 40
1.0
 40
1.0
 40
1.0
 40
1.0
 10
287.9682377889703
 20
42.88257053240903
 30
0.0
 10
287.9926497197703
 20
42.85995396110904
 30
0.0
 10
288.0360911034704
 20
42.81445596690904
 30
0.0
 10
288.0861135700703
 20
42.74043034690904
 30
0.0
 10
288.1158064250703
 20
42.66557022180903
 30
0.0
 10
288.1238653303703
 20
42.59074374560903
 30
0.0
 10
288.1094233718703
 20
42.51785306930904
 30
0.0
 10
288.0731933411703
 20
42.44898308680904
 30
0.0
 10
288.0167238716704
 20
42.38511128130904
 30
0.0
 10
287.9694807201703
 20
42.34848078410904
 30
0.0
 10
287.9432811548704
 20
42.33087467570904
 30
0.0
  0
SPLINE
  5
59C
330
221
100
AcDbEntity
  8
7_ALL_FEATURES
  6
Continuous
 62
     7
100
AcDbSpline
210
0.0
220
0.0
230
1.0
 70
     8
 71
     3
 72
    27
 73
    23
 74
     0
 42
0.000000001
 43
0.0000001
 40
0.0
 40
0.0
 40
0.0
 40
0.0
 40
0.0220194372
 40
0.0418102779
 40
0.0597918656
 40
0.0765911672
 40
0.0930193707
 40
0.1099544403
 40
0.1281840892
 40
0.1483027178
 40
0.1954800645
 40
0.2528063492
 40
0.3197616711
 40
0.3948554306
 40
0.4759955234
 40
0.5607151092
 40
0.6463448875
 40
0.730165913
 40
0.8095585856
 40
0.882159653
 40
0.9460470271
 40
1.0
 40
1.0
 40
1.0
 40
1.0
 10
274.6229168608704
 20
55.20210459090903
 30
0.0
 10
274.6068889840703
 20
55.21882015010904
 30
0.0
 10
274.5782728369704
 20
55.25242261920904
 30
0.0
 10
274.5452358819704
 20
55.30628401380903
 30
0.0
 10
274.5249660268703
 20
55.36043706980904
 30
0.0
 10
274.5180298847703
 20
55.41439077010904
 30
0.0
 10
274.5248227248703
 20
55.46729900470903
 30
0.0
 10
274.5451901548703
 20
55.51815814700903
 30
0.0
 10
274.5785112816703
 20
55.56630333280904
 30
0.0
 10
274.6428347505703
 20
55.62976798640904
 30
0.0
 10
274.7560841549703
 20
55.69870540380904
 30
0.0
 10
274.9255791061703
 20
55.76193034300904
 30
0.0
 10
275.1306261555703
 20
55.80824682190904
 30
0.0
 10
275.3640568360703
 20
55.83588403840903
 30
0.0
 10
275.6176309899703
 20
55.84379223940904
 30
0.0
 10
275.8820911216703
 20
55.83160003150904
 30
0.0
 10
276.1477398914703
 20
55.79972810170904
 30
0.0
 10
276.4048199600704
 20
55.74934949630904
 30
0.0
 10
276.6439083197703
 20
55.68236359810903
 30
0.0
 10
276.8564132140704
 20
55.60124339650903
 30
0.0
 10
277.0347111322703
 20
55.50906424760903
 30
0.0
 10
277.1357885648703
 20
55.43583849910904
 30
0.0
 10
277.1774135335704
 20
55.39727481130903
 30
0.0
  0
SPLINE
  5
59D
330
221
100
AcDbEntity
  8
7_ALL_FEATURES
  6
Continuous
 62
     7
100
AcDbSpline
210
0.0
220
0.0
230
1.0
 70
     8
 71
     3
 72
    15
 73
    11
 74
     0
 42
0.000000001
 43
0.0000001
 40
0.0
 40
0.0
 40
0.0
 40
0.0
 40
0.1502447045
 40
0.2828217682
 40
0.4010209174
 40
0.5102753905
 40
0.6178745732
 40
0.731505949
 40
0.8574919018
 40
1.0
 40
1.0
 40
1.0
 40
1.0
 10
153.0342993443703
 20
44.53615966500904
 30
0.0
 10
153.0550118933703
 20
44.51697040680904
 30
0.0
 10
153.0918703268703
 20
44.47836719460904
 30
0.0
 10
153.1343129995703
 20
44.41555956020903
 30
0.0
 10
153.1595074097704
 20
44.35204391490903
 30
0.0
 10
153.1663467146703
 20
44.28855678260904
 30
0.0
 10
153.1540961782704
 20
44.22671189870904
 30
0.0
 10
153.1233599805703
 20
44.16827777480904
 30
0.0
 10
153.0754512769703
 20
44.11408443330903
 30
0.0
 10
153.0353698334704
 20
44.08300386160904
 30
0.0
 10
153.0131414531703
 20
44.06806580670904
 30
0.0
  0
SPLINE
  5
59E
330
221
100
AcDbEntity
  8
7_ALL_FEATURES
  6
Continuous
 62
     7
100
AcDbSpline
210
0.0
220
0.0
230
1.0
 70
     8
 71
     3
 72
    19
 73
    15
 74
     0
 42
0.000000001
 43
0.0000001
 40
0.0
 40
0.0
 40
0.0
 40
0.0
 40
0.0563254964
 40
0.1070310263
 40
0.1531422378
 40
0.1961929274
 40
0.2381745022
 40
0.281264671
 40
0.3274479074
 40
0.3782500592
 40
0.4970781206
 40
0.6414090393
 40
0.810218067
 40
1.0
 40
1.0
 40
1.0
 40
1.0
 10
162.0685641930703
 20
36.12225937720903
 30
0.0
 10
162.0499494067703
 20
36.14167215540904
 30
0.0
 10
162.0166612549703
 20
36.18069399040904
 30
0.0
 10
161.9780179235703
 20
36.24317177060904
 30
0.0
 10
161.9539440954703
 20
36.30597910770904
 30
0.0
 10
161.9450625184703
 20
36.36857442980903
 30
0.0
 10
161.9518292647703
 20
36.43003973220904
 30
0.0
 10
161.9741213555703
 20
36.48925586730904
 30
0.0
 10
162.0112772694704
 20
36.54544119290904
 30
0.0
 10
162.0835186545704
 20
36.61960648370903
 30
0.0
 10
162.2117285827703
 20
36.70068455220904
 30
0.0
 10
162.4046041387703
 20
36.77570576320903
 30
0.0
 10
162.6387736199704
 20
36.83159571540904
 30
0.0
 10
162.8088636700703
 20
36.85364226320904
 30
0.0
 10
162.8991398507704
 20
36.86154040560903
 30
0.0
  0
SPLINE
  5
59F
330
221
100
AcDbEntity
  8
7_ALL_FEATURES
  6
Continuous
 62
     7
100
AcDbSpline
210
0.0
220
0.0
230
1.0
 70
     8
 71
     3
 72
    15
 73
    11
 74
     0
 42
0.000000001
 43
0.0000001
 40
0.0
 40
0.0
 40
0.0
 40
0.0
 40
0.1502447045
 40
0.2828217682
 40
0.4010209174
 40
0.5102753905
 40
0.6178745732
 40
0.731505949
 40
0.8574919018
 40
1.0
 40
1.0
 40
1.0
 40
1.0
 10
277.1774135335704
 20
55.39727481130903
 30
0.0
 10
277.1981260825704
 20
55.37808555310903
 30
0.0
 10
277.2349845160704
 20
55.33948234100903
 30
0.0
 10
277.2774271887703
 20
55.27667470660904
 30
0.0
 10
277.3026215989703
 20
55.21315906130904
 30
0.0
 10
277.3094609038703
 20
55.14967192900903
 30
0.0
 10
277.2972103675704
 20
55.08782704510904
 30
0.0
 10
277.2664741697703
 20
55.02939292110904
 30
0.0
 10
277.2185654662703
 20
54.97519957970904
 30
0.0
 10
277.1784840226703
 20
54.94411900790904
 30
0.0
 10
277.1562556423704
 20
54.92918095300904
 30
0.0
  0
SPLINE
  5
5A0
330
221
100
AcDbEntity
  8
7_ALL_FEATURES
  6
Continuous
 62
     7
100
AcDbSpline
210
0.0
220
0.0
230
1.0
 70
     8
 71
     3
 72
    14
 73
    10
 74
     0
 42
0.000000001
 43
0.0000001
 40
0.0
 40
0.0
 40
0.0
 40
0.0
 40
0.0841234349
 40
0.174350985
 40
0.2754105604
 40
0.3902271893
 40
0.5201997965
 40
0.665617414
 40
1.0
 40
1.0
 40
1.0
 40
1.0
 10
162.1728161425704
 20
36.14229494190904
 30
0.0
 10
162.1750457145703
 20
36.16299582980903
 30
0.0
 10
162.1864505512704
 20
36.20540138200904
 30
0.0
 10
162.2224047037703
 20
36.26416262090903
 30
0.0
 10
162.2760305737704
 20
36.31841748900904
 30
0.0
 10
162.3463182110704
 20
36.36786157120903
 30
0.0
 10
162.4323894089704
 20
36.41219490850904
 30
0.0
 10
162.5734658411703
 20
36.46638926380903
 30
0.0
 10
162.6896722399703
 20
36.49369746950903
 30
0.0
 10
162.7711748505703
 20
36.50806859930904
 30
0.0
  0
SPLINE
  5
5A1
330
221
100
AcDbEntity
  8
7_ALL_FEATURES
  6
Continuous
 62
     7
100
AcDbSpline
210
0.0
220
0.0
230
1.0
 70
     8
 71
     3
 72
    27
 73
    23
 74
     0
 42
0.000000001
 43
0.0000001
 40
0.0
 40
0.0
 40
0.0
 40
0.0
 40
0.0220194372
 40
0.0418102779
 40
0.0597918656
 40
0.0765911672
 40
0.0930193707
 40
0.1099544403
 40
0.1281840892
 40
0.1483027178
 40
0.1954800645
 40
0.2528063492
 40
0.3197616711
 40
0.3948554306
 40
0.4759955234
 40
0.5607151092
 40
0.6463448875
 40
0.730165913
 40
0.8095585856
 40
0.882159653
 40
0.9460470271
 40
1.0
 40
1.0
 40
1.0
 40
1.0
 10
150.4798026716703
 20
44.34098944450903
 30
0.0
 10
150.4637747948703
 20
44.35770500380903
 30
0.0
 10
150.4351586477704
 20
44.39130747280903
 30
0.0
 10
150.4021216927704
 20
44.44516886740904
 30
0.0
 10
150.3818518376704
 20
44.49932192350904
 30
0.0
 10
150.3749156954703
 20
44.55327562370904
 30
0.0
 10
150.3817085356704
 20
44.60618385840904
 30
0.0
 10
150.4020759656703
 20
44.65704300060904
 30
0.0
 10
150.4353970924703
 20
44.70518818640903
 30
0.0
 10
150.4997205613703
 20
44.76865284000904
 30
0.0
 10
150.6129699657703
 20
44.83759025750904
 30
0.0
 10
150.7824649169704
 20
44.90081519660903
 30
0.0
 10
150.9875119662703
 20
44.94713167550904
 30
0.0
 10
151.2209426468704
 20
44.97476889200904
 30
0.0
 10
151.4745168007703
 20
44.98267709300903
 30
0.0
 10
151.7389769324703
 20
44.97048488520903
 30
0.0
 10
152.0046257022703
 20
44.93861295540904
 30
0.0
 10
152.2617057708703
 20
44.88823434990904
 30
0.0
 10
152.5007941305703
 20
44.82124845170904
 30
0.0
 10
152.7132990247704
 20
44.74012825010904
 30
0.0
 10
152.8915969430703
 20
44.64794910130904
 30
0.0
 10
152.9926743756703
 20
44.57472335270904
 30
0.0
 10
153.0342993443703
 20
44.53615966500904
 30
0.0
  0
SPLINE
  5
5A2
330
221
100
AcDbEntity
  8
7_ALL_FEATURES
  6
Continuous
 62
     7
100
AcDbSpline
210
0.0
220
0.0
230
1.0
 70
     8
 71
     3
 72
    19
 73
    15
 74
     0
 42
0.000000001
 43
0.0000001
 40
0.0
 40
0.0
 40
0.0
 40
0.0
 40
0.046615882
 40
0.0999913596
 40
0.1596791303
 40
0.2248952482
 40
0.3676066763
 40
0.5183975607
 40
0.6663816216
 40
0.8010287508
 40
0.8605761655
 40
0.9137971229
 40
0.9602517357
 40
1.0
 40
1.0
 40
1.0
 40
1.0
 10
152.8518755997704
 20
44.08805903100904
 30
0.0
 10
152.8243843836703
 20
44.11352842360904
 30
0.0
 10
152.7604362905703
 20
44.16282380690903
 30
0.0
 10
152.6495730000703
 20
44.22797483670904
 30
0.0
 10
152.5192965136704
 20
44.28820540690904
 30
0.0
 10
152.3171684471703
 20
44.36242796770904
 30
0.0
 10
152.0366694645703
 20
44.43295474810904
 30
0.0
 10
151.6842437001704
 20
44.48041177980903
 30
0.0
 10
151.3352289720704
 20
44.48891695750903
 30
0.0
 10
151.0603765622703
 20
44.46243624120903
 30
0.0
 10
150.8660357230704
 20
44.41894972890904
 30
0.0
 10
150.7442404032703
 20
44.37865997820904
 30
0.0
 10
150.6427911572704
 20
44.33024546480904
 30
0.0
 10
150.5856949579703
 20
44.28995101330904
 30
0.0
 10
150.5621247358704
 20
44.26837405740903
 30
0.0
  0
SPLINE
  5
5A3
330
221
100
AcDbEntity
  8
7_ALL_FEATURES
  6
Continuous
 62
     7
100
AcDbSpline
210
0.0
220
0.0
230
1.0
 70
     8
 71
     3
 72
    11
 73
     7
 74
     0
 42
0.000000001
 43
0.0000001
 40
0.0
 40
0.0
 40
0.0
 40
0.0
 40
0.2959151451
 40
0.5553510971
 40
0.7858735835
 40
1.0
 40
1.0
 40
1.0
 40
1.0
 10
152.8840300000703
 20
44.38654734050904
 30
0.0
 10
152.9034347255703
 20
44.36856972280904
 30
0.0
 10
152.9377749806704
 20
44.33239974380903
 30
0.0
 10
152.9765536198703
 20
44.27324421510903
 30
0.0
 10
152.9981748512703
 20
44.21339201390904
 30
0.0
 10
153.0003154314703
 20
44.17296055490904
 30
0.0
 10
152.9982656824703
 20
44.15392934720904
 30
0.0
  0
SPLINE
  5
5A4
330
221
100
AcDbEntity
  8
7_ALL_FEATURES
  6
Continuous
 62
     7
100
AcDbSpline
210
0.0
220
0.0
230
1.0
 70
     8
 71
     3
 72
    17
 73
    13
 74
     0
 42
0.000000001
 43
0.0000001
 40
0.0
 40
0.0
 40
0.0
 40
0.0
 40
0.0453290739
 40
0.0968289716
 40
0.2165614586
 40
0.3536210661
 40
0.4998829803
 40
0.646162174
 40
0.783271655
 40
0.9030805486
 40
0.9546258378
 40
1.0
 40
1.0
 40
1.0
 40
1.0
 10
152.7007716634703
 20
43.93921826680904
 30
0.0
 10
152.6781958881703
 20
43.96004451640904
 30
0.0
 10
152.6262071763703
 20
44.00049058740903
 30
0.0
 10
152.5002554583703
 20
44.07622795460904
 30
0.0
 10
152.3065906307703
 20
44.15723446590904
 30
0.0
 10
152.0426582333703
 20
44.22941177430904
 30
0.0
 10
151.7546695308703
 20
44.27542753530903
 30
0.0
 10
151.4634605902703
 20
44.29191507270903
 30
0.0
 10
151.1901084467704
 20
44.27771692950904
 30
0.0
 10
150.9835012057704
 20
44.23990780710903
 30
0.0
 10
150.8441660907703
 20
44.19280376400904
 30
0.0
 10
150.7846730776703
 20
44.16439141240903
 30
0.0
 10
150.7581349399703
 20
44.14886713280903
 30
0.0
  0
SPLINE
  5
5A5
330
221
100
AcDbEntity
  8
7_ALL_FEATURES
  6
Continuous
 62
     7
100
AcDbSpline
210
0.0
220
0.0
230
1.0
 70
     8
 71
     3
 72
    23
 73
    19
 74
     0
 42
0.000000001
 43
0.0000001
 40
0.0
 40
0.0
 40
0.0
 40
0.0
 40
0.0314892125
 40
0.0674396907
 40
0.1105798139
 40
0.1619106453
 40
0.190654911
 40
0.2213387706
 40
0.288002722
 40
0.3606688293
 40
0.4377758262
 40
0.5175644703
 40
0.5981639484
 40
0.7541355605
 40
0.8260027345
 40
0.8916584317
 40
0.9498992029
 40
1.0
 40
1.0
 40
1.0
 40
1.0
 10
150.5126467868703
 20
44.42169051300904
 30
0.0
 10
150.5155482872703
 20
44.44862993700903
 30
0.0
 10
150.5355142974703
 20
44.50527667700904
 30
0.0
 10
150.5996697878703
 20
44.57762035790904
 30
0.0
 10
150.6938470792703
 20
44.64014761510904
 30
0.0
 10
150.7916306447704
 20
44.68221207960903
 30
0.0
 10
150.8823856727703
 20
44.71141184660904
 30
0.0
 10
150.9874988432703
 20
44.73853616340904
 30
0.0
 10
151.1318183508703
 20
44.76385897460904
 30
0.0
 10
151.3174686842704
 20
44.78066991680903
 30
0.0
 10
151.5151220532703
 20
44.78417177710904
 30
0.0
 10
151.7193942379703
 20
44.77426167120903
 30
0.0
 10
151.9900005410703
 20
44.74377171730903
 30
0.0
 10
152.2508321942703
 20
44.68962532220904
 30
0.0
 10
152.4910547409704
 20
44.61101541310903
 30
0.0
 10
152.6463087676703
 20
44.54496577010903
 30
0.0
 10
152.7774330519703
 20
44.47211473020904
 30
0.0
 10
152.8524061054704
 20
44.41584547650903
 30
0.0
 10
152.8840300000703
 20
44.38654734050904
 30
0.0
  0
SPLINE
  5
5A6
330
221
100
AcDbEntity
  8
02___PRT_ALL_AXES
  6
Continuous
 62
     7
100
AcDbSpline
210
0.0
220
0.0
230
1.0
 70
     8
 71
     3
 72
    17
 73
    13
 74
     0
 42
0.000000001
 43
0.0000001
 40
0.0
 40
0.0
 40
0.0
 40
0.0
 40
0.0429289804
 40
0.0923272555
 40
0.2092020917
 40
0.3453947715
 40
0.4924867953
 40
0.6407013961
 40
0.7801304551
 40
0.9019349575
 40
0.9541796638
 40
1.0
 40
1.0
 40
1.0
 40
1.0
 10
150.9704672982703
 20
44.05838346820903
 30
0.0
 10
150.9886823029703
 20
44.07117111450904
 30
0.0
 10
151.0306330771703
 20
44.09475266490904
 30
0.0
 10
151.1318145289704
 20
44.13440568840903
 30
0.0
 10
151.2861164838703
 20
44.16723560150903
 30
0.0
 10
151.4934693903703
 20
44.18194166960903
 30
0.0
 10
151.7174233687703
 20
44.17230877760903
 30
0.0
 10
151.9407773736703
 20
44.13902592840904
 30
0.0
 10
152.1463939059703
 20
44.08466190060904
 30
0.0
 10
152.2975020027703
 20
44.02263606340904
 30
0.0
 10
152.3955730219703
 20
43.96418107110904
 30
0.0
 10
152.4358944923704
 20
43.93286846150903
 30
0.0
 10
152.4533200270703
 20
43.91672447630904
 30
0.0
  0
SPLINE
  5
5A7
330
221
100
AcDbEntity
  8
7_ALL_FEATURES
  6
Continuous
 62
     7
100
AcDbSpline
210
0.0
220
0.0
230
1.0
 70
     8
 71
     3
 72
     9
 73
     5
 74
     0
 42
0.000000001
 43
0.0000001
 40
0.0
 40
0.0
 40
0.0
 40
0.0
 40
0.2348550641
 40
1.0
 40
1.0
 40
1.0
 40
1.0
 10
152.9171502295704
 20
44.01483763910903
 30
0.0
 10
152.9127120713704
 20
44.02111428980903
 30
0.0
 10
152.8929799606703
 20
44.04724911970904
 30
0.0
 10
152.8702474846703
 20
44.07103829430903
 30
0.0
 10
152.8518755997704
 20
44.08805903100904
 30
0.0
  0
SPLINE
  5
5A8
330
221
100
AcDbEntity
  8
7_ALL_FEATURES
  6
Continuous
 62
     7
100
AcDbSpline
210
0.0
220
0.0
230
1.0
 70
     8
 71
     3
 72
    19
 73
    15
 74
     0
 42
0.000000001
 43
0.0000001
 40
0.0
 40
0.0
 40
0.0
 40
0.0
 40
0.046615882
 40
0.0999913596
 40
0.1596791303
 40
0.2248952482
 40
0.3676066763
 40
0.5183975607
 40
0.6663816216
 40
0.8010287508
 40
0.8605761655
 40
0.9137971229
 40
0.9602517357
 40
1.0
 40
1.0
 40
1.0
 40
1.0
 10
276.9949897889703
 20
54.94917417730903
 30
0.0
 10
276.9674985728703
 20
54.97464357000904
 30
0.0
 10
276.9035504797703
 20
55.02393895320904
 30
0.0
 10
276.7926871893703
 20
55.08908998310903
 30
0.0
 10
276.6624107028703
 20
55.14932055330904
 30
0.0
 10
276.4602826363703
 20
55.22354311410903
 30
0.0
 10
276.1797836538703
 20
55.29406989450904
 30
0.0
 10
275.8273578893703
 20
55.34152692620904
 30
0.0
 10
275.4783431612703
 20
55.35003210390903
 30
0.0
 10
275.2034907514703
 20
55.32355138760903
 30
0.0
 10
275.0091499122703
 20
55.28006487520904
 30
0.0
 10
274.8873545924703
 20
55.23977512450904
 30
0.0
 10
274.7859053464703
 20
55.19136061120903
 30
0.0
 10
274.7288091471704
 20
55.15106615960903
 30
0.0
 10
274.7052389250703
 20
55.12948920370904
 30
0.0
  0
SPLINE
  5
5A9
330
221
100
AcDbEntity
  8
7_ALL_FEATURES
  6
Continuous
 62
     7
100
AcDbSpline
210
0.0
220
0.0
230
1.0
 70
     8
 71
     3
 72
    11
 73
     7
 74
     0
 42
0.000000001
 43
0.0000001
 40
0.0
 40
0.0
 40
0.0
 40
0.0
 40
0.2959151451
 40
0.5553510971
 40
0.7858735835
 40
1.0
 40
1.0
 40
1.0
 40
1.0
 10
277.0271441892704
 20
55.24766248690904
 30
0.0
 10
277.0465489147704
 20
55.22968486920904
 30
0.0
 10
277.0808891698703
 20
55.19351489020903
 30
0.0
 10
277.1196678090703
 20
55.13435936150904
 30
0.0
 10
277.1412890404703
 20
55.07450716030904
 30
0.0
 10
277.1434296206704
 20
55.03407570130904
 30
0.0
 10
277.1413798716703
 20
55.01504449360904
 30
0.0
  0
SPLINE
  5
5AA
330
221
100
AcDbEntity
  8
7_ALL_FEATURES
  6
Continuous
 62
     7
100
AcDbSpline
210
0.0
220
0.0
230
1.0
 70
     8
 71
     3
 72
    11
 73
     7
 74
     0
 42
0.000000001
 43
0.0000001
 40
0.0
 40
0.0
 40
0.0
 40
0.0
 40
0.2959151382
 40
0.555351106
 40
0.7858734805
 40
1.0
 40
1.0
 40
1.0
 40
1.0
 10
287.7177888818703
 20
42.63321665830904
 30
0.0
 10
287.7395221778704
 20
42.61308172330904
 30
0.0
 10
287.7779832510703
 20
42.57257132260904
 30
0.0
 10
287.8214153515704
 20
42.50631713830904
 30
0.0
 10
287.8456311522704
 20
42.43928268480904
 30
0.0
 10
287.8480287493703
 20
42.39399944710904
 30
0.0
 10
287.8457330382703
 20
42.37268447930904
 30
0.0
  0
SPLINE
  5
5AB
330
221
100
AcDbEntity
  8
7_ALL_FEATURES
  6
Continuous
 62
     7
100
AcDbSpline
210
0.0
220
0.0
230
1.0
 70
     8
 71
     3
 72
     9
 73
     5
 74
     0
 42
0.000000001
 43
0.0000001
 40
0.0
 40
0.0
 40
0.0
 40
0.0
 40
0.5192636292
 40
1.0
 40
1.0
 40
1.0
 40
1.0
 10
282.3675616461703
 20
46.91052789760904
 30
0.0
 10
282.5003640194703
 20
46.89550388500903
 30
0.0
 10
282.7547287634703
 20
46.85273292990904
 30
0.0
 10
283.0027408989703
 20
46.78069676150903
 30
0.0
 10
283.1185001789704
 20
46.73699655620904
 30
0.0
  0
SPLINE
  5
5AC
330
221
100
AcDbEntity
  8
7_ALL_FEATURES
  6
Continuous
 62
     7
100
AcDbSpline
210
0.0
220
0.0
230
1.0
 70
     8
 71
     3
 72
     9
 73
     5
 74
     0
 42
0.000000001
 43
0.0000001
 40
0.0
 40
0.0
 40
0.0
 40
0.0
 40
0.5499255381
 40
1.0
 40
1.0
 40
1.0
 40
1.0
 10
283.1293526425703
 20
46.73286798480903
 30
0.0
 10
283.2135334118703
 20
46.70059588930904
 30
0.0
 10
283.3633702568703
 20
46.63302010980904
 30
0.0
 10
283.5005992501704
 20
46.54025584690903
 30
0.0
 10
283.5547256488703
 20
46.49011013860904
 30
0.0
  0
SPLINE
  5
5AD
330
221
100
AcDbEntity
  8
7_ALL_FEATURES
  6
Continuous
 62
     7
100
AcDbSpline
210
0.0
220
0.0
230
1.0
 70
     8
 71
     3
 72
    17
 73
    13
 74
     0
 42
0.000000001
 43
0.0000001
 40
0.0
 40
0.0
 40
0.0
 40
0.0
 40
0.0453290739
 40
0.0968289716
 40
0.2165614586
 40
0.3536210661
 40
0.4998829803
 40
0.646162174
 40
0.783271655
 40
0.9030805486
 40
0.9546258378
 40
1.0
 40
1.0
 40
1.0
 40
1.0
 10
276.8438858527704
 20
54.80033341320903
 30
0.0
 10
276.8213100773704
 20
54.82115966270904
 30
0.0
 10
276.7693213655704
 20
54.86160573380904
 30
0.0
 10
276.6433696475704
 20
54.93734310100903
 30
0.0
 10
276.4497048199703
 20
55.01834961220904
 30
0.0
 10
276.1857724225703
 20
55.09052692070904
 30
0.0
 10
275.8977837200703
 20
55.13654268170903
 30
0.0
 10
275.6065747794703
 20
55.15303021910904
 30
0.0
 10
275.3332226359703
 20
55.13883207590904
 30
0.0
 10
275.1266153949703
 20
55.10102295350903
 30
0.0
 10
274.9872802799703
 20
55.05391891040904
 30
0.0
 10
274.9277872668703
 20
55.02550655870904
 30
0.0
 10
274.9012491291704
 20
55.00998227910904
 30
0.0
  0
SPLINE
  5
5AE
330
221
100
AcDbEntity
  8
7_ALL_FEATURES
  6
Continuous
 62
     7
100
AcDbSpline
210
0.0
220
0.0
230
1.0
 70
     8
 71
     3
 72
    23
 73
    19
 74
     0
 42
0.000000001
 43
0.0000001
 40
0.0
 40
0.0
 40
0.0
 40
0.0
 40
0.0314892125
 40
0.0674396907
 40
0.1105798139
 40
0.1619106453
 40
0.190654911
 40
0.2213387706
 40
0.288002722
 40
0.3606688293
 40
0.4377758262
 40
0.5175644703
 40
0.5981639484
 40
0.7541355605
 40
0.8260027345
 40
0.8916584317
 40
0.9498992029
 40
1.0
 40
1.0
 40
1.0
 40
1.0
 10
274.6557609760703
 20
55.28280565940904
 30
0.0
 10
274.6586624764703
 20
55.30974508340904
 30
0.0
 10
274.6786284866703
 20
55.36639182340903
 30
0.0
 10
274.7427839770704
 20
55.43873550430904
 30
0.0
 10
274.8369612684704
 20
55.50126276150904
 30
0.0
 10
274.9347448339703
 20
55.54332722590904
 30
0.0
 10
275.0254998620703
 20
55.57252699290903
 30
0.0
 10
275.1306130325704
 20
55.59965130980903
 30
0.0
 10
275.2749325400703
 20
55.62497412090903
 30
0.0
 10
275.4605828734703
 20
55.64178506320904
 30
0.0
 10
275.6582362424704
 20
55.64528692350903
 30
0.0
 10
275.8625084271703
 20
55.63537681750904
 30
0.0
 10
276.1331147302703
 20
55.60488686360904
 30
0.0
 10
276.3939463834703
 20
55.55074046860904
 30
0.0
 10
276.6341689301703
 20
55.47213055950904
 30
0.0
 10
276.7894229568703
 20
55.40608091650904
 30
0.0
 10
276.9205472411704
 20
55.33322987660904
 30
0.0
 10
276.9955202947704
 20
55.27696062290903
 30
0.0
 10
277.0271441892704
 20
55.24766248690904
 30
0.0
  0
SPLINE
  5
5AF
330
221
100
AcDbEntity
  8
02___PRT_ALL_AXES
  6
Continuous
 62
     7
100
AcDbSpline
210
0.0
220
0.0
230
1.0
 70
     8
 71
     3
 72
    17
 73
    13
 74
     0
 42
0.000000001
 43
0.0000001
 40
0.0
 40
0.0
 40
0.0
 40
0.0
 40
0.0429289804
 40
0.0923272555
 40
0.2092020917
 40
0.3453947715
 40
0.4924867953
 40
0.6407013961
 40
0.7801304551
 40
0.9019349575
 40
0.9541796638
 40
1.0
 40
1.0
 40
1.0
 40
1.0
 10
275.1135814874704
 20
54.91949861450904
 30
0.0
 10
275.1317964921703
 20
54.93228626090904
 30
0.0
 10
275.1737472663704
 20
54.95586781130903
 30
0.0
 10
275.2749287181703
 20
54.99552083470904
 30
0.0
 10
275.4292306730703
 20
55.02835074790903
 30
0.0
 10
275.6365835795704
 20
55.04305681600904
 30
0.0
 10
275.8605375579704
 20
55.03342392390904
 30
0.0
 10
276.0838915628703
 20
55.00014107470903
 30
0.0
 10
276.2895080951703
 20
54.94577704700903
 30
0.0
 10
276.4406161919703
 20
54.88375120980903
 30
0.0
 10
276.5386872111703
 20
54.82529621740903
 30
0.0
 10
276.5790086815703
 20
54.79398360790904
 30
0.0
 10
276.5964342162703
 20
54.77783962260904
 30
0.0
  0
LINE
  5
66C
330
221
100
AcDbEntity
  8
0
  6
Continuous
 62
     7
100
AcDbLine
 10
13.18364574074565
 20
282.9430135837166
 30
0.0
 11
433.1836457407456
 21
282.9430135837166
 31
0.0
  0
LINE
  5
66D
330
221
100
AcDbEntity
  8
0
  6
Continuous
 62
     7
100
AcDbLine
 10
433.1836457407456
 20
-14.05698641628337
 30
0.0
 11
433.1836457407456
 21
282.9430135837166
 31
0.0
  0
LINE
  5
66E
330
221
100
AcDbEntity
  8
0
  6
Continuous
 62
     7
100
AcDbLine
 10
13.18364574074565
 20
-14.05698641628337
 30
0.0
 11
13.18364574074565
 21
282.9430135837166
 31
0.0
  0
LINE
  5
66F
330
221
100
AcDbEntity
  8
0
  6
Continuous
 62
     7
100
AcDbLine
 10
13.18364574074565
 20
-14.05698641628337
 30
0.0
 11
433.1836457407456
 21
-14.05698641628337
 31
0.0
  0
ENDSEC
  0
SECTION
  2
OBJECTS
  0
DICTIONARY
  5
C
330
0
100
AcDbDictionary
281
     1
  3
ACAD_DETAILVIEWSTYLE
350
636
  3
ACAD_GROUP
350
D
  3
ACAD_LAYOUT
350
1A
  3
ACAD_MATERIAL
350
5F1
  3
ACAD_MLEADERSTYLE
350
5F5
  3
ACAD_MLINESTYLE
350
17
  3
ACAD_PLOTSETTINGS
350
19
  3
ACAD_PLOTSTYLENAME
350
E
  3
ACAD_SCALELIST
350
5B5
  3
ACAD_SECTIONVIEWSTYLE
350
637
  3
ACAD_TABLESTYLE
350
5B0
  3
ACAD_VISUALSTYLE
350
5D8
  3
ACDB_RECOMPOSE_DATA
350
681
  3
AcDbVariableDictionary
350
632
  3
APPDATA
350
5F7
  0
SUN
  5
5F8
330
1F4
100
AcDbSun
 90
        1
290
     0
 63
     7
421
 16777215
 40
1.0
291
     1
 91
  2455826
 92
 54000000
292
     0
 70
     2
 71
   256
280
     1
  0
DICTIONARY
  5
636
102
{ACAD_REACTORS
330
C
102
}
330
C
100
AcDbDictionary
281
     1
  0
DICTIONARY
  5
D
102
{ACAD_REACTORS
330
C
102
}
330
C
100
AcDbDictionary
281
     1
  0
DICTIONARY
  5
1A
102
{ACAD_REACTORS
330
C
102
}
330
C
100
AcDbDictionary
281
     1
  3
Layout1
350
5B2
  3
Model
350
5B1
  0
DICTIONARY
  5
5F1
102
{ACAD_REACTORS
330
C
102
}
330
C
100
AcDbDictionary
281
     1
  3
ByBlock
350
5F3
  3
ByLayer
350
5F2
  3
Global
350
5F4
  0
DICTIONARY
  5
5F5
102
{ACAD_REACTORS
330
C
102
}
330
C
100
AcDbDictionary
281
     1
  3
Standard
350
5F6
  0
DICTIONARY
  5
17
102
{ACAD_REACTORS
330
C
102
}
330
C
100
AcDbDictionary
281
     1
  3
Standard
350
18
  0
DICTIONARY
  5
19
102
{ACAD_REACTORS
330
C
102
}
330
C
100
AcDbDictionary
281
     1
  0
ACDBDICTIONARYWDFLT
  5
E
102
{ACAD_REACTORS
330
C
102
}
330
C
100
AcDbDictionary
281
     1
  3
Normal
350
F
100
AcDbDictionaryWithDefault
340
F
  0
DICTIONARY
  5
5B5
102
{ACAD_REACTORS
330
C
102
}
330
C
100
AcDbDictionary
281
     1
  3
A0
350
5B6
  3
A1
350
5B7
  3
A2
350
5B8
  3
A3
350
5B9
  3
A4
350
5BA
  3
A5
350
5BB
  3
A6
350
5BC
  3
A7
350
5BD
  3
A8
350
5BE
  3
A9
350
5BF
  3
B0
350
5C0
  3
B1
350
5C1
  3
B2
350
5C2
  3
B3
350
5C3
  3
B4
350
5C4
  3
B5
350
5C5
  3
B6
350
5C6
  3
B7
350
5C7
  3
B8
350
5C8
  3
B9
350
5C9
  3
C0
350
5CA
  3
C1
350
5CB
  3
C2
350
5CC
  3
C3
350
5CD
  3
C4
350
5CE
  3
C5
350
5CF
  3
C6
350
5D0
  3
C7
350
5D1
  3
C8
350
5D2
  3
C9
350
5D3
  3
D0
350
5D4
  3
D1
350
5D5
  3
D2
350
5D6
  0
DICTIONARY
  5
637
102
{ACAD_REACTORS
330
C
102
}
330
C
100
AcDbDictionary
281
     1
  0
DICTIONARY
  5
5B0
330
C
100
AcDbDictionary
281
     1
  3
Standard
350
5B3
  3
Standard1
350
5B4
  0
DICTIONARY
  5
5D8
102
{ACAD_REACTORS
330
C
102
}
330
C
100
AcDbDictionary
281
     1
  3
2dWireframe
350
5DD
  3
Basic
350
5E0
  3
Brighten
350
5E4
  3
ColorChange
350
5E8
  3
Conceptual
350
5E2
  3
Dim
350
5E3
  3
EdgeColorOff
350
5EB
  3
Facepattern
350
5E7
  3
Flat
350
5D9
  3
FlatWithEdges
350
5DA
  3
Gouraud
350
5DB
  3
GouraudWithEdges
350
5DC
  3
Hidden
350
5DF
  3
JitterOff
350
5E9
  3
Linepattern
350
5E6
  3
OverhangOff
350
5EA
  3
Realistic
350
5E1
  3
Shaded
350
5F0
  3
Shaded with edges
350
5EF
  3
Shades of Gray
350
5EC
  3
Sketchy
350
5ED
  3
Thicken
350
5E5
  3
Wireframe
350
5DE
  3
X-Ray
350
5EE
  0
XRECORD
  5
681
102
{ACAD_REACTORS
330
C
102
}
330
C
100
AcDbXrecord
280
     1
 90
        1
330
5B4
330
5B3
  0
DICTIONARY
  5
632
102
{ACAD_REACTORS
330
C
102
}
330
C
100
AcDbDictionary
281
     1
  3
CANNOSCALE
350
633
  3
CMLEADERSTYLE
350
635
  3
CTABLESTYLE
350
634
  0
DICTIONARY
  5
5F7
102
{ACAD_REACTORS
330
C
102
}
330
C
100
AcDbDictionary
281
     1
  0
LAYOUT
  5
5B2
102
{ACAD_REACTORS
330
1A
102
}
330
1A
100
AcDbPlotSettings
  1

  2
none_device
  4
ISO_A3_(420.00_x_297.00_MM)
  6

 40
0.0
 41
0.0
 42
0.0
 43
0.0
 44
420.0
 45
297.0
 46
0.0
 47
0.0
 48
0.0
 49
0.0
140
0.0
141
0.0
142
1.0
143
1.0
 70
     0
 72
     1
 73
     0
 74
     0
  7

 75
     0
 76
     0
 77
     2
 78
   300
147
1.0
148
0.0
149
0.0
100
AcDbLayout
  1
Layout1
 70
     0
 71
     1
 10
0.0
 20
0.0
 11
420.0
 21
297.0
 12
0.0
 22
0.0
 32
0.0
 14
0.0
 24
0.0
 34
0.0
 15
0.0
 25
0.0
 35
0.0
146
0.0
 13
0.0
 23
0.0
 33
0.0
 16
1.0
 26
0.0
 36
0.0
 17
0.0
 27
1.0
 37
0.0
 76
     0
330
222
  0
LAYOUT
  5
5B1
102
{ACAD_REACTORS
330
1A
102
}
330
1A
100
AcDbPlotSettings
  1

  2
none_device
  4
ISO_A3_(420.00_x_297.00_MM)
  6

 40
0.0
 41
0.0
 42
0.0
 43
0.0
 44
420.0
 45
297.0
 46
0.0
 47
0.0
 48
0.0
 49
0.0
140
0.0
141
0.0
142
1.0
143
1.0
 70
  1024
 72
     1
 73
     0
 74
     0
  7

 75
     0
 76
     0
 77
     2
 78
   300
147
1.0
148
0.0
149
0.0
100
AcDbLayout
  1
Model
 70
     0
 71
     0
 10
0.0
 20
0.0
 11
420.0
 21
297.0
 12
0.0
 22
0.0
 32
0.0
 14
13.18364574074565
 24
-14.05698641628337
 34
0.0
 15
433.5173961629457
 25
282.9430135837166
 35
0.0
146
0.0
 13
0.0
 23
0.0
 33
0.0
 16
1.0
 26
0.0
 36
0.0
 17
0.0
 27
1.0
 37
0.0
 76
     0
330
221
331
1F4
  0
MATERIAL
  5
5F3
102
{ACAD_REACTORS
330
5F1
102
}
330
5F1
100
AcDbMaterial
  1
ByBlock
 72
     1
 94
      127
  0
MATERIAL
  5
5F2
102
{ACAD_REACTORS
330
5F1
102
}
330
5F1
100
AcDbMaterial
  1
ByLayer
 72
     1
 94
      127
  0
MATERIAL
  5
5F4
102
{ACAD_REACTORS
330
5F1
102
}
330
5F1
100
AcDbMaterial
  1
Global
 72
     1
 94
      127
  0
MLEADERSTYLE
  5
5F6
102
{ACAD_REACTORS
330
5F5
102
}
330
5F5
100
AcDbMLeaderStyle
170
     2
171
     1
172
     0
 90
        2
 40
0.0
 41
0.0
173
     1
 91
-1056964608
340
14
 92
       -2
290
     1
 42
2.0
291
     1
 43
8.0
  3
Standard
341
0
 44
4.0
300

342
11
174
     1
178
     1
175
     1
176
     0
 93
-1056964608
 45
4.0
292
     0
297
     0
 46
4.0
343
0
 94
-1056964608
 47
1.0
 49
1.0
140
1.0
293
     1
141
0.0
294
     1
177
     0
142
1.0
295
     0
296
     0
143
3.75
1001
ACAD_MLEADERVER
1070
     2
  0
MLINESTYLE
  5
18
102
{ACAD_REACTORS
330
17
102
}
330
17
100
AcDbMlineStyle
  2
STANDARD
 70
     0
  3

 62
   256
 51
90.0
 52
90.0
 71
     2
 49
0.5
 62
   256
  6
BYLAYER
 49
-0.5
 62
   256
  6
BYLAYER
  0
ACDBPLACEHOLDER
  5
F
102
{ACAD_REACTORS
330
E
102
}
330
E
  0
SCALE
  5
5B6
102
{ACAD_REACTORS
330
5B5
102
}
330
5B5
100
AcDbScale
 70
     0
300
1:1
140
1.0
141
1.0
290
     1
  0
SCALE
  5
5B7
102
{ACAD_REACTORS
330
5B5
102
}
330
5B5
100
AcDbScale
 70
     0
300
1:2
140
1.0
141
2.0
290
     0
  0
SCALE
  5
5B8
102
{ACAD_REACTORS
330
5B5
102
}
330
5B5
100
AcDbScale
 70
     0
300
1:4
140
1.0
141
4.0
290
     0
  0
SCALE
  5
5B9
102
{ACAD_REACTORS
330
5B5
102
}
330
5B5
100
AcDbScale
 70
     0
300
1:5
140
1.0
141
5.0
290
     0
  0
SCALE
  5
5BA
102
{ACAD_REACTORS
330
5B5
102
}
330
5B5
100
AcDbScale
 70
     0
300
1:8
140
1.0
141
8.0
290
     0
  0
SCALE
  5
5BB
102
{ACAD_REACTORS
330
5B5
102
}
330
5B5
100
AcDbScale
 70
     0
300
1:10
140
1.0
141
10.0
290
     0
  0
SCALE
  5
5BC
102
{ACAD_REACTORS
330
5B5
102
}
330
5B5
100
AcDbScale
 70
     0
300
1:16
140
1.0
141
16.0
290
     0
  0
SCALE
  5
5BD
102
{ACAD_REACTORS
330
5B5
102
}
330
5B5
100
AcDbScale
 70
     0
300
1:20
140
1.0
141
20.0
290
     0
  0
SCALE
  5
5BE
102
{ACAD_REACTORS
330
5B5
102
}
330
5B5
100
AcDbScale
 70
     0
300
1:30
140
1.0
141
30.0
290
     0
  0
SCALE
  5
5BF
102
{ACAD_REACTORS
330
5B5
102
}
330
5B5
100
AcDbScale
 70
     0
300
1:40
140
1.0
141
40.0
290
     0
  0
SCALE
  5
5C0
102
{ACAD_REACTORS
330
5B5
102
}
330
5B5
100
AcDbScale
 70
     0
300
1:50
140
1.0
141
50.0
290
     0
  0
SCALE
  5
5C1
102
{ACAD_REACTORS
330
5B5
102
}
330
5B5
100
AcDbScale
 70
     0
300
1:100
140
1.0
141
100.0
290
     0
  0
SCALE
  5
5C2
102
{ACAD_REACTORS
330
5B5
102
}
330
5B5
100
AcDbScale
 70
     0
300
2:1
140
2.0
141
1.0
290
     0
  0
SCALE
  5
5C3
102
{ACAD_REACTORS
330
5B5
102
}
330
5B5
100
AcDbScale
 70
     0
300
4:1
140
4.0
141
1.0
290
     0
  0
SCALE
  5
5C4
102
{ACAD_REACTORS
330
5B5
102
}
330
5B5
100
AcDbScale
 70
     0
300
8:1
140
8.0
141
1.0
290
     0
  0
SCALE
  5
5C5
102
{ACAD_REACTORS
330
5B5
102
}
330
5B5
100
AcDbScale
 70
     0
300
10:1
140
10.0
141
1.0
290
     0
  0
SCALE
  5
5C6
102
{ACAD_REACTORS
330
5B5
102
}
330
5B5
100
AcDbScale
 70
     0
300
100:1
140
100.0
141
1.0
290
     0
  0
SCALE
  5
5C7
102
{ACAD_REACTORS
330
5B5
102
}
330
5B5
100
AcDbScale
 70
     0
300
1/128" = 1'-0"
140
0.0078125
141
12.0
290
     0
  0
SCALE
  5
5C8
102
{ACAD_REACTORS
330
5B5
102
}
330
5B5
100
AcDbScale
 70
     0
300
1/64" = 1'-0"
140
0.015625
141
12.0
290
     0
  0
SCALE
  5
5C9
102
{ACAD_REACTORS
330
5B5
102
}
330
5B5
100
AcDbScale
 70
     0
300
1/32" = 1'-0"
140
0.03125
141
12.0
290
     0
  0
SCALE
  5
5CA
102
{ACAD_REACTORS
330
5B5
102
}
330
5B5
100
AcDbScale
 70
     0
300
1/16" = 1'-0"
140
0.0625
141
12.0
290
     0
  0
SCALE
  5
5CB
102
{ACAD_REACTORS
330
5B5
102
}
330
5B5
100
AcDbScale
 70
     0
300
3/32" = 1'-0"
140
0.09375
141
12.0
290
     0
  0
SCALE
  5
5CC
102
{ACAD_REACTORS
330
5B5
102
}
330
5B5
100
AcDbScale
 70
     0
300
1/8" = 1'-0"
140
0.125
141
12.0
290
     0
  0
SCALE
  5
5CD
102
{ACAD_REACTORS
330
5B5
102
}
330
5B5
100
AcDbScale
 70
     0
300
3/16" = 1'-0"
140
0.1875
141
12.0
290
     0
  0
SCALE
  5
5CE
102
{ACAD_REACTORS
330
5B5
102
}
330
5B5
100
AcDbScale
 70
     0
300
1/4" = 1'-0"
140
0.25
141
12.0
290
     0
  0
SCALE
  5
5CF
102
{ACAD_REACTORS
330
5B5
102
}
330
5B5
100
AcDbScale
 70
     0
300
3/8" = 1'-0"
140
0.375
141
12.0
290
     0
  0
SCALE
  5
5D0
102
{ACAD_REACTORS
330
5B5
102
}
330
5B5
100
AcDbScale
 70
     0
300
1/2" = 1'-0"
140
0.5
141
12.0
290
     0
  0
SCALE
  5
5D1
102
{ACAD_REACTORS
330
5B5
102
}
330
5B5
100
AcDbScale
 70
     0
300
3/4" = 1'-0"
140
0.75
141
12.0
290
     0
  0
SCALE
  5
5D2
102
{ACAD_REACTORS
330
5B5
102
}
330
5B5
100
AcDbScale
 70
     0
300
1" = 1'-0"
140
1.0
141
12.0
290
     0
  0
SCALE
  5
5D3
102
{ACAD_REACTORS
330
5B5
102
}
330
5B5
100
AcDbScale
 70
     0
300
1-1/2" = 1'-0"
140
1.5
141
12.0
290
     0
  0
SCALE
  5
5D4
102
{ACAD_REACTORS
330
5B5
102
}
330
5B5
100
AcDbScale
 70
     0
300
3" = 1'-0"
140
3.0
141
12.0
290
     0
  0
SCALE
  5
5D5
102
{ACAD_REACTORS
330
5B5
102
}
330
5B5
100
AcDbScale
 70
     0
300
6" = 1'-0"
140
6.0
141
12.0
290
     0
  0
SCALE
  5
5D6
102
{ACAD_REACTORS
330
5B5
102
}
330
5B5
100
AcDbScale
 70
     0
300
1'-0" = 1'-0"
140
12.0
141
12.0
290
     0
  0
TABLESTYLE
  5
5B3
102
{ACAD_REACTORS
330
5B0
330
3CA
102
}
102
{ACAD_XDICTIONARY
360
67C
102
}
330
5B0
100
AcDbTableStyle
  3
Standard
 70
     0
 71
     0
 40
0.06
 41
0.06
280
     1
281
     1
  7
STANDARD
140
0.18
170
     1
 62
     0
 63
   257
283
     0
 90
        4
 91
        0
  1

274
    -2
284
     1
 64
     0
275
    -2
285
     1
 65
     0
276
    -2
286
     1
 66
     0
277
    -2
287
     1
 67
     0
278
    -2
288
     1
 68
     0
279
    -2
289
     1
 69
     0
  7
STANDARD
140
0.18
170
     1
 62
     0
 63
   257
283
     0
 90
        4
 91
        0
  1

274
    -2
284
     1
 64
     0
275
    -2
285
     1
 65
     0
276
    -2
286
     1
 66
     0
277
    -2
287
     1
 67
     0
278
    -2
288
     1
 68
     0
279
    -2
289
     1
 69
     0
  7
STANDARD
140
0.18
170
     1
 62
     0
 63
   257
283
     0
 90
        4
 91
        0
  1

274
    -2
284
     1
 64
     0
275
    -2
285
     1
 65
     0
276
    -2
286
     1
 66
     0
277
    -2
287
     1
 67
     0
278
    -2
288
     1
 68
     0
279
    -2
289
     1
 69
     0
  0
TABLESTYLE
  5
5B4
102
{ACAD_REACTORS
330
5B0
102
}
102
{ACAD_XDICTIONARY
360
67E
102
}
330
5B0
100
AcDbTableStyle
  3
Standard1
 70
     1
 71
     0
 40
0.06
 41
0.06
280
     1
281
     1
  7
STANDARD
140
0.18
170
     1
 62
     0
 63
   257
283
     0
 90
        4
 91
        0
  1

274
    -2
284
     1
 64
     0
275
    -2
285
     1
 65
     0
276
    -2
286
     1
 66
     0
277
    -2
287
     1
 67
     0
278
    -2
288
     1
 68
     0
279
    -2
289
     1
 69
     0
  7
STANDARD
140
0.18
170
     1
 62
     0
 63
   257
283
     0
 90
        4
 91
        0
  1

274
    -2
284
     1
 64
     0
275
    -2
285
     1
 65
     0
276
    -2
286
     1
 66
     0
277
    -2
287
     1
 67
     0
278
    -2
288
     1
 68
     0
279
    -2
289
     1
 69
     0
  7
STANDARD
140
0.18
170
     1
 62
     0
 63
   257
283
     0
 90
        4
 91
        0
  1

274
    -2
284
     1
 64
     0
275
    -2
285
     1
 65
     0
276
    -2
286
     1
 66
     0
277
    -2
287
     1
 67
     0
278
    -2
288
     1
 68
     0
279
    -2
289
     1
 69
     0
  0
VISUALSTYLE
  5
5DD
102
{ACAD_REACTORS
330
5D8
102
}
330
5D8
100
AcDbVisualStyle
  2
2dWireframe
 70
     4
 71
     0
 72
     2
 73
     0
 90
        0
 40
0.6
 41
30.0
 62
     5
 63
     7
421
 16777215
 74
     1
 91
        4
 64
     7
 65
   257
 75
     1
175
     1
 42
1.0
 92
        0
 66
   257
 43
1.0
 76
     1
 77
     6
 78
     2
 67
     7
 79
     5
170
     0
171
     0
290
     0
174
     0
 93
        1
 44
0.0
173
     0
291
     0
 45
0.0
  0
VISUALSTYLE
  5
5E0
102
{ACAD_REACTORS
330
5D8
102
}
330
5D8
100
AcDbVisualStyle
  2
Basic
 70
     7
 71
     1
 72
     0
 73
     1
 90
        0
 40
0.6
 41
30.0
 62
     5
 63
     7
421
 16777215
 74
     0
 91
        4
 64
     7
 65
   257
 75
     1
175
     1
 42
1.0
 92
        8
 66
     7
 43
1.0
 76
     1
 77
     6
 78
     2
 67
     7
 79
     5
170
     0
171
     0
290
     0
174
     0
 93
        1
 44
0.0
173
     0
291
     1
 45
0.0
  0
VISUALSTYLE
  5
5E4
102
{ACAD_REACTORS
330
5D8
102
}
330
5D8
100
AcDbVisualStyle
  2
Brighten
 70
    12
 71
     2
 72
     2
 73
     0
 90
        0
 40
0.6
 41
30.0
 62
     5
 63
     7
421
 16777215
 74
     1
 91
        4
 64
     7
 65
   257
 75
     1
175
     1
 42
1.0
 92
        8
 66
     7
 43
1.0
 76
     1
 77
     6
 78
     2
 67
     7
 79
     5
170
     0
171
     0
290
     0
174
     0
 93
        1
 44
50.0
173
     0
291
     1
 45
0.0
  0
VISUALSTYLE
  5
5E8
102
{ACAD_REACTORS
330
5D8
102
}
330
5D8
100
AcDbVisualStyle
  2
ColorChange
 70
    16
 71
     2
 72
     2
 73
     3
 90
        0
 40
0.6
 41
30.0
 62
     5
 63
     8
421
  8421504
 74
     1
 91
        4
 64
     7
 65
   257
 75
     1
175
     1
 42
1.0
 92
        8
 66
     8
424
  8421504
 43
1.0
 76
     1
 77
     6
 78
     2
 67
     7
 79
     5
170
     0
171
     0
290
     0
174
     0
 93
        1
 44
0.0
173
     0
291
     1
 45
0.0
  0
VISUALSTYLE
  5
5E2
102
{ACAD_REACTORS
330
5D8
102
}
330
5D8
100
AcDbVisualStyle
  2
Conceptual
 70
     9
 71
     3
 72
     2
 73
     0
 90
        0
 40
0.6
 41
30.0
 62
     5
 63
     7
421
 16777215
 74
     2
 91
        2
 64
     7
 65
   257
 75
     1
175
     1
 42
179.0
 92
        8
 66
     7
 43
1.0
 76
     1
 77
     6
 78
     2
 67
     7
 79
     3
170
     0
171
     0
290
     0
174
     0
 93
        1
 44
0.0
173
     0
291
     0
 45
0.0
  0
VISUALSTYLE
  5
5E3
102
{ACAD_REACTORS
330
5D8
102
}
330
5D8
100
AcDbVisualStyle
  2
Dim
 70
    11
 71
     2
 72
     2
 73
     0
 90
        0
 40
0.6
 41
30.0
 62
     5
 63
     7
421
 16777215
 74
     1
 91
        4
 64
     7
 65
   257
 75
     1
175
     1
 42
1.0
 92
        8
 66
     7
 43
1.0
 76
     1
 77
     6
 78
     2
 67
     7
 79
     5
170
     0
171
     0
290
     0
174
     0
 93
        1
 44
-50.0
173
     0
291
     1
 45
0.0
  0
VISUALSTYLE
  5
5EB
102
{ACAD_REACTORS
330
5D8
102
}
330
5D8
100
AcDbVisualStyle
  2
EdgeColorOff
 70
    22
 71
     2
 72
     2
 73
     0
 90
        0
 40
0.6
 41
30.0
 62
     5
 63
     7
421
 16777215
 74
     1
 91
        4
 64
     7
 65
   257
 75
     1
175
     1
 42
1.0
 92
        8
 66
     7
 43
1.0
 76
     1
 77
     6
 78
     2
 67
     7
 79
     5
170
     0
171
     0
290
     0
174
     0
 93
        1
 44
0.0
173
     0
291
     1
 45
0.0
  0
VISUALSTYLE
  5
5E7
102
{ACAD_REACTORS
330
5D8
102
}
330
5D8
100
AcDbVisualStyle
  2
Facepattern
 70
    15
 71
     2
 72
     2
 73
     0
 90
        0
 40
0.6
 41
30.0
 62
     5
 63
     7
421
 16777215
 74
     1
 91
        4
 64
     7
 65
   257
 75
     1
175
     1
 42
1.0
 92
        8
 66
     7
 43
1.0
 76
     1
 77
     6
 78
     2
 67
     7
 79
     5
170
     0
171
     0
290
     0
174
     0
 93
        1
 44
0.0
173
     0
291
     1
 45
0.0
  0
VISUALSTYLE
  5
5D9
102
{ACAD_REACTORS
330
5D8
102
}
330
5D8
100
AcDbVisualStyle
  2
Flat
 70
     0
 71
     2
 72
     1
 73
     1
 90
        2
 40
0.6
 41
30.0
 62
     5
 63
     7
421
 16777215
 74
     0
 91
        0
 64
     7
 65
   257
 75
     1
175
     1
 42
1.0
 92
        8
 66
     7
 43
1.0
 76
     1
 77
     6
 78
     2
 67
     7
 79
     5
170
     0
171
     0
290
     0
174
     0
 93
       13
 44
0.0
173
     0
291
     1
 45
0.0
  0
VISUALSTYLE
  5
5DA
102
{ACAD_REACTORS
330
5D8
102
}
330
5D8
100
AcDbVisualStyle
  2
FlatWithEdges
 70
     1
 71
     2
 72
     1
 73
     1
 90
        2
 40
0.6
 41
30.0
 62
     5
 63
     7
421
 16777215
 74
     1
 91
        0
 64
     7
 65
   257
 75
     1
175
     1
 42
1.0
 92
        0
 66
   257
 43
1.0
 76
     1
 77
     6
 78
     2
 67
     7
 79
     5
170
     0
171
     0
290
     0
174
     0
 93
       13
 44
0.0
173
     0
291
     1
 45
0.0
  0
VISUALSTYLE
  5
5DB
102
{ACAD_REACTORS
330
5D8
102
}
330
5D8
100
AcDbVisualStyle
  2
Gouraud
 70
     2
 71
     2
 72
     2
 73
     1
 90
        2
 40
0.6
 41
30.0
 62
     5
 63
     7
421
 16777215
 74
     0
 91
        0
 64
     7
 65
   257
 75
     1
175
     1
 42
1.0
 92
        0
 66
     7
 43
1.0
 76
     1
 77
     6
 78
     2
 67
     7
 79
     5
170
     0
171
     0
290
     0
174
     0
 93
       13
 44
0.0
173
     0
291
     1
 45
0.0
  0
VISUALSTYLE
  5
5DC
102
{ACAD_REACTORS
330
5D8
102
}
330
5D8
100
AcDbVisualStyle
  2
GouraudWithEdges
 70
     3
 71
     2
 72
     2
 73
     1
 90
        2
 40
0.6
 41
30.0
 62
     5
 63
     7
421
 16777215
 74
     1
 91
        0
 64
     7
 65
   257
 75
     1
175
     1
 42
1.0
 92
        0
 66
   257
 43
1.0
 76
     1
 77
     6
 78
     2
 67
     7
 79
     5
170
     0
171
     0
290
     0
174
     0
 93
       13
 44
0.0
173
     0
291
     1
 45
0.0
  0
VISUALSTYLE
  5
5DF
102
{ACAD_REACTORS
330
5D8
102
}
330
5D8
100
AcDbVisualStyle
  2
Hidden
 70
     6
 71
     1
 72
     2
 73
     2
 90
        0
 40
0.6
 41
30.0
 62
     5
 63
     7
421
 16777215
 74
     2
 91
        2
 64
     7
 65
   257
 75
     2
175
     1
 42
40.0
 92
        0
 66
   257
 43
1.0
 76
     1
 77
     6
 78
     2
 67
     7
 79
     3
170
     0
171
     0
290
     0
174
     0
 93
        1
 44
0.0
173
     0
291
     0
 45
0.0
  0
VISUALSTYLE
  5
5E9
102
{ACAD_REACTORS
330
5D8
102
}
330
5D8
100
AcDbVisualStyle
  2
JitterOff
 70
    20
 71
     2
 72
     2
 73
     0
 90
        0
 40
0.6
 41
30.0
 62
     5
 63
     7
421
 16777215
 74
     1
 91
        4
 64
     7
 65
   257
 75
     1
175
     1
 42
1.0
 92
       10
 66
     7
 43
1.0
 76
     1
 77
     6
 78
     2
 67
     7
 79
     5
170
     0
171
     0
290
     0
174
     0
 93
        1
 44
0.0
173
     0
291
     1
 45
0.0
  0
VISUALSTYLE
  5
5E6
102
{ACAD_REACTORS
330
5D8
102
}
330
5D8
100
AcDbVisualStyle
  2
Linepattern
 70
    14
 71
     2
 72
     2
 73
     0
 90
        0
 40
0.6
 41
30.0
 62
     5
 63
     7
421
 16777215
 74
     1
 91
        4
 64
     7
 65
   257
 75
     7
175
     7
 42
1.0
 92
        8
 66
     7
 43
1.0
 76
     1
 77
     6
 78
     2
 67
     7
 79
     5
170
     0
171
     0
290
     0
174
     0
 93
        1
 44
0.0
173
     0
291
     1
 45
0.0
  0
VISUALSTYLE
  5
5EA
102
{ACAD_REACTORS
330
5D8
102
}
330
5D8
100
AcDbVisualStyle
  2
OverhangOff
 70
    21
 71
     2
 72
     2
 73
     0
 90
        0
 40
0.6
 41
30.0
 62
     5
 63
     7
421
 16777215
 74
     1
 91
        4
 64
     7
 65
   257
 75
     1
175
     1
 42
1.0
 92
        9
 66
     7
 43
1.0
 76
     1
 77
     6
 78
     2
 67
     7
 79
     5
170
     0
171
     0
290
     0
174
     0
 93
        1
 44
0.0
173
     0
291
     1
 45
0.0
  0
VISUALSTYLE
  5
5E1
102
{ACAD_REACTORS
330
5D8
102
}
330
5D8
100
AcDbVisualStyle
  2
Realistic
 70
     8
 71
     2
 72
     3
 73
     0
 90
        2
 40
0.6
 41
30.0
 62
     5
 63
     7
421
 16777215
 74
     0
 91
        0
 64
     7
 65
   257
 75
     1
175
     1
 42
1.0
 92
        8
 66
   257
 43
1.0
 76
     1
 77
     6
 78
     2
 67
     7
 79
     3
170
     0
171
     0
290
     0
174
     0
 93
       13
 44
0.0
173
     0
291
     0
 45
0.0
  0
VISUALSTYLE
  5
5F0
102
{ACAD_REACTORS
330
5D8
102
}
330
5D8
100
AcDbVisualStyle
  2
Shaded
 70
    27
 71
     2
 72
     2
 73
     1
 90
        2
 40
0.6
 41
30.0
 62
     5
 63
     7
421
 16777215
 74
     0
 91
        4
 64
     7
 65
   257
 75
     1
175
     1
 42
1.0
 92
        8
 66
   257
 43
1.0
 76
     1
 77
     6
 78
     2
 67
     8
425
  7895160
 79
     3
170
     0
171
     0
290
     0
174
     0
 93
        5
 44
0.0
173
     0
291
     0
 45
0.0
  0
VISUALSTYLE
  5
5EF
102
{ACAD_REACTORS
330
5D8
102
}
330
5D8
100
AcDbVisualStyle
  2
Shaded with edges
 70
    26
 71
     2
 72
     2
 73
     1
 90
        2
 40
0.6
 41
30.0
 62
     5
 63
     7
421
 16777215
 74
     1
 91
       10
 64
     7
 65
   257
 75
     2
175
     1
 42
1.0
 92
        8
 66
   257
 43
1.0
 76
     1
 77
     6
 78
     2
 67
     7
 79
     3
170
     0
171
     0
290
     0
174
     0
 93
        5
 44
0.0
173
     0
291
     0
 45
0.0
  0
VISUALSTYLE
  5
5EC
102
{ACAD_REACTORS
330
5D8
102
}
330
5D8
100
AcDbVisualStyle
  2
Shades of Gray
 70
    23
 71
     2
 72
     2
 73
     3
 90
        0
 40
0.6
 41
30.0
 62
     5
 63
     7
421
 16777215
 74
     2
 91
        2
 64
     7
 65
     7
 75
     1
175
     1
 42
40.0
 92
        8
 66
     7
 43
1.0
 76
     1
 77
     6
 78
     2
 67
     7
 79
     3
170
     0
171
     0
290
     0
174
     0
 93
        1
 44
0.0
173
     0
291
     0
 45
0.0
  0
VISUALSTYLE
  5
5ED
102
{ACAD_REACTORS
330
5D8
102
}
330
5D8
100
AcDbVisualStyle
  2
Sketchy
 70
    24
 71
     1
 72
     2
 73
     2
 90
        0
 40
0.6
 41
30.0
 62
     5
 63
     7
421
 16777215
 74
     2
 91
        2
 64
     7
 65
     7
 75
     1
175
     1
 42
40.0
 92
       11
 66
     7
 43
1.0
 76
     1
 77
     6
 78
     2
 67
     7
 79
     6
170
     0
171
     0
290
     0
174
     0
 93
        1
 44
0.0
173
     0
291
     0
 45
0.0
  0
VISUALSTYLE
  5
5E5
102
{ACAD_REACTORS
330
5D8
102
}
330
5D8
100
AcDbVisualStyle
  2
Thicken
 70
    13
 71
     2
 72
     2
 73
     0
 90
        0
 40
0.6
 41
30.0
 62
     5
 63
     7
421
 16777215
 74
     1
 91
        4
 64
     7
 65
   257
 75
     1
175
     1
 42
1.0
 92
       12
 66
     7
 43
1.0
 76
     1
 77
     6
 78
     2
 67
     7
 79
     5
170
     0
171
     0
290
     0
174
     0
 93
        1
 44
0.0
173
     0
291
     1
 45
0.0
  0
VISUALSTYLE
  5
5DE
102
{ACAD_REACTORS
330
5D8
102
}
330
5D8
100
AcDbVisualStyle
  2
Wireframe
 70
     5
 71
     0
 72
     2
 73
     0
 90
        0
 40
0.6
 41
30.0
 62
     5
 63
     7
421
 16777215
 74
     1
 91
        4
 64
     7
 65
   257
 75
     1
175
     1
 42
1.0
 92
        0
 66
   257
 43
1.0
 76
     1
 77
     6
 78
     2
 67
     7
 79
     3
170
     0
171
     0
290
     0
174
     0
 93
        1
 44
0.0
173
     0
291
     0
 45
0.0
  0
VISUALSTYLE
  5
5EE
102
{ACAD_REACTORS
330
5D8
102
}
330
5D8
100
AcDbVisualStyle
  2
X-Ray
 70
    25
 71
     2
 72
     2
 73
     1
 90
        1
 40
0.5
 41
30.0
 62
     5
 63
     7
421
 16777215
 74
     1
 91
        0
 64
     7
 65
   257
 75
     1
175
     1
 42
1.0
 92
        8
 66
     7
 43
1.0
 76
     1
 77
     6
 78
     2
 67
     7
 79
     3
170
     0
171
     0
290
     0
174
     0
 93
       13
 44
0.0
173
     0
291
     0
 45
0.0
  0
DICTIONARYVAR
  5
633
102
{ACAD_REACTORS
330
632
102
}
330
632
100
DictionaryVariables
280
     0
  1
1:1
  0
DICTIONARYVAR
  5
635
102
{ACAD_REACTORS
330
632
102
}
330
632
100
DictionaryVariables
280
     0
  1
Standard
  0
DICTIONARYVAR
  5
634
102
{ACAD_REACTORS
330
632
102
}
330
632
100
DictionaryVariables
280
     0
  1
Standard
  0
DICTIONARY
  5
67C
330
5B3
100
AcDbDictionary
280
     1
281
     1
  3
ACAD_ROUNDTRIP_2008_TABLESTYLE_CELLSTYLEMAP
360
67D
  0
DICTIONARY
  5
67E
330
5B4
100
AcDbDictionary
280
     1
281
     1
  3
ACAD_ROUNDTRIP_2008_TABLESTYLE_CELLSTYLEMAP
360
67F
  0
CELLSTYLEMAP
  5
67D
102
{ACAD_REACTORS
330
67C
102
}
330
67C
100
AcDbCellStyleMap
 90
        3
300
CELLSTYLE
  1
TABLEFORMAT_BEGIN
 90
        5
170
     1
 91
        0
 92
    32768
 62
   257
 93
        1
300
CONTENTFORMAT
  1
CONTENTFORMAT_BEGIN
 90
        0
 91
        0
 92
        4
 93
        0
300

 40
0.0
140
1.0
 94
        1
 62
     0
340
11
144
0.18
309
CONTENTFORMAT_END
171
     1
301
MARGIN
  1
CELLMARGIN_BEGIN
 40
0.06
 40
0.06
 40
0.06
 40
0.06
 40
0.18
 40
0.18
309
CELLMARGIN_END
 94
        6
 95
        1
302
GRIDFORMAT
  1
GRIDFORMAT_BEGIN
 90
        0
 91
        1
 62
     0
 92
       -2
340
0
 93
        0
 40
0.045
309
GRIDFORMAT_END
 95
        2
302
GRIDFORMAT
  1
GRIDFORMAT_BEGIN
 90
        0
 91
        1
 62
     0
 92
       -2
340
0
 93
        0
 40
0.045
309
GRIDFORMAT_END
 95
        4
302
GRIDFORMAT
  1
GRIDFORMAT_BEGIN
 90
        0
 91
        1
 62
     0
 92
       -2
340
0
 93
        0
 40
0.045
309
GRIDFORMAT_END
 95
        8
302
GRIDFORMAT
  1
GRIDFORMAT_BEGIN
 90
        0
 91
        1
 62
     0
 92
       -2
340
0
 93
        0
 40
0.045
309
GRIDFORMAT_END
 95
       16
302
GRIDFORMAT
  1
GRIDFORMAT_BEGIN
 90
        0
 91
        1
 62
     0
 92
       -2
340
0
 93
        0
 40
0.045
309
GRIDFORMAT_END
 95
       32
302
GRIDFORMAT
  1
GRIDFORMAT_BEGIN
 90
        0
 91
        1
 62
     0
 92
       -2
340
0
 93
        0
 40
0.045
309
GRIDFORMAT_END
309
TABLEFORMAT_END
  1
CELLSTYLE_BEGIN
 90
        1
 91
        1
300
_TITLE
309
CELLSTYLE_END
300
CELLSTYLE
  1
TABLEFORMAT_BEGIN
 90
        5
170
     1
 91
        0
 92
        0
 62
   257
 93
        1
300
CONTENTFORMAT
  1
CONTENTFORMAT_BEGIN
 90
        0
 91
        0
 92
        4
 93
        0
300

 40
0.0
140
1.0
 94
        1
 62
     0
340
11
144
0.18
309
CONTENTFORMAT_END
171
     1
301
MARGIN
  1
CELLMARGIN_BEGIN
 40
0.06
 40
0.06
 40
0.06
 40
0.06
 40
0.18
 40
0.18
309
CELLMARGIN_END
 94
        6
 95
        1
302
GRIDFORMAT
  1
GRIDFORMAT_BEGIN
 90
        0
 91
        1
 62
     0
 92
       -2
340
0
 93
        0
 40
0.045
309
GRIDFORMAT_END
 95
        2
302
GRIDFORMAT
  1
GRIDFORMAT_BEGIN
 90
        0
 91
        1
 62
     0
 92
       -2
340
0
 93
        0
 40
0.045
309
GRIDFORMAT_END
 95
        4
302
GRIDFORMAT
  1
GRIDFORMAT_BEGIN
 90
        0
 91
        1
 62
     0
 92
       -2
340
0
 93
        0
 40
0.045
309
GRIDFORMAT_END
 95
        8
302
GRIDFORMAT
  1
GRIDFORMAT_BEGIN
 90
        0
 91
        1
 62
     0
 92
       -2
340
0
 93
        0
 40
0.045
309
GRIDFORMAT_END
 95
       16
302
GRIDFORMAT
  1
GRIDFORMAT_BEGIN
 90
        0
 91
        1
 62
     0
 92
       -2
340
0
 93
        0
 40
0.045
309
GRIDFORMAT_END
 95
       32
302
GRIDFORMAT
  1
GRIDFORMAT_BEGIN
 90
        0
 91
        1
 62
     0
 92
       -2
340
0
 93
        0
 40
0.045
309
GRIDFORMAT_END
309
TABLEFORMAT_END
  1
CELLSTYLE_BEGIN
 90
        2
 91
        1
300
_HEADER
309
CELLSTYLE_END
300
CELLSTYLE
  1
TABLEFORMAT_BEGIN
 90
        5
170
     1
 91
        0
 92
        0
 62
   257
 93
        1
300
CONTENTFORMAT
  1
CONTENTFORMAT_BEGIN
 90
        0
 91
        0
 92
        4
 93
        0
300

 40
0.0
140
1.0
 94
        1
 62
     0
340
11
144
0.18
309
CONTENTFORMAT_END
171
     1
301
MARGIN
  1
CELLMARGIN_BEGIN
 40
0.06
 40
0.06
 40
0.06
 40
0.06
 40
0.18
 40
0.18
309
CELLMARGIN_END
 94
        6
 95
        1
302
GRIDFORMAT
  1
GRIDFORMAT_BEGIN
 90
        0
 91
        1
 62
     0
 92
       -2
340
0
 93
        0
 40
0.045
309
GRIDFORMAT_END
 95
        2
302
GRIDFORMAT
  1
GRIDFORMAT_BEGIN
 90
        0
 91
        1
 62
     0
 92
       -2
340
0
 93
        0
 40
0.045
309
GRIDFORMAT_END
 95
        4
302
GRIDFORMAT
  1
GRIDFORMAT_BEGIN
 90
        0
 91
        1
 62
     0
 92
       -2
340
0
 93
        0
 40
0.045
309
GRIDFORMAT_END
 95
        8
302
GRIDFORMAT
  1
GRIDFORMAT_BEGIN
 90
        0
 91
        1
 62
     0
 92
       -2
340
0
 93
        0
 40
0.045
309
GRIDFORMAT_END
 95
       16
302
GRIDFORMAT
  1
GRIDFORMAT_BEGIN
 90
        0
 91
        1
 62
     0
 92
       -2
340
0
 93
        0
 40
0.045
309
GRIDFORMAT_END
 95
       32
302
GRIDFORMAT
  1
GRIDFORMAT_BEGIN
 90
        0
 91
        1
 62
     0
 92
       -2
340
0
 93
        0
 40
0.045
309
GRIDFORMAT_END
309
TABLEFORMAT_END
  1
CELLSTYLE_BEGIN
 90
        3
 91
        2
300
_DATA
309
CELLSTYLE_END
  0
CELLSTYLEMAP
  5
67F
102
{ACAD_REACTORS
330
67E
102
}
330
67E
100
AcDbCellStyleMap
 90
        3
300
CELLSTYLE
  1
TABLEFORMAT_BEGIN
 90
        5
170
     1
 91
        0
 92
    32768
 62
   257
 93
        1
300
CONTENTFORMAT
  1
CONTENTFORMAT_BEGIN
 90
        0
 91
        0
 92
        4
 93
        0
300

 40
0.0
140
1.0
 94
        1
 62
     0
340
11
144
0.18
309
CONTENTFORMAT_END
171
     1
301
MARGIN
  1
CELLMARGIN_BEGIN
 40
0.06
 40
0.06
 40
0.06
 40
0.06
 40
0.18
 40
0.18
309
CELLMARGIN_END
 94
        6
 95
        1
302
GRIDFORMAT
  1
GRIDFORMAT_BEGIN
 90
        0
 91
        1
 62
     0
 92
       -2
340
0
 93
        0
 40
0.045
309
GRIDFORMAT_END
 95
        2
302
GRIDFORMAT
  1
GRIDFORMAT_BEGIN
 90
        0
 91
        1
 62
     0
 92
       -2
340
0
 93
        0
 40
0.045
309
GRIDFORMAT_END
 95
        4
302
GRIDFORMAT
  1
GRIDFORMAT_BEGIN
 90
        0
 91
        1
 62
     0
 92
       -2
340
0
 93
        0
 40
0.045
309
GRIDFORMAT_END
 95
        8
302
GRIDFORMAT
  1
GRIDFORMAT_BEGIN
 90
        0
 91
        1
 62
     0
 92
       -2
340
0
 93
        0
 40
0.045
309
GRIDFORMAT_END
 95
       16
302
GRIDFORMAT
  1
GRIDFORMAT_BEGIN
 90
        0
 91
        1
 62
     0
 92
       -2
340
0
 93
        0
 40
0.045
309
GRIDFORMAT_END
 95
       32
302
GRIDFORMAT
  1
GRIDFORMAT_BEGIN
 90
        0
 91
        1
 62
     0
 92
       -2
340
0
 93
        0
 40
0.045
309
GRIDFORMAT_END
309
TABLEFORMAT_END
  1
CELLSTYLE_BEGIN
 90
        1
 91
        1
300
_TITLE
309
CELLSTYLE_END
300
CELLSTYLE
  1
TABLEFORMAT_BEGIN
 90
        5
170
     1
 91
        0
 92
        0
 62
   257
 93
        1
300
CONTENTFORMAT
  1
CONTENTFORMAT_BEGIN
 90
        0
 91
        0
 92
        4
 93
        0
300

 40
0.0
140
1.0
 94
        1
 62
     0
340
11
144
0.18
309
CONTENTFORMAT_END
171
     1
301
MARGIN
  1
CELLMARGIN_BEGIN
 40
0.06
 40
0.06
 40
0.06
 40
0.06
 40
0.18
 40
0.18
309
CELLMARGIN_END
 94
        6
 95
        1
302
GRIDFORMAT
  1
GRIDFORMAT_BEGIN
 90
        0
 91
        1
 62
     0
 92
       -2
340
0
 93
        0
 40
0.045
309
GRIDFORMAT_END
 95
        2
302
GRIDFORMAT
  1
GRIDFORMAT_BEGIN
 90
        0
 91
        1
 62
     0
 92
       -2
340
0
 93
        0
 40
0.045
309
GRIDFORMAT_END
 95
        4
302
GRIDFORMAT
  1
GRIDFORMAT_BEGIN
 90
        0
 91
        1
 62
     0
 92
       -2
340
0
 93
        0
 40
0.045
309
GRIDFORMAT_END
 95
        8
302
GRIDFORMAT
  1
GRIDFORMAT_BEGIN
 90
        0
 91
        1
 62
     0
 92
       -2
340
0
 93
        0
 40
0.045
309
GRIDFORMAT_END
 95
       16
302
GRIDFORMAT
  1
GRIDFORMAT_BEGIN
 90
        0
 91
        1
 62
     0
 92
       -2
340
0
 93
        0
 40
0.045
309
GRIDFORMAT_END
 95
       32
302
GRIDFORMAT
  1
GRIDFORMAT_BEGIN
 90
        0
 91
        1
 62
     0
 92
       -2
340
0
 93
        0
 40
0.045
309
GRIDFORMAT_END
309
TABLEFORMAT_END
  1
CELLSTYLE_BEGIN
 90
        2
 91
        1
300
_HEADER
309
CELLSTYLE_END
300
CELLSTYLE
  1
TABLEFORMAT_BEGIN
 90
        5
170
     1
 91
        0
 92
        0
 62
   257
 93
        1
300
CONTENTFORMAT
  1
CONTENTFORMAT_BEGIN
 90
        0
 91
        0
 92
        4
 93
        0
300

 40
0.0
140
1.0
 94
        1
 62
     0
340
11
144
0.18
309
CONTENTFORMAT_END
171
     1
301
MARGIN
  1
CELLMARGIN_BEGIN
 40
0.06
 40
0.06
 40
0.06
 40
0.06
 40
0.18
 40
0.18
309
CELLMARGIN_END
 94
        6
 95
        1
302
GRIDFORMAT
  1
GRIDFORMAT_BEGIN
 90
        0
 91
        1
 62
     0
 92
       -2
340
0
 93
        0
 40
0.045
309
GRIDFORMAT_END
 95
        2
302
GRIDFORMAT
  1
GRIDFORMAT_BEGIN
 90
        0
 91
        1
 62
     0
 92
       -2
340
0
 93
        0
 40
0.045
309
GRIDFORMAT_END
 95
        4
302
GRIDFORMAT
  1
GRIDFORMAT_BEGIN
 90
        0
 91
        1
 62
     0
 92
       -2
340
0
 93
        0
 40
0.045
309
GRIDFORMAT_END
 95
        8
302
GRIDFORMAT
  1
GRIDFORMAT_BEGIN
 90
        0
 91
        1
 62
     0
 92
       -2
340
0
 93
        0
 40
0.045
309
GRIDFORMAT_END
 95
       16
302
GRIDFORMAT
  1
GRIDFORMAT_BEGIN
 90
        0
 91
        1
 62
     0
 92
       -2
340
0
 93
        0
 40
0.045
309
GRIDFORMAT_END
 95
       32
302
GRIDFORMAT
  1
GRIDFORMAT_BEGIN
 90
        0
 91
        1
 62
     0
 92
       -2
340
0
 93
        0
 40
0.045
309
GRIDFORMAT_END
309
TABLEFORMAT_END
  1
CELLSTYLE_BEGIN
 90
        3
 91
        2
300
_DATA
309
CELLSTYLE_END
  0
ENDSEC
  0
EOF
