  0
SECTION
  2
HEADER
  9
$ACADVER
  1
AC1021
  9
$ACADMAINTVER
 70
    25
  9
$DWGCODEPAGE
  3
ANSI_1252
  9
$LASTSAVEDBY
  1
umberto.novello
  9
$INSBASE
 10
0.0
 20
0.0
 30
0.0
  9
$EXTMIN
 10
0.0
 20
0.0
 30
0.0
  9
$EXTMAX
 10
420.0
 20
297.0
 30
0.0
  9
$LIMMIN
 10
0.0
 20
0.0
  9
$LIMMAX
 10
420.0
 20
297.0
  9
$ORTHOMODE
 70
     0
  9
$REGENMODE
 70
     1
  9
$FILLMODE
 70
     1
  9
$QTEXTMODE
 70
     0
  9
$MIRRTEXT
 70
     1
  9
$LTSCALE
 40
23.1
  9
$ATTMODE
 70
     1
  9
$TEXTSIZE
 40
0.2
  9
$TRACEWID
 40
0.05
  9
$TEXTSTYLE
  7
STANDARD
  9
$CLAYER
  8
0
  9
$CELTYPE
  6
BYLAYER
  9
$CECOLOR
 62
   256
  9
$CELTSCALE
 40
1.0
  9
$DISPSILH
 70
     0
  9
$DIMSCALE
 40
1.0
  9
$DIMASZ
 40
2.5
  9
$DIMEXO
 40
2.625
  9
$DIMDLI
 40
15.96
  9
$DIMRND
 40
0.0
  9
$DIMDLE
 40
0.0
  9
$DIMEXE
 40
7.56
  9
$DIMTP
 40
0.01
  9
$DIMTM
 40
0.01
  9
$DIMTXT
 40
3.0
  9
$DIMCEN
 40
3.78
  9
$DIMTSZ
 40
0.0
  9
$DIMTOL
 70
     1
  9
$DIMLIM
 70
     0
  9
$DIMTIH
 70
     1
  9
$DIMTOH
 70
     1
  9
$DIMSE1
 70
     0
  9
$DIMSE2
 70
     0
  9
$DIMTAD
 70
     0
  9
$DIMZIN
 70
     0
  9
$DIMBLK
  1
CLOSED
  9
$DIMASO
 70
     1
  9
$DIMSHO
 70
     1
  9
$DIMPOST
  1

  9
$DIMAPOST
  1

  9
$DIMALT
 70
     0
  9
$DIMALTD
 70
     2
  9
$DIMALTF
 40
25.4
  9
$DIMLFAC
 40
1.0
  9
$DIMTOFL
 70
     0
  9
$DIMTVP
 40
0.0
  9
$DIMTIX
 70
     0
  9
$DIMSOXD
 70
     0
  9
$DIMSAH
 70
     0
  9
$DIMBLK1
  1

  9
$DIMBLK2
  1

  9
$DIMSTYLE
  2
STANDARD
  9
$DIMCLRD
 70
     0
  9
$DIMCLRE
 70
     0
  9
$DIMCLRT
 70
     0
  9
$DIMTFAC
 40
1.0
  9
$DIMGAP
 40
0.09
  9
$DIMJUST
 70
     0
  9
$DIMSD1
 70
     0
  9
$DIMSD2
 70
     0
  9
$DIMTOLJ
 70
     1
  9
$DIMTZIN
 70
     0
  9
$DIMALTZ
 70
     0
  9
$DIMALTTZ
 70
     0
  9
$DIMUPT
 70
     0
  9
$DIMDEC
 70
     4
  9
$DIMTDEC
 70
     4
  9
$DIMALTU
 70
     2
  9
$DIMALTTD
 70
     2
  9
$DIMTXSTY
  7
STANDARD
  9
$DIMAUNIT
 70
     0
  9
$DIMADEC
 70
     0
  9
$DIMALTRND
 40
0.0
  9
$DIMAZIN
 70
     0
  9
$DIMDSEP
 70
    46
  9
$DIMATFIT
 70
     3
  9
$DIMFRAC
 70
     0
  9
$DIMLDRBLK
  1

  9
$DIMLUNIT
 70
     2
  9
$DIMLWD
 70
    -2
  9
$DIMLWE
 70
    -2
  9
$DIMTMOVE
 70
     0
  9
$DIMFXL
 40
1.0
  9
$DIMFXLON
 70
     0
  9
$DIMJOGANG
 40
0.7853981633974483
  9
$DIMTFILL
 70
     0
  9
$DIMTFILLCLR
 70
     0
  9
$DIMARCSYM
 70
     0
  9
$DIMLTYPE
  6

  9
$DIMLTEX1
  6

  9
$DIMLTEX2
  6

  9
$LUNITS
 70
     2
  9
$LUPREC
 70
     4
  9
$SKETCHINC
 40
0.1
  9
$FILLETRAD
 40
0.5
  9
$AUNITS
 70
     0
  9
$AUPREC
 70
     0
  9
$MENU
  1
.
  9
$ELEVATION
 40
0.0
  9
$PELEVATION
 40
0.0
  9
$THICKNESS
 40
0.0
  9
$LIMCHECK
 70
     0
  9
$CHAMFERA
 40
0.0
  9
$CHAMFERB
 40
0.0
  9
$CHAMFERC
 40
0.0
  9
$CHAMFERD
 40
0.0
  9
$SKPOLY
 70
     0
  9
$TDCREATE
 40
2447893.041666667
  9
$TDUCREATE
 40
0.0
  9
$TDUPDATE
 40
2458444.663855752
  9
$TDUUPDATE
 40
2458444.622189085
  9
$TDINDWG
 40
0.0006879398
  9
$TDUSRTIMER
 40
0.0006879398
  9
$USRTIMER
 70
     1
  9
$ANGBASE
 50
0.0
  9
$ANGDIR
 70
     0
  9
$PDMODE
 70
     3
  9
$PDSIZE
 40
0.3125
  9
$PLINEWID
 40
0.0
  9
$SPLFRAME
 70
     0
  9
$SPLINETYPE
 70
     6
  9
$SPLINESEGS
 70
     8
  9
$HANDSEED
  5
5E6
  9
$SURFTAB1
 70
     6
  9
$SURFTAB2
 70
     6
  9
$SURFTYPE
 70
     6
  9
$SURFU
 70
     6
  9
$SURFV
 70
     6
  9
$UCSBASE
  2

  9
$UCSNAME
  2

  9
$UCSORG
 10
0.0
 20
0.0
 30
0.0
  9
$UCSXDIR
 10
1.0
 20
0.0
 30
0.0
  9
$UCSYDIR
 10
0.0
 20
1.0
 30
0.0
  9
$UCSORTHOREF
  2

  9
$UCSORTHOVIEW
 70
     0
  9
$UCSORGTOP
 10
0.0
 20
0.0
 30
0.0
  9
$UCSORGBOTTOM
 10
0.0
 20
0.0
 30
0.0
  9
$UCSORGLEFT
 10
0.0
 20
0.0
 30
0.0
  9
$UCSORGRIGHT
 10
0.0
 20
0.0
 30
0.0
  9
$UCSORGFRONT
 10
0.0
 20
0.0
 30
0.0
  9
$UCSORGBACK
 10
0.0
 20
0.0
 30
0.0
  9
$PUCSBASE
  2

  9
$PUCSNAME
  2

  9
$PUCSORG
 10
0.0
 20
0.0
 30
0.0
  9
$PUCSXDIR
 10
1.0
 20
0.0
 30
0.0
  9
$PUCSYDIR
 10
0.0
 20
1.0
 30
0.0
  9
$PUCSORTHOREF
  2

  9
$PUCSORTHOVIEW
 70
     0
  9
$PUCSORGTOP
 10
0.0
 20
0.0
 30
0.0
  9
$PUCSORGBOTTOM
 10
0.0
 20
0.0
 30
0.0
  9
$PUCSORGLEFT
 10
0.0
 20
0.0
 30
0.0
  9
$PUCSORGRIGHT
 10
0.0
 20
0.0
 30
0.0
  9
$PUCSORGFRONT
 10
0.0
 20
0.0
 30
0.0
  9
$PUCSORGBACK
 10
0.0
 20
0.0
 30
0.0
  9
$USERI1
 70
     0
  9
$USERI2
 70
     0
  9
$USERI3
 70
     0
  9
$USERI4
 70
     0
  9
$USERI5
 70
     0
  9
$USERR1
 40
0.0
  9
$USERR2
 40
0.0
  9
$USERR3
 40
0.0
  9
$USERR4
 40
0.0
  9
$USERR5
 40
0.0
  9
$WORLDVIEW
 70
     1
  9
$SHADEDGE
 70
     3
  9
$SHADEDIF
 70
    70
  9
$TILEMODE
 70
     1
  9
$MAXACTVP
 70
    64
  9
$PINSBASE
 10
0.0
 20
0.0
 30
0.0
  9
$PLIMCHECK
 70
     0
  9
$PEXTMIN
 10
1.000000000000000E+20
 20
1.000000000000000E+20
 30
1.000000000000000E+20
  9
$PEXTMAX
 10
-1.000000000000000E+20
 20
-1.000000000000000E+20
 30
-1.000000000000000E+20
  9
$PLIMMIN
 10
0.0
 20
0.0
  9
$PLIMMAX
 10
420.0
 20
297.0
  9
$UNITMODE
 70
     0
  9
$VISRETAIN
 70
     1
  9
$PLINEGEN
 70
     0
  9
$PSLTSCALE
 70
     1
  9
$TREEDEPTH
 70
  3020
  9
$CMLSTYLE
  2
Standard
  9
$CMLJUST
 70
     0
  9
$CMLSCALE
 40
1.0
  9
$PROXYGRAPHICS
 70
     1
  9
$MEASUREMENT
 70
     1
  9
$CELWEIGHT
370
    -1
  9
$ENDCAPS
280
     0
  9
$JOINSTYLE
280
     0
  9
$LWDISPLAY
290
     0
  9
$INSUNITS
 70
     4
  9
$HYPERLINKBASE
  1

  9
$STYLESHEET
  1

  9
$XEDIT
290
     1
  9
$CEPSNTYPE
380
     0
  9
$PSTYLEMODE
290
     1
  9
$FINGERPRINTGUID
  2
{A3368AE2-1A5D-405D-864F-95200E990CB1}
  9
$VERSIONGUID
  2
{FAEB1C32-E019-11D5-929B-00C0DF256EC4}
  9
$EXTNAMES
290
     1
  9
$PSVPSCALE
 40
0.0
  9
$OLESTARTUP
290
     0
  9
$SORTENTS
280
   127
  9
$INDEXCTL
280
     0
  9
$HIDETEXT
280
     1
  9
$XCLIPFRAME
290
     0
  9
$HALOGAP
280
     0
  9
$OBSCOLOR
 70
   257
  9
$OBSLTYPE
280
     0
  9
$INTERSECTIONDISPLAY
280
     0
  9
$INTERSECTIONCOLOR
 70
   257
  9
$DIMASSOC
280
     2
  9
$PROJECTNAME
  1

  9
$CAMERADISPLAY
290
     0
  9
$LENSLENGTH
 40
50.0
  9
$CAMERAHEIGHT
 40
0.0
  9
$STEPSPERSEC
 40
2.0
  9
$STEPSIZE
 40
6.0
  9
$3DDWFPREC
 40
2.0
  9
$PSOLWIDTH
 40
0.25
  9
$PSOLHEIGHT
 40
4.0
  9
$LOFTANG1
 40
1.570796326794897
  9
$LOFTANG2
 40
1.570796326794897
  9
$LOFTMAG1
 40
0.0
  9
$LOFTMAG2
 40
0.0
  9
$LOFTPARAM
 70
     7
  9
$LOFTNORMALS
280
     1
  9
$LATITUDE
 40
37.795
  9
$LONGITUDE
 40
-122.394
  9
$NORTHDIRECTION
 40
0.0
  9
$TIMEZONE
 70
 -8000
  9
$LIGHTGLYPHDISPLAY
280
     1
  9
$TILEMODELIGHTSYNCH
280
     1
  9
$SOLIDHIST
280
     0
  9
$SHOWHIST
280
     1
  9
$DWFFRAME
280
     2
  9
$DGNFRAME
280
     2
  9
$REALWORLDSCALE
290
     1
  9
$INTERFERECOLOR
 62
   256
  9
$CSHADOW
280
     0
  9
$SHADOWPLANELOCATION
 40
0.0
  0
ENDSEC
  0
SECTION
  2
CLASSES
  0
CLASS
  1
ACDBDICTIONARYWDFLT
  2
AcDbDictionaryWithDefault
  3
ObjectDBX Classes
 90
        0
 91
        6
280
     0
281
     0
  0
CLASS
  1
ACDBPLACEHOLDER
  2
AcDbPlaceHolder
  3
ObjectDBX Classes
 90
        0
 91
        1
280
     0
281
     0
  0
CLASS
  1
LAYOUT
  2
AcDbLayout
  3
ObjectDBX Classes
 90
        0
 91
        1
280
     0
281
     0
  0
CLASS
  1
TABLESTYLE
  2
AcDbTableStyle
  3
ObjectDBX Classes
 90
     4095
 91
        6
280
     0
281
     0
  0
CLASS
  1
ACAD_TABLE
  2
AcDbTable
  3
ObjectDBX Classes
 90
     1025
 91
        6
280
     0
281
     1
  0
CLASS
  1
SCALE
  2
AcDbScale
  3
ObjectDBX Classes
 90
     1153
 91
        6
280
     0
281
     0
  0
CLASS
  1
TABLEGEOMETRY
  2
AcDbTableGeometry
  3
ObjectDBX Classes
 90
     1152
 91
        6
280
     0
281
     0
  0
CLASS
  1
VISUALSTYLE
  2
AcDbVisualStyle
  3
ObjectDBX Classes
 90
     4095
 91
        6
280
     0
281
     0
  0
CLASS
  1
MATERIAL
  2
AcDbMaterial
  3
ObjectDBX Classes
 90
     1153
 91
        6
280
     0
281
     0
  0
CLASS
  1
MLEADERSTYLE
  2
AcDbMLeaderStyle
  3
ACDB_MLEADERSTYLE_CLASS
 90
     4095
 91
        6
280
     0
281
     0
  0
CLASS
  1
SUN
  2
AcDbSun
  3
SCENEOE
 90
     1153
 91
        6
280
     0
281
     0
  0
CLASS
  1
DICTIONARYVAR
  2
AcDbDictionaryVar
  3
ObjectDBX Classes
 90
        0
 91
        5
280
     0
281
     0
  0
CLASS
  1
CELLSTYLEMAP
  2
AcDbCellStyleMap
  3
ObjectDBX Classes
 90
     1152
 91
        4
280
     0
281
     0
  0
ENDSEC
  0
SECTION
  2
TABLES
  0
TABLE
  2
VPORT
  5
8
330
0
100
AcDbSymbolTable
 70
     1
  0
VPORT
  5
1F4
330
8
100
AcDbSymbolTableRecord
100
AcDbViewportTableRecord
  2
*ACTIVE
 70
     0
 10
0.0
 20
0.0
 11
1.0
 21
1.0
 12
328.3078891050582
 22
195.6583803501945
 13
0.0
 23
0.0
 14
1.0
 24
1.0
 15
0.0
 25
0.0
 16
0.0
 26
0.0
 36
1.0
 17
0.0
 27
0.0
 37
0.0
 40
464.0624999999998
 41
1.929961089494163
 42
50.0
 43
0.0
 44
0.0
 50
0.0
 51
0.0
 71
    16
 72
   100
 73
     1
 74
     1
 75
     0
 76
     0
 77
     0
 78
     0
281
     0
 65
     1
110
0.0
120
0.0
130
0.0
111
1.0
121
0.0
131
0.0
112
0.0
122
1.0
132
0.0
 79
     0
146
0.0
348
5BE
 60
     3
 61
     5
292
     1
282
     1
141
0.0
142
0.0
 63
   256
361
5D9
  0
ENDTAB
  0
TABLE
  2
LTYPE
  5
5
330
0
100
AcDbSymbolTable
 70
     6
  0
LTYPE
  5
14
330
5
100
AcDbSymbolTableRecord
100
AcDbLinetypeTableRecord
  2
BYBLOCK
 70
     0
  3

 72
    65
 73
     0
 40
0.0
  0
LTYPE
  5
15
330
5
100
AcDbSymbolTableRecord
100
AcDbLinetypeTableRecord
  2
BYLAYER
 70
     0
  3

 72
    65
 73
     0
 40
0.0
  0
LTYPE
  5
16
330
5
100
AcDbSymbolTableRecord
100
AcDbLinetypeTableRecord
  2
CONTINUOUS
 70
     0
  3
Solid line
 72
    65
 73
     0
 40
0.0
  0
LTYPE
  5
1F5
330
5
100
AcDbSymbolTableRecord
100
AcDbLinetypeTableRecord
  2
CENTER
 70
     0
  3
____ _ ____ _ ____ _ ____ _ ____ _ ____ _ ____
 72
    65
 73
     4
 40
0.6
 49
0.375
 74
     0
 49
-0.075
 74
     0
 49
0.075
 74
     0
 49
-0.075
 74
     0
  0
LTYPE
  5
1F6
330
5
100
AcDbSymbolTableRecord
100
AcDbLinetypeTableRecord
  2
HIDDEN
 70
     0
  3
- - - - - - - - - - - - - - - - - - - -
 72
    65
 73
     2
 40
0.2
 49
0.1
 74
     0
 49
-0.1
 74
     0
  0
LTYPE
  5
1F7
330
5
100
AcDbSymbolTableRecord
100
AcDbLinetypeTableRecord
  2
PHANTOM
 70
     0
  3
_____ _ _ _____ _ _ _____ _ _ _____
 72
    65
 73
     6
 40
0.8
 49
0.45
 74
     0
 49
-0.05
 74
     0
 49
0.1
 74
     0
 49
-0.05
 74
     0
 49
0.1
 74
     0
 49
-0.05
 74
     0
  0
LTYPE
  5
1F8
330
5
100
AcDbSymbolTableRecord
100
AcDbLinetypeTableRecord
  2
DOT
 70
     0
  3
. . . . . . . . . . . . . . . . . . . .
 72
    65
 73
     2
 40
0.2
 49
0.1
 74
     0
 49
-0.1
 74
     0
  0
LTYPE
  5
1F9
330
5
100
AcDbSymbolTableRecord
100
AcDbLinetypeTableRecord
  2
DASHED
 70
     0
  3
- - - - - - - - - - - - - - - - - - - -
 72
    65
 73
     2
 40
0.2
 49
0.1
 74
     0
 49
-0.1
 74
     0
  0
ENDTAB
  0
TABLE
  2
LAYER
  5
2
330
0
100
AcDbSymbolTable
 70
    35
  0
LAYER
  5
10
330
2
100
AcDbSymbolTableRecord
100
AcDbLayerTableRecord
  2
0
 70
     0
 62
     7
  6
CONTINUOUS
370
    -3
390
F
347
5D5
  0
LAYER
  5
1FA
330
2
100
AcDbSymbolTableRecord
100
AcDbLayerTableRecord
  2
DEFAULT_1
 70
     0
 62
     7
  6
CENTER
370
    -3
390
F
347
5D5
  0
LAYER
  5
1FB
330
2
100
AcDbSymbolTableRecord
100
AcDbLayerTableRecord
  2
DEFAULT_2
 70
     0
 62
     8
  6
HIDDEN
370
    -3
390
F
347
5D5
  0
LAYER
  5
1FC
330
2
100
AcDbSymbolTableRecord
100
AcDbLayerTableRecord
  2
DEFAULT_3
 70
     0
 62
     7
  6
PHANTOM
370
    -3
390
F
347
5D5
  0
LAYER
  5
1FD
330
2
100
AcDbSymbolTableRecord
100
AcDbLayerTableRecord
  2
01_ALL_DTM_PLN
 70
     0
 62
     7
  6
CONTINUOUS
370
    -3
390
F
347
5D5
  0
LAYER
  5
1FE
330
2
100
AcDbSymbolTableRecord
100
AcDbLayerTableRecord
  2
01__ASM_ALL_DTM_PLN
 70
     0
 62
     7
  6
CONTINUOUS
370
    -3
390
F
347
5D5
  0
LAYER
  5
1FF
330
2
100
AcDbSymbolTableRecord
100
AcDbLayerTableRecord
  2
01__ASM_DEF_DTM_PLN
 70
     0
 62
     7
  6
CONTINUOUS
370
    -3
390
F
347
5D5
  0
LAYER
  5
200
330
2
100
AcDbSymbolTableRecord
100
AcDbLayerTableRecord
  2
01___PRT_ALL_DTM_PLN
 70
     0
 62
     7
  6
CONTINUOUS
370
    -3
390
F
347
5D5
  0
LAYER
  5
201
330
2
100
AcDbSymbolTableRecord
100
AcDbLayerTableRecord
  2
01___PRT_DEF_DTM_PLN
 70
     0
 62
     7
  6
CONTINUOUS
370
    -3
390
F
347
5D5
  0
LAYER
  5
202
330
2
100
AcDbSymbolTableRecord
100
AcDbLayerTableRecord
  2
02_ALL_AXES
 70
     0
 62
     7
  6
CONTINUOUS
370
    -3
390
F
347
5D5
  0
LAYER
  5
203
330
2
100
AcDbSymbolTableRecord
100
AcDbLayerTableRecord
  2
02__ASM_ALL_AXES
 70
     0
 62
     7
  6
CONTINUOUS
370
    -3
390
F
347
5D5
  0
LAYER
  5
204
330
2
100
AcDbSymbolTableRecord
100
AcDbLayerTableRecord
  2
02___PRT_ALL_AXES
 70
     0
 62
     7
  6
CONTINUOUS
370
    -3
390
F
347
5D5
  0
LAYER
  5
205
330
2
100
AcDbSymbolTableRecord
100
AcDbLayerTableRecord
  2
03_ALL_CURVES
 70
     0
 62
     7
  6
CONTINUOUS
370
    -3
390
F
347
5D5
  0
LAYER
  5
206
330
2
100
AcDbSymbolTableRecord
100
AcDbLayerTableRecord
  2
03__ASM_ALL_CURVES
 70
     0
 62
     7
  6
CONTINUOUS
370
    -3
390
F
347
5D5
  0
LAYER
  5
207
330
2
100
AcDbSymbolTableRecord
100
AcDbLayerTableRecord
  2
03___PRT_ALL_CURVES
 70
     0
 62
     7
  6
CONTINUOUS
370
    -3
390
F
347
5D5
  0
LAYER
  5
208
330
2
100
AcDbSymbolTableRecord
100
AcDbLayerTableRecord
  2
04_ALL_DTM_PNT
 70
     0
 62
     7
  6
CONTINUOUS
370
    -3
390
F
347
5D5
  0
LAYER
  5
209
330
2
100
AcDbSymbolTableRecord
100
AcDbLayerTableRecord
  2
04__ASM_ALL_DTM_PNT
 70
     0
 62
     7
  6
CONTINUOUS
370
    -3
390
F
347
5D5
  0
LAYER
  5
20A
330
2
100
AcDbSymbolTableRecord
100
AcDbLayerTableRecord
  2
04___PRT_ALL_DTM_PNT
 70
     0
 62
     7
  6
CONTINUOUS
370
    -3
390
F
347
5D5
  0
LAYER
  5
20B
330
2
100
AcDbSymbolTableRecord
100
AcDbLayerTableRecord
  2
05_ALL_DTM_CSYS
 70
     0
 62
     7
  6
CONTINUOUS
370
    -3
390
F
347
5D5
  0
LAYER
  5
20C
330
2
100
AcDbSymbolTableRecord
100
AcDbLayerTableRecord
  2
05__ASM_ALL_DTM_CSYS
 70
     0
 62
     7
  6
CONTINUOUS
370
    -3
390
F
347
5D5
  0
LAYER
  5
20D
330
2
100
AcDbSymbolTableRecord
100
AcDbLayerTableRecord
  2
05__ASM_DEF_DTM_CSYS
 70
     0
 62
     7
  6
CONTINUOUS
370
    -3
390
F
347
5D5
  0
LAYER
  5
20E
330
2
100
AcDbSymbolTableRecord
100
AcDbLayerTableRecord
  2
05___PRT_ALL_DTM_CSYS
 70
     0
 62
     7
  6
CONTINUOUS
370
    -3
390
F
347
5D5
  0
LAYER
  5
20F
330
2
100
AcDbSymbolTableRecord
100
AcDbLayerTableRecord
  2
05___PRT_DEF_DTM_CSYS
 70
     0
 62
     7
  6
CONTINUOUS
370
    -3
390
F
347
5D5
  0
LAYER
  5
210
330
2
100
AcDbSymbolTableRecord
100
AcDbLayerTableRecord
  2
06_ALL_SURFS
 70
     0
 62
     7
  6
CONTINUOUS
370
    -3
390
F
347
5D5
  0
LAYER
  5
211
330
2
100
AcDbSymbolTableRecord
100
AcDbLayerTableRecord
  2
06__ASM_ALL_SURFS
 70
     0
 62
     7
  6
CONTINUOUS
370
    -3
390
F
347
5D5
  0
LAYER
  5
212
330
2
100
AcDbSymbolTableRecord
100
AcDbLayerTableRecord
  2
06___PRT_ALL_SURFS
 70
     0
 62
     7
  6
CONTINUOUS
370
    -3
390
F
347
5D5
  0
LAYER
  5
213
330
2
100
AcDbSymbolTableRecord
100
AcDbLayerTableRecord
  2
07__ASM_ALL_SKELETONS
 70
     0
 62
     7
  6
CONTINUOUS
370
    -3
390
F
347
5D5
  0
LAYER
  5
214
330
2
100
AcDbSymbolTableRecord
100
AcDbLayerTableRecord
  2
1_ALL_PLANES
 70
     0
 62
     7
  6
CONTINUOUS
370
    -3
390
F
347
5D5
  0
LAYER
  5
215
330
2
100
AcDbSymbolTableRecord
100
AcDbLayerTableRecord
  2
3_ALL_AXES
 70
     0
 62
     7
  6
CONTINUOUS
370
    -3
390
F
347
5D5
  0
LAYER
  5
216
330
2
100
AcDbSymbolTableRecord
100
AcDbLayerTableRecord
  2
4_ALL_POINTS
 70
     0
 62
     7
  6
CONTINUOUS
370
    -3
390
F
347
5D5
  0
LAYER
  5
217
330
2
100
AcDbSymbolTableRecord
100
AcDbLayerTableRecord
  2
5_ALL_CURVES
 70
     0
 62
     7
  6
CONTINUOUS
370
    -3
390
F
347
5D5
  0
LAYER
  5
218
330
2
100
AcDbSymbolTableRecord
100
AcDbLayerTableRecord
  2
6_ALL_SURFS
 70
     0
 62
     7
  6
CONTINUOUS
370
    -3
390
F
347
5D5
  0
LAYER
  5
219
330
2
100
AcDbSymbolTableRecord
100
AcDbLayerTableRecord
  2
7_ALL_FEATURES
 70
     0
 62
     7
  6
CONTINUOUS
370
    -3
390
F
347
5D5
  0
LAYER
  5
21A
330
2
100
AcDbSymbolTableRecord
100
AcDbLayerTableRecord
  2
8_ALL_NOTES_BALLOONS_SYMBOLS_GT
 70
     0
 62
     7
  6
CONTINUOUS
370
    -3
390
F
347
5D5
  0
LAYER
  5
21B
330
2
100
AcDbSymbolTableRecord
100
AcDbLayerTableRecord
  2
XSEC_DATUMS
 70
     0
 62
     7
  6
CONTINUOUS
370
    -3
390
F
347
5D5
  0
ENDTAB
  0
TABLE
  2
STYLE
  5
3
330
0
100
AcDbSymbolTable
 70
     5
  0
STYLE
  5
11
330
3
100
AcDbSymbolTableRecord
100
AcDbTextStyleTableRecord
  2
STANDARD
 70
     0
 40
0.0
 41
0.85
 50
0.0
 71
     0
 42
0.2
  3
txt
  4

  0
STYLE
  5
21C
330
3
100
AcDbSymbolTableRecord
100
AcDbTextStyleTableRecord
  2
TEXTSTYLE_1
 70
     0
 40
0.0
 41
0.8
 50
0.0
 71
     0
 42
0.2
  3
gdt
  4

  0
STYLE
  5
21D
330
3
100
AcDbSymbolTableRecord
100
AcDbTextStyleTableRecord
  2
TEXTSTYLE_2
 70
     0
 40
0.0
 41
0.9
 50
0.0
 71
     0
 42
0.2
  3
txt
  4

  0
STYLE
  5
21E
330
3
100
AcDbSymbolTableRecord
100
AcDbTextStyleTableRecord
  2
TEXTSTYLE_3
 70
     0
 40
0.0
 41
0.9
 50
0.0
 71
     0
 42
0.2
  3
txt
  4

  0
STYLE
  5
21F
330
3
100
AcDbSymbolTableRecord
100
AcDbTextStyleTableRecord
  2
TEXTSTYLE_4
 70
     0
 40
0.0
 41
0.85
 50
0.0
 71
     0
 42
0.2
  3
txt
  4

  0
ENDTAB
  0
TABLE
  2
VIEW
  5
6
330
0
100
AcDbSymbolTable
 70
     0
  0
ENDTAB
  0
TABLE
  2
UCS
  5
7
330
0
100
AcDbSymbolTable
 70
     0
  0
ENDTAB
  0
TABLE
  2
APPID
  5
9
330
0
100
AcDbSymbolTable
 70
     2
  0
APPID
  5
220
330
9
100
AcDbSymbolTableRecord
100
AcDbRegAppTableRecord
  2
ACAD
 70
     0
  0
APPID
  5
5E0
330
9
100
AcDbSymbolTableRecord
100
AcDbRegAppTableRecord
  2
ACAD_MLEADERVER
 70
     0
  0
ENDTAB
  0
TABLE
  2
DIMSTYLE
  5
A
330
0
100
AcDbSymbolTable
 70
     4
100
AcDbDimStyleTable
  0
DIMSTYLE
105
22A
330
A
100
AcDbSymbolTableRecord
100
AcDbDimStyleTableRecord
  2
STANDARD
 70
     0
 41
2.5
 47
0.01
 48
0.01
 71
     1
 73
     0
 74
     0
 77
     1
 78
     8
140
3.0
178
     0
271
     2
272
     2
284
     8
340
11
341
223
342
223
343
223
344
223
  0
DIMSTYLE
105
22B
330
A
100
AcDbSymbolTableRecord
100
AcDbDimStyleTableRecord
  2
DIMSTYLE_1
 70
     0
 41
2.5
 47
0.5
 48
0.5
 73
     0
 74
     0
 77
     1
 78
     8
140
3.0
144
2.0
178
     0
271
     2
272
     2
284
     8
340
11
341
223
342
223
343
223
344
223
  0
DIMSTYLE
105
22C
330
A
100
AcDbSymbolTableRecord
100
AcDbDimStyleTableRecord
  2
DIMSTYLE_2
 70
     0
 41
2.5
 47
0.3
 48
0.3
 73
     0
 74
     0
 77
     1
 78
     8
140
3.0
144
2.0
178
     0
271
     0
272
     0
284
     8
340
11
341
223
342
223
343
223
344
223
  0
DIMSTYLE
105
22D
330
A
100
AcDbSymbolTableRecord
100
AcDbDimStyleTableRecord
  2
DIMSTYLE_3
 70
     0
 41
2.5
 47
0.2
 48
0.2
 73
     0
 74
     0
 77
     1
 78
     8
140
3.0
144
2.0
178
     0
271
     2
272
     2
284
     8
340
11
341
223
342
223
343
223
344
223
  0
ENDTAB
  0
TABLE
  2
BLOCK_RECORD
  5
1
330
0
100
AcDbSymbolTable
 70
     7
  0
BLOCK_RECORD
  5
221
330
1
100
AcDbSymbolTableRecord
100
AcDbBlockTableRecord
  2
*Model_Space
340
592
 70
     0
280
     1
281
     0
  0
BLOCK_RECORD
  5
222
330
1
100
AcDbSymbolTableRecord
100
AcDbBlockTableRecord
  2
*Paper_Space
340
593
 70
     0
280
     1
281
     0
  0
BLOCK_RECORD
  5
223
330
1
100
AcDbSymbolTableRecord
100
AcDbBlockTableRecord
  2
_CLOSED
340
0
102
{BLKREFS
331
275
331
276
331
27D
331
27E
331
285
331
286
331
28D
331
28E
102
}
 70
     0
280
     1
281
     0
  0
BLOCK_RECORD
  5
224
330
1
100
AcDbSymbolTableRecord
100
AcDbBlockTableRecord
  2
*D1
340
0
 70
     0
280
     1
281
     0
  0
BLOCK_RECORD
  5
225
330
1
100
AcDbSymbolTableRecord
100
AcDbBlockTableRecord
  2
*D2
340
0
 70
     0
280
     1
281
     0
  0
BLOCK_RECORD
  5
226
330
1
100
AcDbSymbolTableRecord
100
AcDbBlockTableRecord
  2
*D3
340
0
 70
     0
280
     1
281
     0
  0
BLOCK_RECORD
  5
227
330
1
100
AcDbSymbolTableRecord
100
AcDbBlockTableRecord
  2
*D4
340
0
 70
     0
280
     1
281
     0
  0
BLOCK_RECORD
  5
228
330
1
100
AcDbSymbolTableRecord
100
AcDbBlockTableRecord
  2
LOGO2_BL0
340
0
102
{BLKREFS
331
2A0
102
}
 70
     0
280
     1
281
     0
  0
BLOCK_RECORD
  5
229
330
1
100
AcDbSymbolTableRecord
100
AcDbBlockTableRecord
  2
*T6
340
0
102
{BLKREFS
331
3C9
102
}
 70
     0
280
     1
281
     0
  0
ENDTAB
  0
ENDSEC
  0
SECTION
  2
BLOCKS
  0
BLOCK
  5
20
330
221
100
AcDbEntity
  8
0
100
AcDbBlockBegin
  2
*Model_Space
 70
     0
 10
0.0
 20
0.0
 30
0.0
  3
*Model_Space
  1

  0
ENDBLK
  5
21
330
221
100
AcDbEntity
  8
0
100
AcDbBlockEnd
  0
BLOCK
  5
1C
330
222
100
AcDbEntity
 67
     1
  8
0
100
AcDbBlockBegin
  2
*Paper_Space
 70
     0
 10
0.0
 20
0.0
 30
0.0
  3
*Paper_Space
  1

  0
ENDBLK
  5
1D
330
222
100
AcDbEntity
 67
     1
  8
0
100
AcDbBlockEnd
  0
BLOCK
  5
26A
330
223
100
AcDbEntity
  8
0
100
AcDbBlockBegin
  2
_CLOSED
 70
     0
 10
0.0
 20
0.0
 30
0.0
  3
_CLOSED
  1

  0
LINE
  5
26B
330
223
100
AcDbEntity
  8
0
  6
ByBlock
 62
     0
100
AcDbLine
 10
0.0
 20
0.0
 30
0.0
 11
-1.0
 21
0.2
 31
0.0
  0
LINE
  5
26C
330
223
100
AcDbEntity
  8
0
  6
ByBlock
 62
     0
100
AcDbLine
 10
-1.0
 20
0.2
 30
0.0
 11
-1.0
 21
-0.2
 31
0.0
  0
LINE
  5
26D
330
223
100
AcDbEntity
  8
0
  6
ByBlock
 62
     0
100
AcDbLine
 10
-1.0
 20
-0.2
 30
0.0
 11
0.0
 21
0.0
 31
0.0
  0
LINE
  5
26E
330
223
100
AcDbEntity
  8
0
  6
ByBlock
 62
     0
100
AcDbLine
 10
-1.0
 20
0.0
 30
0.0
 11
0.0
 21
0.0
 31
0.0
  0
ENDBLK
  5
26F
330
223
100
AcDbEntity
  8
0
  6
ByBlock
 62
     0
100
AcDbBlockEnd
  0
BLOCK
  5
270
330
224
100
AcDbEntity
  8
0
100
AcDbBlockBegin
  2
*D1
 70
     1
 10
0.0
 20
0.0
 30
0.0
  3
*D1
  1

  0
LINE
  5
271
330
224
100
AcDbEntity
  8
0
  6
Continuous
 62
     2
100
AcDbLine
 10
48.5355953203
 20
108.0215733017
 30
0.0
 11
48.5355953203
 21
120.8547078221
 31
0.0
  0
LINE
  5
272
330
224
100
AcDbEntity
  8
0
  6
Continuous
 62
     2
100
AcDbLine
 10
152.5355953203
 20
108.0215733017
 30
0.0
 11
152.5355953203
 21
120.8547078221
 31
0.0
  0
LINE
  5
273
330
224
100
AcDbEntity
  8
0
  6
Continuous
 62
     2
100
AcDbLine
 10
48.5355953203
 20
120.1047078221
 30
0.0
 11
100.5355953203
 21
120.1047078221
 31
0.0
  0
LINE
  5
274
330
224
100
AcDbEntity
  8
0
  6
Continuous
 62
     2
100
AcDbLine
 10
152.5355953203
 20
120.1047078221
 30
0.0
 11
100.5355953203
 21
120.1047078221
 31
0.0
  0
INSERT
  5
275
330
224
100
AcDbEntity
  8
0
  6
Continuous
 62
     2
100
AcDbBlockReference
  2
_CLOSED
 10
48.5355953203
 20
120.1047078221
 30
0.0
 41
2.5
 42
2.5
 43
2.5
 50
180.0
  0
INSERT
  5
276
330
224
100
AcDbEntity
  8
0
  6
Continuous
 62
     2
100
AcDbBlockReference
  2
_CLOSED
 10
152.5355953203
 20
120.1047078221
 30
0.0
 41
2.5
 42
2.5
 43
2.5
  0
ENDBLK
  5
277
330
224
100
AcDbEntity
  8
0
  6
ByBlock
 62
     0
100
AcDbBlockEnd
  0
BLOCK
  5
278
330
225
100
AcDbEntity
  8
0
100
AcDbBlockBegin
  2
*D2
 70
     1
 10
0.0
 20
0.0
 30
0.0
  3
*D2
  1

  0
LINE
  5
279
330
225
100
AcDbEntity
  8
0
  6
Continuous
 62
     2
100
AcDbLine
 10
155.8410935074
 20
104.8903396637
 30
0.0
 11
166.6267480529
 21
104.8903396637
 31
0.0
  0
LINE
  5
27A
330
225
100
AcDbEntity
  8
0
  6
Continuous
 62
     2
100
AcDbLine
 10
155.6840025983
 20
65.1403396637
 30
0.0
 11
166.6267480529
 21
65.1403396637
 31
0.0
  0
LINE
  5
27B
330
225
100
AcDbEntity
  8
0
  6
Continuous
 62
     2
100
AcDbLine
 10
165.8767480529
 20
104.8903396637
 30
0.0
 11
165.8767480529
 21
85.0153396637
 31
0.0
  0
LINE
  5
27C
330
225
100
AcDbEntity
  8
0
  6
Continuous
 62
     2
100
AcDbLine
 10
165.8767480529
 20
65.1403396637
 30
0.0
 11
165.8767480529
 21
85.0153396637
 31
0.0
  0
INSERT
  5
27D
330
225
100
AcDbEntity
  8
0
  6
Continuous
 62
     2
100
AcDbBlockReference
  2
_CLOSED
 10
165.8767480529
 20
104.8903396637
 30
0.0
 41
2.5
 42
2.5
 43
2.5
 50
90.0
  0
INSERT
  5
27E
330
225
100
AcDbEntity
  8
0
  6
Continuous
 62
     2
100
AcDbBlockReference
  2
_CLOSED
 10
165.8767480529
 20
65.1403396637
 30
0.0
 41
2.5
 42
2.5
 43
2.5
 50
270.0
  0
ENDBLK
  5
27F
330
225
100
AcDbEntity
  8
0
  6
ByBlock
 62
     0
100
AcDbBlockEnd
  0
BLOCK
  5
280
330
226
100
AcDbEntity
  8
0
100
AcDbBlockBegin
  2
*D3
 70
     1
 10
0.0
 20
0.0
 30
0.0
  3
*D3
  1

  0
LINE
  5
281
330
226
100
AcDbEntity
  8
0
  6
Continuous
 62
     2
100
AcDbLine
 10
60.5355953203
 20
217.8963925518
 30
0.0
 11
60.5355953203
 21
237.7198203837
 31
0.0
  0
LINE
  5
282
330
226
100
AcDbEntity
  8
0
  6
Continuous
 62
     2
100
AcDbLine
 10
140.5355953203
 20
217.8963925518
 30
0.0
 11
140.5355953203
 21
237.7198203837
 31
0.0
  0
LINE
  5
283
330
226
100
AcDbEntity
  8
0
  6
Continuous
 62
     2
100
AcDbLine
 10
60.5355953203
 20
236.9698203837
 30
0.0
 11
100.5355953203
 21
236.9698203837
 31
0.0
  0
LINE
  5
284
330
226
100
AcDbEntity
  8
0
  6
Continuous
 62
     2
100
AcDbLine
 10
140.5355953203
 20
236.9698203837
 30
0.0
 11
100.5355953203
 21
236.9698203837
 31
0.0
  0
INSERT
  5
285
330
226
100
AcDbEntity
  8
0
  6
Continuous
 62
     2
100
AcDbBlockReference
  2
_CLOSED
 10
60.5355953203
 20
236.9698203837
 30
0.0
 41
2.5
 42
2.5
 43
2.5
 50
180.0
  0
INSERT
  5
286
330
226
100
AcDbEntity
  8
0
  6
Continuous
 62
     2
100
AcDbBlockReference
  2
_CLOSED
 10
140.5355953203
 20
236.9698203837
 30
0.0
 41
2.5
 42
2.5
 43
2.5
  0
ENDBLK
  5
287
330
226
100
AcDbEntity
  8
0
  6
ByBlock
 62
     0
100
AcDbBlockEnd
  0
BLOCK
  5
288
330
227
100
AcDbEntity
  8
0
100
AcDbBlockBegin
  2
*D4
 70
     1
 10
0.0
 20
0.0
 30
0.0
  3
*D4
  1

  0
LINE
  5
289
330
227
100
AcDbEntity
  8
0
  6
Continuous
 62
     2
100
AcDbLine
 10
232.4093137428
 20
208.6463925518
 30
0.0
 11
251.0947006868
 21
208.6463925518
 31
0.0
  0
LINE
  5
28A
330
227
100
AcDbEntity
  8
0
  6
Continuous
 62
     2
100
AcDbLine
 10
231.7809501065
 20
223.1463925518
 30
0.0
 11
251.0947006868
 21
223.1463925518
 31
0.0
  0
LINE
  5
28B
330
227
100
AcDbEntity
  8
0
  6
Continuous
 62
     2
100
AcDbLine
 10
250.3447006868
 20
208.6463925518
 30
0.0
 11
250.3447006868
 21
215.8963925518
 31
0.0
  0
LINE
  5
28C
330
227
100
AcDbEntity
  8
0
  6
Continuous
 62
     2
100
AcDbLine
 10
250.3447006868
 20
223.1463925518
 30
0.0
 11
250.3447006868
 21
215.8963925518
 31
0.0
  0
INSERT
  5
28D
330
227
100
AcDbEntity
  8
0
  6
Continuous
 62
     2
100
AcDbBlockReference
  2
_CLOSED
 10
250.3447006868
 20
208.6463925518
 30
0.0
 41
2.5
 42
2.5
 43
2.5
 50
270.0
  0
INSERT
  5
28E
330
227
100
AcDbEntity
  8
0
  6
Continuous
 62
     2
100
AcDbBlockReference
  2
_CLOSED
 10
250.3447006868
 20
223.1463925518
 30
0.0
 41
2.5
 42
2.5
 43
2.5
 50
90.0
  0
ENDBLK
  5
28F
330
227
100
AcDbEntity
  8
0
  6
ByBlock
 62
     0
100
AcDbBlockEnd
  0
BLOCK
  5
22E
330
228
100
AcDbEntity
  8
0
100
AcDbBlockBegin
  2
LOGO2_BL0
 70
     0
 10
333.1473869546
 20
37.5239270671
 30
0.0
  3
LOGO2_BL0
  1

  0
LINE
  5
22F
330
228
100
AcDbEntity
  8
0
  6
Continuous
 62
     7
100
AcDbLine
 10
324.8903121828
 20
40.7194184059
 30
0.0
 11
323.5859712535
 21
40.7194184059
 31
0.0
  0
LINE
  5
230
330
228
100
AcDbEntity
  8
0
  6
Continuous
 62
     7
100
AcDbLine
 10
323.5859712535
 20
40.7194184059
 30
0.0
 11
323.5859712535
 21
30.260352346
 31
0.0
  0
LINE
  5
231
330
228
100
AcDbEntity
  8
0
  6
Continuous
 62
     7
100
AcDbLine
 10
323.5859712535
 20
30.260352346
 30
0.0
 11
328.0670261417
 21
30.260352346
 31
0.0
  0
LINE
  5
232
330
228
100
AcDbEntity
  8
0
  6
Continuous
 62
     7
100
AcDbLine
 10
328.0670261417
 20
30.260352346
 30
0.0
 11
328.0670261417
 21
31.4532066711
 31
0.0
  0
LINE
  5
233
330
228
100
AcDbEntity
  8
0
  6
Continuous
 62
     7
100
AcDbLine
 10
328.0670261417
 20
31.4532066711
 30
0.0
 11
324.8903121828
 21
31.4532066711
 31
0.0
  0
LINE
  5
234
330
228
100
AcDbEntity
  8
0
  6
Continuous
 62
     7
100
AcDbLine
 10
324.8903121828
 20
31.4532066711
 30
0.0
 11
324.8903121828
 21
40.7194184059
 31
0.0
  0
LINE
  5
235
330
228
100
AcDbEntity
  8
0
  6
Continuous
 62
     7
100
AcDbLine
 10
339.8266383991
 20
40.7194184059
 30
0.0
 11
338.522820881
 21
40.7194184059
 31
0.0
  0
LINE
  5
236
330
228
100
AcDbEntity
  8
0
  6
Continuous
 62
     7
100
AcDbLine
 10
338.522820881
 20
40.7194184059
 30
0.0
 11
338.522820881
 21
30.260352346
 31
0.0
  0
LINE
  5
237
330
228
100
AcDbEntity
  8
0
  6
Continuous
 62
     7
100
AcDbLine
 10
338.522820881
 20
30.260352346
 30
0.0
 11
343.0040066221
 21
30.260352346
 31
0.0
  0
LINE
  5
238
330
228
100
AcDbEntity
  8
0
  6
Continuous
 62
     7
100
AcDbLine
 10
343.0040066221
 20
30.260352346
 30
0.0
 11
343.0040066221
 21
31.4532066711
 31
0.0
  0
LINE
  5
239
330
228
100
AcDbEntity
  8
0
  6
Continuous
 62
     7
100
AcDbLine
 10
343.0040066221
 20
31.4532066711
 30
0.0
 11
339.8266383991
 21
31.4532066711
 31
0.0
  0
LINE
  5
23A
330
228
100
AcDbEntity
  8
0
  6
Continuous
 62
     7
100
AcDbLine
 10
339.8266383991
 20
31.4532066711
 30
0.0
 11
339.8266383991
 21
40.7194184059
 31
0.0
  0
LWPOLYLINE
  5
23B
330
228
100
AcDbEntity
  8
0
  6
Continuous
 62
     7
100
AcDbPolyline
 90
        2
 70
     0
 43
0.2
 10
321.9403661644
 20
26.9168010391
 10
321.9403661644
 20
25.0597377898
  0
LWPOLYLINE
  5
23C
330
228
100
AcDbEntity
  8
0
  6
Continuous
 62
     7
100
AcDbPolyline
 90
        2
 70
     0
 43
0.2
 10
321.9403661644
 20
25.0597377898
 10
322.7360821748
 20
25.0597377898
  0
LWPOLYLINE
  5
23D
330
228
100
AcDbEntity
  8
0
  6
Continuous
 62
     7
100
AcDbPolyline
 90
        2
 70
     0
 43
0.2
 10
322.7360821748
 20
25.0597377898
 10
322.7360821748
 20
25.2717193614
  0
LWPOLYLINE
  5
23E
330
228
100
AcDbEntity
  8
0
  6
Continuous
 62
     7
100
AcDbPolyline
 90
        2
 70
     0
 43
0.2
 10
322.7360821748
 20
25.2717193614
 10
322.1719756593
 20
25.2717193614
  0
LWPOLYLINE
  5
23F
330
228
100
AcDbEntity
  8
0
  6
Continuous
 62
     7
100
AcDbPolyline
 90
        2
 70
     0
 43
0.2
 10
322.1719756593
 20
25.2717193614
 10
322.1719756593
 20
26.9168010391
  0
LWPOLYLINE
  5
240
330
228
100
AcDbEntity
  8
0
  6
Continuous
 62
     7
100
AcDbPolyline
 90
        2
 70
     0
 43
0.2
 10
322.1719756593
 20
26.9168010391
 10
321.9403661644
 20
26.9168010391
  0
SPLINE
  5
241
330
228
100
AcDbEntity
  8
0
  6
Continuous
 62
     7
100
AcDbSpline
 70
     3
 71
     3
 72
    35
 73
    31
 74
     0
 42
0.000000001
 43
0.0000001
 40
0.0
 40
0.0
 40
0.0
 40
0.0
 40
1.0
 40
1.0
 40
1.0
 40
2.0
 40
2.0
 40
2.0
 40
3.0
 40
3.0
 40
3.0
 40
4.0
 40
4.0
 40
4.0
 40
5.0
 40
5.0
 40
5.0
 40
6.0
 40
6.0
 40
6.0
 40
7.0
 40
7.0
 40
7.0
 40
8.0
 40
8.0
 40
8.0
 40
9.0
 40
9.0
 40
9.0
 40
10.0
 40
10.0
 40
10.0
 40
10.0
 10
324.1343754303
 20
26.2122894457
 30
0.0
 10
324.1343754303
 20
26.2122894457
 30
0.0
 10
324.1343754303
 20
25.5501741665
 30
0.0
 10
324.1343754303
 20
25.5501741665
 30
0.0
 10
324.1343754303
 20
25.2350805712
 30
0.0
 10
324.2822391191
 20
25.0204819432
 30
0.0
 10
324.6223256034
 20
25.0204819432
 30
0.0
 10
324.9618886764
 20
25.0204819432
 30
0.0
 10
325.1100140709
 20
25.2350805712
 30
0.0
 10
325.1100140709
 20
25.5501741665
 30
0.0
 10
325.1100140709
 20
25.5501741665
 30
0.0
 10
325.1100140709
 20
26.2122894457
 30
0.0
 10
325.1100140709
 20
26.2122894457
 30
0.0
 10
325.1100140709
 20
26.2122894457
 30
0.0
 10
324.887956832
 20
26.2122894457
 30
0.0
 10
324.887956832
 20
26.2122894457
 30
0.0
 10
324.887956832
 20
26.2122894457
 30
0.0
 10
324.887956832
 20
25.5752979083
 30
0.0
 10
324.887956832
 20
25.5752979083
 30
0.0
 10
324.887956832
 20
25.3894869011
 30
0.0
 10
324.8412423746
 20
25.2267059906
 30
0.0
 10
324.6223256034
 20
25.2267059906
 30
0.0
 10
324.402885421
 20
25.2267059906
 30
0.0
 10
324.3561709636
 20
25.3894869011
 30
0.0
 10
324.3561709636
 20
25.5752979083
 30
0.0
 10
324.3561709636
 20
25.5752979083
 30
0.0
 10
324.3561709636
 20
26.2122894457
 30
0.0
 10
324.3561709636
 20
26.2122894457
 30
0.0
 10
324.3561709636
 20
26.2122894457
 30
0.0
 10
324.1343754303
 20
26.2122894457
 30
0.0
 10
324.1343754303
 20
26.2122894457
 30
0.0
  0
SPLINE
  5
242
330
228
100
AcDbEntity
  8
0
  6
Continuous
 62
     7
100
AcDbSpline
 70
     3
 71
     3
 72
    35
 73
    31
 74
     0
 42
0.000000001
 43
0.0000001
 40
0.0
 40
0.0
 40
0.0
 40
0.0
 40
1.0
 40
1.0
 40
1.0
 40
2.0
 40
2.0
 40
2.0
 40
3.0
 40
3.0
 40
3.0
 40
4.0
 40
4.0
 40
4.0
 40
5.0
 40
5.0
 40
5.0
 40
6.0
 40
6.0
 40
6.0
 40
7.0
 40
7.0
 40
7.0
 40
8.0
 40
8.0
 40
8.0
 40
9.0
 40
9.0
 40
9.0
 40
10.0
 40
10.0
 40
10.0
 40
10.0
 10
327.5331466281
 20
26.1709399539
 30
0.0
 10
327.4446901205
 20
26.2222342601
 30
0.0
 10
327.3312407238
 20
26.2473580019
 30
0.0
 10
327.2276052888
 20
26.2473580019
 30
0.0
 10
326.8727324356
 20
26.2473580019
 30
0.0
 10
326.5972872454
 20
25.9835587129
 30
0.0
 10
326.5972872454
 20
25.6260688032
 30
0.0
 10
326.5972872454
 20
25.2811407645
 30
0.0
 10
326.8757420505
 20
25.0210053545
 30
0.0
 10
327.2153051235
 20
25.0210053545
 30
0.0
 10
327.3312407238
 20
25.0210053545
 30
0.0
 10
327.4319973967
 20
25.0429886286
 30
0.0
 10
327.5331466281
 20
25.0968999912
 30
0.0
 10
327.5331466281
 20
25.0968999912
 30
0.0
 10
327.5331466281
 20
25.3795420867
 30
0.0
 10
327.5331466281
 20
25.3795420867
 30
0.0
 10
327.4492699692
 20
25.2863748774
 30
0.0
 10
327.345765387
 20
25.2272294019
 30
0.0
 10
327.2176604743
 20
25.2272294019
 30
0.0
 10
326.9839573343
 20
25.2272294019
 30
0.0
 10
326.8186902202
 20
25.3994317156
 30
0.0
 10
326.8186902202
 20
25.6360136177
 30
0.0
 10
326.8186902202
 20
25.8479951893
 30
0.0
 10
326.9864435379
 20
26.040087132
 30
0.0
 10
327.2032666639
 20
26.040087132
 30
0.0
 10
327.3360822782
 20
26.040087132
 30
0.0
 10
327.4446901205
 20
25.9861757693
 30
0.0
 10
327.5331466281
 20
25.8851573907
 30
0.0
 10
327.5331466281
 20
25.8851573907
 30
0.0
 10
327.5331466281
 20
26.1709399539
 30
0.0
 10
327.5331466281
 20
26.1709399539
 30
0.0
  0
SPLINE
  5
243
330
228
100
AcDbEntity
  8
0
  6
Continuous
 62
     7
100
AcDbSpline
 70
     3
 71
     3
 72
    32
 73
    28
 74
     0
 42
0.000000001
 43
0.0000001
 40
0.0
 40
0.0
 40
0.0
 40
0.0
 40
1.0
 40
1.0
 40
1.0
 40
2.0
 40
2.0
 40
2.0
 40
3.0
 40
3.0
 40
3.0
 40
4.0
 40
4.0
 40
4.0
 40
5.0
 40
5.0
 40
5.0
 40
6.0
 40
6.0
 40
6.0
 40
7.0
 40
7.0
 40
7.0
 40
8.0
 40
8.0
 40
8.0
 40
9.0
 40
9.0
 40
9.0
 40
9.0
 10
330.0650178804
 20
25.5993748276
 30
0.0
 10
330.0650178804
 20
25.5993748276
 30
0.0
 10
330.0650178804
 20
25.6333965613
 30
0.0
 10
330.0650178804
 20
25.6333965613
 30
0.0
 10
330.0650178804
 20
25.9757075435
 30
0.0
 10
329.8921613025
 20
26.2473580019
 30
0.0
 10
329.5255116954
 20
26.2473580019
 30
0.0
 10
329.153889681
 20
26.2473580019
 30
0.0
 10
328.9641530891
 20
25.9809416564
 30
0.0
 10
328.9641530891
 20
25.6260688032
 30
0.0
 10
328.9641530891
 20
25.2863748774
 30
0.0
 10
329.1782283059
 20
25.0204819432
 30
0.0
 10
329.5303532498
 20
25.0204819432
 30
0.0
 10
329.754373281
 20
25.0204819432
 30
0.0
 10
329.9565408909
 20
25.1361558378
 30
0.0
 10
330.0650178804
 20
25.3355755385
 30
0.0
 10
330.0650178804
 20
25.3355755385
 30
0.0
 10
329.8773749337
 20
25.4423514412
 30
0.0
 10
329.8773749337
 20
25.4423514412
 30
0.0
 10
329.7938908332
 20
25.3036474499
 30
0.0
 10
329.7026864163
 20
25.2178079987
 30
0.0
 10
329.5331011591
 20
25.2178079987
 30
0.0
 10
329.3211195875
 20
25.2178079987
 30
0.0
 10
329.1881731204
 20
25.4025721833
 30
0.0
 10
329.1858177696
 20
25.5993748276
 30
0.0
 10
329.1858177696
 20
25.5993748276
 30
0.0
 10
330.0650178804
 20
25.5993748276
 30
0.0
 10
330.0650178804
 20
25.5993748276
 30
0.0
  0
SPLINE
  5
244
330
228
100
AcDbEntity
  8
0
  6
Continuous
 62
     7
100
AcDbSpline
 70
     3
 71
     3
 72
    14
 73
    10
 74
     0
 42
0.000000001
 43
0.0000001
 40
0.0
 40
0.0
 40
0.0
 40
0.0
 40
1.0
 40
1.0
 40
1.0
 40
2.0
 40
2.0
 40
2.0
 40
3.0
 40
3.0
 40
3.0
 40
3.0
 10
329.1978562292
 20
25.7668664397
 30
0.0
 10
329.2254661746
 20
25.9317409954
 30
0.0
 10
329.3533093817
 20
26.054742648
 30
0.0
 10
329.5255116954
 20
26.054742648
 30
0.0
 10
329.7026864163
 20
26.054742648
 30
0.0
 10
329.816135813
 20
25.9390687534
 30
0.0
 10
329.8433531999
 20
25.7668664397
 30
0.0
 10
329.8433531999
 20
25.7668664397
 30
0.0
 10
329.1978562292
 20
25.7668664397
 30
0.0
 10
329.1978562292
 20
25.7668664397
 30
0.0
  0
SPLINE
  5
245
330
228
100
AcDbEntity
  8
0
  6
Continuous
 62
     7
100
AcDbSpline
 70
     3
 71
     3
 72
    20
 73
    16
 74
     0
 42
0.000000001
 43
0.0000001
 40
0.0
 40
0.0
 40
0.0
 40
0.0
 40
1.0
 40
1.0
 40
1.0
 40
2.0
 40
2.0
 40
2.0
 40
3.0
 40
3.0
 40
3.0
 40
4.0
 40
4.0
 40
4.0
 40
5.0
 40
5.0
 40
5.0
 40
5.0
 10
332.0890493306
 20
25.9762309548
 30
0.0
 10
332.0890493306
 20
25.9762309548
 30
0.0
 10
332.5001888972
 20
25.4737561185
 30
0.0
 10
332.5001888972
 20
25.4737561185
 30
0.0
 10
332.3841224441
 20
25.3580822239
 30
0.0
 10
332.2463344226
 20
25.2277528132
 30
0.0
 10
332.0743938145
 20
25.2277528132
 30
0.0
 10
331.8969573879
 20
25.2277528132
 30
0.0
 10
331.7294657758
 20
25.3921039576
 30
0.0
 10
331.7294657758
 20
25.5690169729
 30
0.0
 10
331.7294657758
 20
25.7469768107
 30
0.0
 10
331.9392228494
 20
25.8731189311
 30
0.0
 10
332.0668043508
 20
25.9610520275
 30
0.0
 10
332.0668043508
 20
25.9610520275
 30
0.0
 10
332.0890493306
 20
25.9762309548
 30
0.0
 10
332.0890493306
 20
25.9762309548
 30
0.0
  0
SPLINE
  5
246
330
228
100
AcDbEntity
  8
0
  6
Continuous
 62
     7
100
AcDbSpline
 70
     3
 71
     3
 72
    23
 73
    19
 74
     0
 42
0.000000001
 43
0.0000001
 40
0.0
 40
0.0
 40
0.0
 40
0.0
 40
1.0
 40
1.0
 40
1.0
 40
2.0
 40
2.0
 40
2.0
 40
3.0
 40
3.0
 40
3.0
 40
4.0
 40
4.0
 40
4.0
 40
5.0
 40
5.0
 40
5.0
 40
6.0
 40
6.0
 40
6.0
 40
6.0
 10
332.1383808444
 20
26.2672476309
 30
0.0
 10
332.1383808444
 20
26.2672476309
 30
0.0
 10
332.0767491653
 20
26.3457593241
 30
0.0
 10
332.0767491653
 20
26.3457593241
 30
0.0
 10
332.0228378026
 20
26.4143262028
 30
0.0
 10
331.9660476779
 20
26.4834164928
 30
0.0
 10
331.9660476779
 20
26.5771071133
 30
0.0
 10
331.9660476779
 20
26.6959214757
 30
0.0
 10
332.0619627964
 20
26.7733863463
 30
0.0
 10
332.1729259894
 20
26.7733863463
 30
0.0
 10
332.2961893477
 20
26.7733863463
 30
0.0
 10
332.3894874098
 20
26.7022024111
 30
0.0
 10
332.3894874098
 20
26.5718730004
 30
0.0
 10
332.3894874098
 20
26.4368328882
 30
0.0
 10
332.2613824971
 20
26.3604148401
 30
0.0
 10
332.1678227294
 20
26.2866138485
 30
0.0
 10
332.1678227294
 20
26.2866138485
 30
0.0
 10
332.1383808444
 20
26.2672476309
 30
0.0
 10
332.1383808444
 20
26.2672476309
 30
0.0
  0
SPLINE
  5
247
330
228
100
AcDbEntity
  8
0
  6
Continuous
 62
     7
100
AcDbSpline
 70
     3
 71
     3
 72
    50
 73
    46
 74
     0
 42
0.000000001
 43
0.0000001
 40
0.0
 40
0.0
 40
0.0
 40
0.0
 40
1.0
 40
1.0
 40
1.0
 40
2.0
 40
2.0
 40
2.0
 40
3.0
 40
3.0
 40
3.0
 40
4.0
 40
4.0
 40
4.0
 40
5.0
 40
5.0
 40
5.0
 40
6.0
 40
6.0
 40
6.0
 40
7.0
 40
7.0
 40
7.0
 40
8.0
 40
8.0
 40
8.0
 40
9.0
 40
9.0
 40
9.0
 40
10.0
 40
10.0
 40
10.0
 40
11.0
 40
11.0
 40
11.0
 40
12.0
 40
12.0
 40
12.0
 40
13.0
 40
13.0
 40
13.0
 40
14.0
 40
14.0
 40
14.0
 40
15.0
 40
15.0
 40
15.0
 40
15.0
 10
332.8405370871
 20
25.0602612011
 30
0.0
 10
332.8405370871
 20
25.0602612011
 30
0.0
 10
333.1259270918
 20
25.0602612011
 30
0.0
 10
333.1259270918
 20
25.0602612011
 30
0.0
 10
333.1259270918
 20
25.0602612011
 30
0.0
 10
332.793560924
 20
25.471139062
 30
0.0
 10
332.793560924
 20
25.471139062
 30
0.0
 10
332.793560924
 20
25.471139062
 30
0.0
 10
333.0200671588
 20
25.7370319963
 30
0.0
 10
333.0200671588
 20
25.7370319963
 30
0.0
 10
333.0200671588
 20
25.7370319963
 30
0.0
 10
332.8718109116
 20
25.8898680923
 30
0.0
 10
332.8718109116
 20
25.8898680923
 30
0.0
 10
332.8718109116
 20
25.8898680923
 30
0.0
 10
332.6559037553
 20
25.6386306742
 30
0.0
 10
332.6559037553
 20
25.6386306742
 30
0.0
 10
332.6559037553
 20
25.6386306742
 30
0.0
 10
332.2688411079
 20
26.1065603655
 30
0.0
 10
332.2688411079
 20
26.1065603655
 30
0.0
 10
332.4242942604
 20
26.2206640263
 30
0.0
 10
332.6065722414
 20
26.3604148401
 30
0.0
 10
332.6065722414
 20
26.5697793553
 30
0.0
 10
332.6065722414
 20
26.8136890154
 30
0.0
 10
332.4045354843
 20
26.9571037083
 30
0.0
 10
332.1780292495
 20
26.9571037083
 30
0.0
 10
331.9338578837
 20
26.9571037083
 30
0.0
 10
331.7494862575
 20
26.8063612574
 30
0.0
 10
331.7494862575
 20
26.5498897263
 30
0.0
 10
331.7494862575
 20
26.3923429287
 30
0.0
 10
331.8481492853
 20
26.25468576
 30
0.0
 10
331.953485807
 20
26.1437225669
 30
0.0
 10
331.953485807
 20
26.1437225669
 30
0.0
 10
331.8379427652
 20
26.0599767609
 30
0.0
 10
331.8379427652
 20
26.0599767609
 30
0.0
 10
331.660244633
 20
25.9317409954
 30
0.0
 10
331.5129043554
 20
25.8040286411
 30
0.0
 10
331.5129043554
 20
25.5669233277
 30
0.0
 10
331.5129043554
 20
25.2465956195
 30
0.0
 10
331.7714695316
 20
25.0204819432
 30
0.0
 10
332.0818524253
 20
25.0204819432
 30
0.0
 10
332.3007691965
 20
25.0204819432
 30
0.0
 10
332.4979643992
 20
25.145577241
 30
0.0
 10
332.6382386243
 20
25.3114986192
 30
0.0
 10
332.6382386243
 20
25.3114986192
 30
0.0
 10
332.8405370871
 20
25.0602612011
 30
0.0
 10
332.8405370871
 20
25.0602612011
 30
0.0
  0
LWPOLYLINE
  5
248
330
228
100
AcDbEntity
  8
0
  6
Continuous
 62
     7
100
AcDbPolyline
 90
        2
 70
     0
 43
0.2
 10
334.7759811768
 20
26.9168010391
 10
334.5446333876
 20
26.9168010391
  0
LWPOLYLINE
  5
249
330
228
100
AcDbEntity
  8
0
  6
Continuous
 62
     7
100
AcDbPolyline
 90
        2
 70
     0
 43
0.2
 10
334.5446333876
 20
26.9168010391
 10
334.5446333876
 20
25.0597377898
  0
LWPOLYLINE
  5
24A
330
228
100
AcDbEntity
  8
0
  6
Continuous
 62
     7
100
AcDbPolyline
 90
        2
 70
     0
 43
0.2
 10
334.5446333876
 20
25.0597377898
 10
335.3399568395
 20
25.0597377898
  0
LWPOLYLINE
  5
24B
330
228
100
AcDbEntity
  8
0
  6
Continuous
 62
     7
100
AcDbPolyline
 90
        2
 70
     0
 43
0.2
 10
335.3399568395
 20
25.0597377898
 10
335.3399568395
 20
25.2717193614
  0
LWPOLYLINE
  5
24C
330
228
100
AcDbEntity
  8
0
  6
Continuous
 62
     7
100
AcDbPolyline
 90
        2
 70
     0
 43
0.2
 10
335.3399568395
 20
25.2717193614
 10
334.7759811768
 20
25.2717193614
  0
LWPOLYLINE
  5
24D
330
228
100
AcDbEntity
  8
0
  6
Continuous
 62
     7
100
AcDbPolyline
 90
        2
 70
     0
 43
0.2
 10
334.7759811768
 20
25.2717193614
 10
334.7759811768
 20
26.9168010391
  0
LWPOLYLINE
  5
24E
330
228
100
AcDbEntity
  8
0
  6
Continuous
 62
     7
100
AcDbPolyline
 90
        2
 70
     0
 43
0.2
 10
337.019060251
 20
26.2122894457
 10
336.7979189819
 20
26.2122894457
  0
LWPOLYLINE
  5
24F
330
228
100
AcDbEntity
  8
0
  6
Continuous
 62
     7
100
AcDbPolyline
 90
        2
 70
     0
 43
0.2
 10
336.7979189819
 20
26.2122894457
 10
336.7979189819
 20
25.0602612011
  0
LWPOLYLINE
  5
250
330
228
100
AcDbEntity
  8
0
  6
Continuous
 62
     7
100
AcDbPolyline
 90
        2
 70
     0
 43
0.2
 10
336.7979189819
 20
25.0602612011
 10
337.019060251
 20
25.0602612011
  0
LWPOLYLINE
  5
251
330
228
100
AcDbEntity
  8
0
  6
Continuous
 62
     7
100
AcDbPolyline
 90
        2
 70
     0
 43
0.2
 10
337.019060251
 20
25.0602612011
 10
337.019060251
 20
26.2122894457
  0
SPLINE
  5
252
330
228
100
AcDbEntity
  8
0
  6
Continuous
 62
     7
100
AcDbSpline
 70
     3
 71
     3
 72
    17
 73
    13
 74
     0
 42
0.000000001
 43
0.0000001
 40
0.0
 40
0.0
 40
0.0
 40
0.0
 40
1.0
 40
1.0
 40
1.0
 40
2.0
 40
2.0
 40
2.0
 40
3.0
 40
3.0
 40
3.0
 40
4.0
 40
4.0
 40
4.0
 40
4.0
 10
336.9086204693
 20
26.894817765
 30
0.0
 10
336.8246129576
 20
26.894817765
 30
0.0
 10
336.7560460788
 20
26.825727475
 30
0.0
 10
336.7560460788
 20
26.7398880238
 30
0.0
 10
336.7560460788
 20
26.6556188065
 30
0.0
 10
336.8246129576
 20
26.5896689842
 30
0.0
 10
336.9086204693
 20
26.5896689842
 30
0.0
 10
336.9923662753
 20
26.5896689842
 30
0.0
 10
337.0611948597
 20
26.6556188065
 30
0.0
 10
337.0611948597
 20
26.7398880238
 30
0.0
 10
337.0611948597
 20
26.825727475
 30
0.0
 10
336.9923662753
 20
26.894817765
 30
0.0
 10
336.9086204693
 20
26.894817765
 30
0.0
  0
SPLINE
  5
253
330
228
100
AcDbEntity
  8
0
  6
Continuous
 62
     7
100
AcDbSpline
 70
     3
 71
     3
 72
    17
 73
    13
 74
     0
 42
0.000000001
 43
0.0000001
 40
0.0
 40
0.0
 40
0.0
 40
0.0
 40
1.0
 40
1.0
 40
1.0
 40
2.0
 40
2.0
 40
2.0
 40
3.0
 40
3.0
 40
3.0
 40
4.0
 40
4.0
 40
4.0
 40
4.0
 10
339.1493441926
 20
25.2178079987
 30
0.0
 10
338.915379347
 20
25.2178079987
 30
0.0
 10
338.7850499363
 20
25.4198447558
 30
0.0
 10
338.7850499363
 20
25.6360136177
 30
0.0
 10
338.7850499363
 20
25.8506122457
 30
0.0
 10
338.9208751655
 20
26.0495085351
 30
0.0
 10
339.1493441926
 20
26.0495085351
 30
0.0
 10
339.3888048568
 20
26.0495085351
 30
0.0
 10
339.5243683804
 20
25.8605570602
 30
0.0
 10
339.5243683804
 20
25.6360136177
 30
0.0
 10
339.5243683804
 20
25.4098999414
 30
0.0
 10
339.3911602076
 20
25.2178079987
 30
0.0
 10
339.1493441926
 20
25.2178079987
 30
0.0
  0
SPLINE
  5
254
330
228
100
AcDbEntity
  8
0
  6
Continuous
 62
     7
100
AcDbSpline
 70
     3
 71
     3
 72
    50
 73
    46
 74
     0
 42
0.000000001
 43
0.0000001
 40
0.0
 40
0.0
 40
0.0
 40
0.0
 40
1.0
 40
1.0
 40
1.0
 40
2.0
 40
2.0
 40
2.0
 40
3.0
 40
3.0
 40
3.0
 40
4.0
 40
4.0
 40
4.0
 40
5.0
 40
5.0
 40
5.0
 40
6.0
 40
6.0
 40
6.0
 40
7.0
 40
7.0
 40
7.0
 40
8.0
 40
8.0
 40
8.0
 40
9.0
 40
9.0
 40
9.0
 40
10.0
 40
10.0
 40
10.0
 40
11.0
 40
11.0
 40
11.0
 40
12.0
 40
12.0
 40
12.0
 40
13.0
 40
13.0
 40
13.0
 40
14.0
 40
14.0
 40
14.0
 40
15.0
 40
15.0
 40
15.0
 40
15.0
 10
339.7334711899
 20
26.2128128569
 30
0.0
 10
339.7334711899
 20
26.2128128569
 30
0.0
 10
339.5118065095
 20
26.2128128569
 30
0.0
 10
339.5118065095
 20
26.2128128569
 30
0.0
 10
339.5118065095
 20
26.2128128569
 30
0.0
 10
339.5118065095
 20
26.0154868014
 30
0.0
 10
339.5118065095
 20
26.0154868014
 30
0.0
 10
339.5118065095
 20
26.0154868014
 30
0.0
 10
339.5070958079
 20
26.0154868014
 30
0.0
 10
339.5070958079
 20
26.0154868014
 30
0.0
 10
339.4157605382
 20
26.158378083
 30
0.0
 10
339.2778416638
 20
26.2468345907
 30
0.0
 10
339.1051159388
 20
26.2468345907
 30
0.0
 10
338.772749771
 20
26.2468345907
 30
0.0
 10
338.5636469615
 20
25.9589583823
 30
0.0
 10
338.5636469615
 20
25.6433413757
 30
0.0
 10
338.5636469615
 20
25.3135922644
 30
0.0
 10
338.7607113114
 20
25.0204819432
 30
0.0
 10
339.1155841646
 20
25.0204819432
 30
0.0
 10
339.2778416638
 20
25.0204819432
 30
0.0
 10
339.4178541833
 20
25.1089384508
 30
0.0
 10
339.5070958079
 20
25.2397912728
 30
0.0
 10
339.5070958079
 20
25.2397912728
 30
0.0
 10
339.5118065095
 20
25.2397912728
 30
0.0
 10
339.5118065095
 20
25.2397912728
 30
0.0
 10
339.5118065095
 20
25.2397912728
 30
0.0
 10
339.5118065095
 20
25.0204819432
 30
0.0
 10
339.5118065095
 20
25.0204819432
 30
0.0
 10
339.5118065095
 20
24.7839000411
 30
0.0
 10
339.4552780904
 20
24.5970422113
 30
0.0
 10
339.1820573981
 20
24.5970422113
 30
0.0
 10
338.9797589354
 20
24.5970422113
 30
0.0
 10
338.8371293594
 20
24.7153331624
 30
0.0
 10
338.8371293594
 20
24.9215572098
 30
0.0
 10
338.8371293594
 20
24.9215572098
 30
0.0
 10
338.615464679
 20
24.9215572098
 30
0.0
 10
338.615464679
 20
24.9215572098
 30
0.0
 10
338.6204370862
 20
24.5970422113
 30
0.0
 10
338.8515231698
 20
24.4002395671
 30
0.0
 10
339.171850878
 20
24.4002395671
 30
0.0
 10
339.6198909404
 20
24.4002395671
 30
0.0
 10
339.7334711899
 20
24.6854987189
 30
0.0
 10
339.7334711899
 20
25.0822444751
 30
0.0
 10
339.7334711899
 20
25.0822444751
 30
0.0
 10
339.7334711899
 20
26.2128128569
 30
0.0
 10
339.7334711899
 20
26.2128128569
 30
0.0
  0
SPLINE
  5
255
330
228
100
AcDbEntity
  8
0
  6
Continuous
 62
     7
100
AcDbSpline
 70
     3
 71
     3
 72
    44
 73
    40
 74
     0
 42
0.000000001
 43
0.0000001
 40
0.0
 40
0.0
 40
0.0
 40
0.0
 40
1.0
 40
1.0
 40
1.0
 40
2.0
 40
2.0
 40
2.0
 40
3.0
 40
3.0
 40
3.0
 40
4.0
 40
4.0
 40
4.0
 40
5.0
 40
5.0
 40
5.0
 40
6.0
 40
6.0
 40
6.0
 40
7.0
 40
7.0
 40
7.0
 40
8.0
 40
8.0
 40
8.0
 40
9.0
 40
9.0
 40
9.0
 40
10.0
 40
10.0
 40
10.0
 40
11.0
 40
11.0
 40
11.0
 40
12.0
 40
12.0
 40
12.0
 40
13.0
 40
13.0
 40
13.0
 40
13.0
 10
341.3023965253
 20
27.1978729007
 30
0.0
 10
341.3023965253
 20
27.1978729007
 30
0.0
 10
341.3023965253
 20
25.0597377898
 30
0.0
 10
341.3023965253
 20
25.0597377898
 30
0.0
 10
341.3023965253
 20
25.0597377898
 30
0.0
 10
341.5237995001
 20
25.0597377898
 30
0.0
 10
341.5237995001
 20
25.0597377898
 30
0.0
 10
341.5237995001
 20
25.0597377898
 30
0.0
 10
341.5237995001
 20
25.5894300131
 30
0.0
 10
341.5237995001
 20
25.5894300131
 30
0.0
 10
341.5237995001
 20
25.7993179395
 30
0.0
 10
341.5237995001
 20
26.0500319464
 30
0.0
 10
341.8090586519
 20
26.0500319464
 30
0.0
 10
342.0359574452
 20
26.0500319464
 30
0.0
 10
342.0629131266
 20
25.9170854793
 30
0.0
 10
342.0629131266
 20
25.7208062464
 30
0.0
 10
342.0629131266
 20
25.7208062464
 30
0.0
 10
342.0629131266
 20
25.0597377898
 30
0.0
 10
342.0629131266
 20
25.0597377898
 30
0.0
 10
342.0629131266
 20
25.0597377898
 30
0.0
 10
342.2848395126
 20
25.0597377898
 30
0.0
 10
342.2848395126
 20
25.0597377898
 30
0.0
 10
342.2848395126
 20
25.0597377898
 30
0.0
 10
342.2848395126
 20
25.7469768107
 30
0.0
 10
342.2848395126
 20
25.7469768107
 30
0.0
 10
342.2848395126
 20
26.027525261
 30
0.0
 10
342.2008320009
 20
26.2473580019
 30
0.0
 10
341.8757935911
 20
26.2473580019
 30
0.0
 10
341.7360427773
 20
26.2473580019
 30
0.0
 10
341.5978621973
 20
26.1808847684
 30
0.0
 10
341.5285102016
 20
26.0578831157
 30
0.0
 10
341.5285102016
 20
26.0578831157
 30
0.0
 10
341.5237995001
 20
26.0578831157
 30
0.0
 10
341.5237995001
 20
26.0578831157
 30
0.0
 10
341.5237995001
 20
26.0578831157
 30
0.0
 10
341.5237995001
 20
27.1978729007
 30
0.0
 10
341.5237995001
 20
27.1978729007
 30
0.0
 10
341.5237995001
 20
27.1978729007
 30
0.0
 10
341.3023965253
 20
27.1978729007
 30
0.0
 10
341.3023965253
 20
27.1978729007
 30
0.0
  0
LWPOLYLINE
  5
256
330
228
100
AcDbEntity
  8
0
  6
Continuous
 62
     7
100
AcDbPolyline
 90
        2
 70
     0
 43
0.2
 10
344.1246301895
 20
26.005541987
 10
344.341060757
 20
26.005541987
  0
LWPOLYLINE
  5
257
330
228
100
AcDbEntity
  8
0
  6
Continuous
 62
     7
100
AcDbPolyline
 90
        2
 70
     0
 43
0.2
 10
344.341060757
 20
26.005541987
 10
344.341060757
 20
26.2122894457
  0
LWPOLYLINE
  5
258
330
228
100
AcDbEntity
  8
0
  6
Continuous
 62
     7
100
AcDbPolyline
 90
        2
 70
     0
 43
0.2
 10
344.341060757
 20
26.2122894457
 10
344.1246301895
 20
26.2122894457
  0
LWPOLYLINE
  5
259
330
228
100
AcDbEntity
  8
0
  6
Continuous
 62
     7
100
AcDbPolyline
 90
        2
 70
     0
 43
0.2
 10
344.1246301895
 20
26.2122894457
 10
344.1246301895
 20
26.65300175
  0
LWPOLYLINE
  5
25A
330
228
100
AcDbEntity
  8
0
  6
Continuous
 62
     7
100
AcDbPolyline
 90
        2
 70
     0
 43
0.2
 10
344.1246301895
 20
26.65300175
 10
343.9029655091
 20
26.65300175
  0
LWPOLYLINE
  5
25B
330
228
100
AcDbEntity
  8
0
  6
Continuous
 62
     7
100
AcDbPolyline
 90
        2
 70
     0
 43
0.2
 10
343.9029655091
 20
26.65300175
 10
343.9029655091
 20
26.2122894457
  0
LWPOLYLINE
  5
25C
330
228
100
AcDbEntity
  8
0
  6
Continuous
 62
     7
100
AcDbPolyline
 90
        2
 70
     0
 43
0.2
 10
343.9029655091
 20
26.2122894457
 10
343.7823192072
 20
26.2122894457
  0
LWPOLYLINE
  5
25D
330
228
100
AcDbEntity
  8
0
  6
Continuous
 62
     7
100
AcDbPolyline
 90
        2
 70
     0
 43
0.2
 10
343.7823192072
 20
26.2122894457
 10
343.7823192072
 20
26.005541987
  0
LWPOLYLINE
  5
25E
330
228
100
AcDbEntity
  8
0
  6
Continuous
 62
     7
100
AcDbPolyline
 90
        2
 70
     0
 43
0.2
 10
343.7823192072
 20
26.005541987
 10
343.9029655091
 20
26.005541987
  0
LWPOLYLINE
  5
25F
330
228
100
AcDbEntity
  8
0
  6
Continuous
 62
     7
100
AcDbPolyline
 90
        2
 70
     0
 43
0.2
 10
343.9029655091
 20
26.005541987
 10
343.9029655091
 20
25.0597377898
  0
LWPOLYLINE
  5
260
330
228
100
AcDbEntity
  8
0
  6
Continuous
 62
     7
100
AcDbPolyline
 90
        2
 70
     0
 43
0.2
 10
343.9029655091
 20
25.0597377898
 10
344.1246301895
 20
25.0597377898
  0
LWPOLYLINE
  5
261
330
228
100
AcDbEntity
  8
0
  6
Continuous
 62
     7
100
AcDbPolyline
 90
        2
 70
     0
 43
0.2
 10
344.1246301895
 20
25.0597377898
 10
344.1246301895
 20
26.005541987
  0
SPLINE
  5
262
330
228
100
AcDbEntity
  8
0
  6
Continuous
 62
     7
100
AcDbSpline
 70
     3
 71
     3
 72
    20
 73
    16
 74
     0
 42
0.000000001
 43
0.0000001
 40
0.0
 40
0.0
 40
0.0
 40
0.0
 40
1.0
 40
1.0
 40
1.0
 40
2.0
 40
2.0
 40
2.0
 40
3.0
 40
3.0
 40
3.0
 40
4.0
 40
4.0
 40
4.0
 40
5.0
 40
5.0
 40
5.0
 40
5.0
 10
331.9066404967
 20
35.4206642332
 30
0.0
 10
331.9066404967
 20
35.4206642332
 30
0.0
 10
334.2229971512
 20
32.5911028109
 30
0.0
 10
334.2229971512
 20
32.5911028109
 30
0.0
 10
333.5713500978
 20
31.9389323462
 30
0.0
 10
332.7944768938
 20
31.2030160755
 30
0.0
 10
331.8232872491
 20
31.2030160755
 30
0.0
 10
330.8247493647
 20
31.2030160755
 30
0.0
 10
329.8814313711
 20
32.1325945228
 30
0.0
 10
329.8814313711
 20
33.1317866713
 30
0.0
 10
329.8814313711
 20
34.1309788198
 30
0.0
 10
331.0602844442
 20
34.8375840585
 30
0.0
 10
331.7818069046
 20
35.3374418384
 30
0.0
 10
331.7818069046
 20
35.3374418384
 30
0.0
 10
331.9066404967
 20
35.4206642332
 30
0.0
 10
331.9066404967
 20
35.4206642332
 30
0.0
  0
SPLINE
  5
263
330
228
100
AcDbEntity
  8
0
  6
Continuous
 62
     7
100
AcDbSpline
 70
     3
 71
     3
 72
    23
 73
    19
 74
     0
 42
0.000000001
 43
0.0000001
 40
0.0
 40
0.0
 40
0.0
 40
0.0
 40
1.0
 40
1.0
 40
1.0
 40
2.0
 40
2.0
 40
2.0
 40
3.0
 40
3.0
 40
3.0
 40
4.0
 40
4.0
 40
4.0
 40
5.0
 40
5.0
 40
5.0
 40
6.0
 40
6.0
 40
6.0
 40
6.0
 10
332.1840484793
 20
37.0584181529
 30
0.0
 10
332.1840484793
 20
37.0584181529
 30
0.0
 10
331.8375502067
 20
37.5017475137
 30
0.0
 10
331.8375502067
 20
37.5017475137
 30
0.0
 10
331.5317471618
 20
37.8898569837
 30
0.0
 10
331.2128588347
 20
38.2783590121
 30
0.0
 10
331.2128588347
 20
38.8053033262
 30
0.0
 10
331.2128588347
 20
39.4714750428
 30
0.0
 10
331.7541969591
 20
39.9151969621
 30
0.0
 10
332.3781032143
 20
39.9151969621
 30
0.0
 10
333.0718848763
 20
39.9151969621
 30
0.0
 10
333.5990908961
 20
39.5129553874
 30
0.0
 10
333.5990908961
 20
38.7779550864
 30
0.0
 10
333.5990908961
 20
38.0146905758
 30
0.0
 10
332.8778301414
 20
37.58457735
 30
0.0
 10
332.3507549745
 20
37.1688579346
 30
0.0
 10
332.3507549745
 20
37.1688579346
 30
0.0
 10
332.1840484793
 20
37.0584181529
 30
0.0
 10
332.1840484793
 20
37.0584181529
 30
0.0
  0
SPLINE
  5
264
330
228
100
AcDbEntity
  8
0
  6
Continuous
 62
     7
100
AcDbSpline
 70
     3
 71
     3
 72
    50
 73
    46
 74
     0
 42
0.000000001
 43
0.0000001
 40
0.0
 40
0.0
 40
0.0
 40
0.0
 40
1.0
 40
1.0
 40
1.0
 40
2.0
 40
2.0
 40
2.0
 40
3.0
 40
3.0
 40
3.0
 40
4.0
 40
4.0
 40
4.0
 40
5.0
 40
5.0
 40
5.0
 40
6.0
 40
6.0
 40
6.0
 40
7.0
 40
7.0
 40
7.0
 40
8.0
 40
8.0
 40
8.0
 40
9.0
 40
9.0
 40
9.0
 40
10.0
 40
10.0
 40
10.0
 40
11.0
 40
11.0
 40
11.0
 40
12.0
 40
12.0
 40
12.0
 40
13.0
 40
13.0
 40
13.0
 40
14.0
 40
14.0
 40
14.0
 40
15.0
 40
15.0
 40
15.0
 40
15.0
 10
336.1376356422
 20
30.2598289348
 30
0.0
 10
336.1376356422
 20
30.2598289348
 30
0.0
 10
337.7468636468
 20
30.2598289348
 30
0.0
 10
337.7468636468
 20
30.2598289348
 30
0.0
 10
337.7468636468
 20
30.2598289348
 30
0.0
 10
335.8738363531
 20
32.5769707062
 30
0.0
 10
335.8738363531
 20
32.5769707062
 30
0.0
 10
335.8738363531
 20
32.5769707062
 30
0.0
 10
337.1501747786
 20
34.0744504008
 30
0.0
 10
337.1501747786
 20
34.0744504008
 30
0.0
 10
337.1501747786
 20
34.0744504008
 30
0.0
 10
336.3179508309
 20
34.9354619693
 30
0.0
 10
336.3179508309
 20
34.9354619693
 30
0.0
 10
336.3179508309
 20
34.9354619693
 30
0.0
 10
335.0973557076
 20
33.5201578469
 30
0.0
 10
335.0973557076
 20
33.5201578469
 30
0.0
 10
335.0973557076
 20
33.5201578469
 30
0.0
 10
332.9194413388
 20
36.1555336813
 30
0.0
 10
332.9194413388
 20
36.1555336813
 30
0.0
 10
333.7930147782
 20
36.7935720412
 30
0.0
 10
334.8196860194
 20
37.58457735
 30
0.0
 10
334.8196860194
 20
38.7634304231
 30
0.0
 10
334.8196860194
 20
40.1371233482
 30
0.0
 10
333.6817898795
 20
40.9416064976
 30
0.0
 10
332.4064982766
 20
40.9416064976
 30
0.0
 10
331.0330670573
 20
40.9416064976
 30
0.0
 10
329.9921328585
 20
40.0953812979
 30
0.0
 10
329.9921328585
 20
38.6527289358
 30
0.0
 10
329.9921328585
 20
37.7651542444
 30
0.0
 10
330.547472235
 20
36.9882810403
 30
0.0
 10
331.1436376918
 20
36.3638513739
 30
0.0
 10
331.1436376918
 20
36.3638513739
 30
0.0
 10
330.4917289328
 20
35.8922578035
 30
0.0
 10
330.4917289328
 20
35.8922578035
 30
0.0
 10
329.4931910484
 20
35.1709970488
 30
0.0
 10
328.6603128365
 20
34.4497362942
 30
0.0
 10
328.6603128365
 20
33.1181779778
 30
0.0
 10
328.6603128365
 20
31.3145026798
 30
0.0
 10
330.1173590091
 20
30.0379025487
 30
0.0
 10
331.8648984465
 20
30.0379025487
 30
0.0
 10
333.0997565274
 20
30.0379025487
 30
0.0
 10
334.2091267521
 20
30.7460780212
 30
0.0
 10
335.000001208
 20
31.6746096459
 30
0.0
 10
335.000001208
 20
31.6746096459
 30
0.0
 10
336.1376356422
 20
30.2598289348
 30
0.0
 10
336.1376356422
 20
30.2598289348
 30
0.0
  0
LINE
  5
265
330
228
100
AcDbEntity
  8
0
  6
Continuous
 62
     7
100
AcDbLine
 10
321.9404970172
 20
28.2337038394
 30
0.0
 11
344.3544077449
 21
28.2337038394
 31
0.0
  0
LINE
  5
266
330
228
100
AcDbEntity
  8
0
  6
Continuous
 62
     7
100
AcDbLine
 10
344.3544077449
 20
28.2337038394
 30
0.0
 11
344.3544077449
 21
50.6476145671
 31
0.0
  0
LINE
  5
267
330
228
100
AcDbEntity
  8
0
  6
Continuous
 62
     7
100
AcDbLine
 10
344.3544077449
 20
50.6476145671
 30
0.0
 11
321.9404970172
 21
50.6476145671
 31
0.0
  0
LINE
  5
268
330
228
100
AcDbEntity
  8
0
  6
Continuous
 62
     7
100
AcDbLine
 10
321.9404970172
 20
50.6476145671
 30
0.0
 11
321.9404970172
 21
28.2337038394
 31
0.0
  0
ENDBLK
  5
269
330
228
100
AcDbEntity
  8
0
  6
ByBlock
 62
     0
100
AcDbBlockEnd
  0
BLOCK
  5
290
330
229
100
AcDbEntity
  8
0
100
AcDbBlockBegin
  2
*T6
 70
     1
 10
0.0
 20
0.0
 30
0.0
  3
*T6
  1

  0
LINE
  5
291
330
229
100
AcDbEntity
  8
0
  6
Continuous
 62
     2
100
AcDbLine
 10
0.0
 20
0.0
 30
0.0
 11
90.0
 21
0.0
 31
0.0
  0
LINE
  5
292
330
229
100
AcDbEntity
  8
0
  6
Continuous
 62
     2
100
AcDbLine
 10
0.0
 20
0.0
 30
0.0
 11
0.0
 21
-40.0
 31
0.0
  0
LINE
  5
293
330
229
100
AcDbEntity
  8
0
  6
Continuous
 62
     2
100
AcDbLine
 10
30.0
 20
-6.0
 30
0.0
 11
90.0
 21
-6.0
 31
0.0
  0
LINE
  5
294
330
229
100
AcDbEntity
  8
0
  6
Continuous
 62
     2
100
AcDbLine
 10
30.0
 20
-12.0
 30
0.0
 11
90.0
 21
-12.0
 31
0.0
  0
LINE
  5
295
330
229
100
AcDbEntity
  8
0
  6
Continuous
 62
     2
100
AcDbLine
 10
30.0
 20
-22.0
 30
0.0
 11
90.0
 21
-22.0
 31
0.0
  0
LINE
  5
296
330
229
100
AcDbEntity
  8
0
  6
Continuous
 62
     2
100
AcDbLine
 10
0.0
 20
-27.0
 30
0.0
 11
90.0
 21
-27.0
 31
0.0
  0
LINE
  5
297
330
229
100
AcDbEntity
  8
0
  6
Continuous
 62
     2
100
AcDbLine
 10
0.0
 20
-40.0
 30
0.0
 11
90.0
 21
-40.0
 31
0.0
  0
LINE
  5
298
330
229
100
AcDbEntity
  8
0
  6
Continuous
 62
     2
100
AcDbLine
 10
30.0
 20
0.0
 30
0.0
 11
30.0
 21
-27.0
 31
0.0
  0
LINE
  5
299
330
229
100
AcDbEntity
  8
0
  6
Continuous
 62
     2
100
AcDbLine
 10
70.0
 20
0.0
 30
0.0
 11
70.0
 21
-12.0
 31
0.0
  0
LINE
  5
29A
330
229
100
AcDbEntity
  8
0
  6
Continuous
 62
     2
100
AcDbLine
 10
90.0
 20
0.0
 30
0.0
 11
90.0
 21
-40.0
 31
0.0
  0
ENDBLK
  5
29B
330
229
100
AcDbEntity
  8
0
100
AcDbBlockEnd
  0
ENDSEC
  0
SECTION
  2
ENTITIES
  0
INSERT
  5
2A0
330
221
100
AcDbEntity
  8
0
  6
Continuous
 62
     2
100
AcDbBlockReference
  2
LOGO2_BL0
 10
333.1473869546
 20
37.5239270671
 30
0.0
  0
LWPOLYLINE
  5
2A1
330
221
100
AcDbEntity
  8
0
  6
Continuous
 62
     2
100
AcDbPolyline
 90
        6
 70
     0
 43
0.0
 10
350.8088452148
 20
46.5239282227
 10
351.8802758789
 20
46.5239282227
 10
352.0945568848
 20
46.7382156372
 10
352.0945568848
 20
47.8096398926
 10
351.665994873
 20
48.2382147217
 10
351.2374072266
 20
48.2382147217
  0
LWPOLYLINE
  5
2A2
330
221
100
AcDbEntity
  8
0
  6
Continuous
 62
     2
100
AcDbPolyline
 90
        5
 70
     0
 43
0.0
 10
351.665994873
 20
48.2382147217
 10
352.0231384277
 20
48.4524957275
 10
352.0231384277
 20
49.0953579712
 10
351.665994873
 20
49.5239263916
 10
350.8088452148
 20
49.5239263916
  0
LINE
  5
2A3
330
221
100
AcDbEntity
  8
0
  6
Continuous
 62
     2
100
AcDbLine
 10
352.951706543
 20
46.5239282227
 30
0.0
 11
352.951706543
 21
49.5239263916
 31
0.0
  0
LINE
  5
2A4
330
221
100
AcDbEntity
  8
0
  6
Continuous
 62
     2
100
AcDbLine
 10
354.4516992187
 20
49.5239263916
 30
0.0
 11
354.4516992187
 21
46.5239282227
 31
0.0
  0
LINE
  5
2A5
330
221
100
AcDbEntity
  8
0
  6
Continuous
 62
     2
100
AcDbLine
 10
352.951706543
 20
48.2382147217
 30
0.0
 11
354.4516992187
 21
48.2382147217
 31
0.0
  0
LWPOLYLINE
  5
2A6
330
221
100
AcDbEntity
  8
0
  6
Continuous
 62
     2
100
AcDbPolyline
 90
       10
 70
     0
 43
0.0
 10
356.380279541
 20
49.5239263916
 10
355.7374108887
 20
48.8810705566
 10
355.308848877
 20
48.0239273071
 10
355.308848877
 20
46.9524966431
 10
355.7374108887
 20
46.5239282227
 10
356.380279541
 20
46.5239282227
 10
356.8088415527
 20
46.9524966431
 10
356.8088415527
 20
47.8096398926
 10
356.380279541
 20
48.2382147217
 10
355.451685791
 20
48.2382147217
  0
LINE
  5
2A7
330
221
100
AcDbEntity
  8
0
  6
Continuous
 62
     2
100
AcDbLine
 10
357.6659912109
 20
46.5239282227
 30
0.0
 11
359.3802648926
 21
46.5239282227
 31
0.0
  0
LWPOLYLINE
  5
2A8
330
221
100
AcDbEntity
  8
0
  6
Continuous
 62
     2
100
AcDbPolyline
 90
        6
 70
     0
 43
0.0
 10
361.3088452148
 20
46.5239282227
 10
360.4516955566
 20
46.5239282227
 10
360.0231335449
 20
46.9524966431
 10
360.0231335449
 20
49.0953579712
 10
360.4516955566
 20
49.5239263916
 10
361.3088452148
 20
49.5239263916
  0
LINE
  5
2A9
330
221
100
AcDbEntity
  8
0
  6
Continuous
 62
     2
100
AcDbLine
 10
362.5231384277
 20
46.5239282227
 30
0.0
 11
364.2374121094
 21
46.5239282227
 31
0.0
  0
LWPOLYLINE
  5
2AA
330
221
100
AcDbEntity
  8
0
  6
Continuous
 62
     2
100
AcDbPolyline
 90
       13
 70
     0
 43
0.0
 10
364.8802807617
 20
47.3810714722
 10
364.8802807617
 20
48.6667831421
 10
365.0945617676
 20
49.0953579712
 10
365.5231237793
 20
49.5239263916
 10
365.7374047852
 20
49.5239263916
 10
366.1659924316
 20
49.0953579712
 10
366.3802734375
 20
48.6667831421
 10
366.3802734375
 20
47.3810714722
 10
366.1659924316
 20
46.9524966431
 10
365.7374047852
 20
46.5239282227
 10
365.5231237793
 20
46.5239282227
 10
365.0945617676
 20
46.9524966431
 10
364.8802807617
 20
47.3810714722
  0
LWPOLYLINE
  5
2AB
330
221
100
AcDbEntity
  8
0
  6
Continuous
 62
     2
100
AcDbPolyline
 90
        6
 70
     0
 43
0.0
 10
367.2374230957
 20
46.5239282227
 10
368.308828125
 20
46.5239282227
 10
368.5231347656
 20
46.7382156372
 10
368.5231347656
 20
47.8096398926
 10
368.0945471191
 20
48.2382147217
 10
367.6659851074
 20
48.2382147217
  0
LWPOLYLINE
  5
2AC
330
221
100
AcDbEntity
  8
0
  6
Continuous
 62
     2
100
AcDbPolyline
 90
        5
 70
     0
 43
0.0
 10
368.0945471191
 20
48.2382147217
 10
368.4516906738
 20
48.4524957275
 10
368.4516906738
 20
49.0953579712
 10
368.0945471191
 20
49.5239263916
 10
367.2374230957
 20
49.5239263916
  0
LWPOLYLINE
  5
2AD
330
221
100
AcDbEntity
  8
0
  6
Continuous
 62
     2
100
AcDbPolyline
 90
       13
 70
     0
 43
0.0
 10
369.3802587891
 20
47.3810714722
 10
369.3802587891
 20
48.6667831421
 10
369.5945654297
 20
49.0953579712
 10
370.0231274414
 20
49.5239263916
 10
370.2374084473
 20
49.5239263916
 10
370.665970459
 20
49.0953579712
 10
370.8802770996
 20
48.6667831421
 10
370.8802770996
 20
47.3810714722
 10
370.665970459
 20
46.9524966431
 10
370.2374084473
 20
46.5239282227
 10
370.0231274414
 20
46.5239282227
 10
369.5945654297
 20
46.9524966431
 10
369.3802587891
 20
47.3810714722
  0
LWPOLYLINE
  5
2AE
330
221
100
AcDbEntity
  8
0
  6
Continuous
 62
     2
100
AcDbPolyline
 90
        9
 70
     0
 43
0.0
 10
391.5525878906
 20
45.7739254761
 10
391.5525878906
 20
49.2739297485
 10
392.4822839355
 20
49.2739297485
 10
392.8541418457
 20
48.9822573853
 10
393.0400964355
 20
48.6905914307
 10
393.0400964355
 20
48.1072595215
 10
392.8541418457
 20
47.8155935669
 10
392.4822839355
 20
47.5239276123
 10
391.5525878906
 20
47.5239276123
  0
LINE
  5
2AF
330
221
100
AcDbEntity
  8
0
  6
Continuous
 62
     2
100
AcDbLine
 10
392.4822839355
 20
47.5239276123
 30
0.0
 11
393.0400964355
 21
45.7739254761
 31
0.0
  0
LWPOLYLINE
  5
2B0
330
221
100
AcDbEntity
  8
0
  6
Continuous
 62
     2
100
AcDbPolyline
 90
       11
 70
     0
 43
0.0
 10
395.8291589355
 20
46.3572573853
 10
395.6432043457
 20
46.0655914307
 10
395.2713464355
 20
45.7739254761
 10
394.8994628906
 20
46.0655914307
 10
394.5275793457
 20
46.6489297485
 10
394.5275793457
 20
47.2322616577
 10
394.8994628906
 20
47.8155935669
 10
395.2713464355
 20
48.1072595215
 10
395.6432043457
 20
47.8155935669
 10
395.8291589355
 20
47.2322616577
 10
394.5275793457
 20
47.2322616577
  0
LWPOLYLINE
  5
2B1
330
221
100
AcDbEntity
  8
0
  6
Continuous
 62
     2
100
AcDbPolyline
 90
        3
 70
     0
 43
0.0
 10
397.6885253906
 20
48.1072595215
 10
398.2463378906
 20
45.7739254761
 10
398.8041503906
 20
48.1072595215
  0
LWPOLYLINE
  5
2B2
330
221
100
AcDbEntity
  8
0
  6
Continuous
 62
     2
100
AcDbPolyline
 90
        4
 70
     0
 43
0.0
 10
401.2213293457
 20
45.7739254761
 10
401.0354003906
 20
45.7739254761
 10
401.0354003906
 20
46.0655914307
 10
401.2213293457
 20
45.7739254761
  0
LWPOLYLINE
  5
2B3
330
221
100
AcDbEntity
  8
0
  6
Continuous
 62
     2
100
AcDbPolyline
 90
        4
 70
     0
 43
0.0
 10
401.2213293457
 20
48.1072595215
 10
401.2213293457
 20
47.8155935669
 10
401.0354003906
 20
48.1072595215
 10
401.2213293457
 20
48.1072595215
  0
LWPOLYLINE
  5
2B4
330
221
100
AcDbEntity
  8
0
  6
Continuous
 62
     2
100
AcDbPolyline
 90
       15
 70
     0
 43
0.0
 10
404.1963464355
 20
45.7739254761
 10
403.8244628906
 20
46.0655914307
 10
403.6385339355
 20
46.3572573853
 10
403.4525793457
 20
46.9405957031
 10
403.4525793457
 20
48.1072595215
 10
403.6385339355
 20
48.6905914307
 10
403.8244628906
 20
48.9822573853
 10
404.1963464355
 20
49.2739297485
 10
404.5682043457
 20
48.9822573853
 10
404.7541589355
 20
48.6905914307
 10
404.9400878906
 20
48.1072595215
 10
404.9400878906
 20
46.9405957031
 10
404.7541589355
 20
46.3572573853
 10
404.5682043457
 20
46.0655914307
 10
404.1963464355
 20
45.7739254761
  0
LWPOLYLINE
  5
2B5
330
221
100
AcDbEntity
  8
0
  6
Continuous
 62
     2
100
AcDbPolyline
 90
       15
 70
     0
 43
0.0
 10
407.1713378906
 20
45.7739254761
 10
406.7994543457
 20
46.0655914307
 10
406.6135253906
 20
46.3572573853
 10
406.4275964355
 20
46.9405957031
 10
406.4275964355
 20
48.1072595215
 10
406.6135253906
 20
48.6905914307
 10
406.7994543457
 20
48.9822573853
 10
407.1713378906
 20
49.2739297485
 10
407.5432214355
 20
48.9822573853
 10
407.7291503906
 20
48.6905914307
 10
407.9150793457
 20
48.1072595215
 10
407.9150793457
 20
46.9405957031
 10
407.7291503906
 20
46.3572573853
 10
407.5432214355
 20
46.0655914307
 10
407.1713378906
 20
45.7739254761
  0
LWPOLYLINE
  5
2B6
330
221
100
AcDbEntity
  8
0
  6
Continuous
 62
     2
100
AcDbPolyline
 90
       10
 70
     0
 43
0.0
 10
350.8088452148
 20
40.0239257812
 10
351.0588354492
 20
39.7739291382
 10
352.0588476563
 20
39.7739291382
 10
352.558828125
 20
40.273928833
 10
352.558828125
 20
40.7739285278
 10
350.8088452148
 20
42.2739276123
 10
350.8088452148
 20
42.7739273071
 10
351.3088513184
 20
43.273927002
 10
352.3088378906
 20
43.273927002
 10
352.558828125
 20
43.0239239502
  0
LWPOLYLINE
  5
2B7
330
221
100
AcDbEntity
  8
0
  6
Continuous
 62
     2
100
AcDbPolyline
 90
        6
 70
     0
 43
0.0
 10
354.8088427734
 20
39.7739291382
 10
353.8088305664
 20
39.7739291382
 10
353.558840332
 20
40.0239257812
 10
353.558840332
 20
42.0239245605
 10
353.8088305664
 20
42.2739276123
 10
354.8088427734
 20
42.2739276123
  0
LWPOLYLINE
  5
2B8
330
221
100
AcDbEntity
  8
0
  6
Continuous
 62
     2
100
AcDbPolyline
 90
        4
 70
     0
 43
0.0
 10
357.3088476563
 20
39.7739291382
 10
357.3088476563
 20
41.7739279175
 10
357.0588317871
 20
42.2739276123
 10
355.8088293457
 20
42.2739276123
  0
LWPOLYLINE
  5
2B9
330
221
100
AcDbEntity
  8
0
  6
Continuous
 62
     2
100
AcDbPolyline
 90
        6
 70
     0
 43
0.0
 10
357.3088476563
 20
39.7739291382
 10
356.3088354492
 20
39.7739291382
 10
355.8088293457
 20
40.0239257812
 10
355.8088293457
 20
40.7739285278
 10
356.3088354492
 20
41.0239251709
 10
357.3088476563
 20
41.0239251709
  0
LWPOLYLINE
  5
2BA
330
221
100
AcDbEntity
  8
0
  6
Continuous
 62
     2
100
AcDbPolyline
 90
        4
 70
     0
 43
0.0
 10
359.0588305664
 20
39.7739291382
 10
358.5588500977
 20
39.7739291382
 10
358.3088342285
 20
40.0239257812
 10
358.3088342285
 20
43.273927002
  0
LWPOLYLINE
  5
2BB
330
221
100
AcDbEntity
  8
0
  6
Continuous
 62
     2
100
AcDbPolyline
 90
        9
 70
     0
 43
0.0
 10
361.5588354492
 20
39.7739291382
 10
360.558848877
 20
39.7739291382
 10
360.0588427734
 20
40.273928833
 10
360.0588427734
 20
41.7739279175
 10
360.558848877
 20
42.2739276123
 10
361.0588293457
 20
42.2739276123
 10
361.5588354492
 20
41.7739279175
 10
361.5588354492
 20
41.0239251709
 10
360.0588427734
 20
41.0239251709
  0
LWPOLYLINE
  5
2BC
330
221
100
AcDbEntity
  8
0
  6
Continuous
 62
     2
100
AcDbPolyline
 90
        4
 70
     0
 43
0.0
 10
362.5588476563
 20
39.7739291382
 10
362.5588476563
 20
40.0239257812
 10
362.7254992676
 20
40.0239257812
 10
362.5588476563
 20
39.7739291382
  0
LWPOLYLINE
  5
2BD
330
221
100
AcDbEntity
  8
0
  6
Continuous
 62
     2
100
AcDbPolyline
 90
        4
 70
     0
 43
0.0
 10
362.5588476563
 20
41.2739282227
 10
362.5588476563
 20
41.5239248657
 10
362.7254992676
 20
41.5239248657
 10
362.5588476563
 20
41.2739282227
  0
LWPOLYLINE
  5
2BE
330
221
100
AcDbEntity
  8
0
  6
Continuous
 62
     2
100
AcDbPolyline
 90
        3
 70
     0
 43
0.0
 10
363.8088500977
 20
42.2739276123
 10
364.8088366699
 20
43.273927002
 10
364.8088366699
 20
39.7739291382
  0
LWPOLYLINE
  5
2BF
330
221
100
AcDbEntity
  8
0
  6
Continuous
 62
     2
100
AcDbPolyline
 90
        4
 70
     0
 43
0.0
 10
365.808848877
 20
39.7739291382
 10
365.808848877
 20
40.0239257812
 10
365.9755004883
 20
40.0239257812
 10
365.808848877
 20
39.7739291382
  0
LWPOLYLINE
  5
2C0
330
221
100
AcDbEntity
  8
0
  6
Continuous
 62
     2
100
AcDbPolyline
 90
        4
 70
     0
 43
0.0
 10
365.808848877
 20
41.2739282227
 10
365.808848877
 20
41.5239248657
 10
365.9755004883
 20
41.5239248657
 10
365.808848877
 20
41.2739282227
  0
LWPOLYLINE
  5
2C1
330
221
100
AcDbEntity
  8
0
  6
Continuous
 62
     2
100
AcDbPolyline
 90
        3
 70
     0
 43
0.0
 10
367.0588513184
 20
42.2739276123
 10
368.0588378906
 20
43.273927002
 10
368.0588378906
 20
39.7739291382
  0
LWPOLYLINE
  5
2C2
330
221
100
AcDbEntity
  8
0
  6
Continuous
 62
     2
100
AcDbPolyline
 90
        3
 70
     0
 43
0.0
 10
390.8088464355
 20
40.273928833
 10
391.8088330078
 20
43.7739266968
 10
392.8088452148
 20
40.273928833
  0
LINE
  5
2C3
330
221
100
AcDbEntity
  8
0
  6
Continuous
 62
     2
100
AcDbLine
 10
391.142175293
 20
41.2739282227
 30
0.0
 11
392.4755163574
 21
41.2739282227
 31
0.0
  0
LWPOLYLINE
  5
2C4
330
221
100
AcDbEntity
  8
0
  6
Continuous
 62
     2
100
AcDbPolyline
 90
        6
 70
     0
 43
0.0
 10
393.8088317871
 20
40.273928833
 10
395.0588342285
 20
40.273928833
 10
395.3088500977
 20
40.5239254761
 10
395.3088500977
 20
41.7739279175
 10
394.8088439941
 20
42.2739276123
 10
394.3088378906
 20
42.2739276123
  0
LWPOLYLINE
  5
2C5
330
221
100
AcDbEntity
  8
0
  6
Continuous
 62
     2
100
AcDbPolyline
 90
        5
 70
     0
 43
0.0
 10
394.8088439941
 20
42.2739276123
 10
395.2255114746
 20
42.5239242554
 10
395.2255114746
 20
43.273927002
 10
394.8088439941
 20
43.7739266968
 10
393.8088317871
 20
43.7739266968
  0
LWPOLYLINE
  5
2C6
330
221
100
AcDbEntity
  8
0
  6
Continuous
 62
     2
100
AcDbPolyline
 90
        3
 70
     0
 43
0.0
 10
351.4183630371
 20
32.4239291382
 10
351.4183630371
 20
35.6239297485
 10
352.7897973633
 20
35.6239297485
  0
LINE
  5
2C7
330
221
100
AcDbEntity
  8
0
  6
Continuous
 62
     2
100
AcDbLine
 10
352.3326525879
 20
34.2524954224
 30
0.0
 11
351.4183630371
 21
34.2524954224
 31
0.0
  0
LINE
  5
2C8
330
221
100
AcDbEntity
  8
0
  6
Continuous
 62
     2
100
AcDbLine
 10
351.4183630371
 20
32.4239291382
 30
0.0
 11
352.7897973633
 21
32.4239291382
 31
0.0
  0
LWPOLYLINE
  5
2C9
330
221
100
AcDbEntity
  8
0
  6
Continuous
 62
     2
100
AcDbPolyline
 90
        3
 70
     0
 43
0.0
 10
353.7040869141
 20
35.6239297485
 10
353.7040869141
 20
32.4239291382
 10
354.8469360352
 20
32.4239291382
  0
LWPOLYLINE
  5
2CA
330
221
100
AcDbEntity
  8
0
  6
Continuous
 62
     2
100
AcDbPolyline
 90
        3
 70
     0
 43
0.0
 10
355.7612255859
 20
35.6239297485
 10
355.7612255859
 20
32.4239291382
 10
356.904074707
 20
32.4239291382
  0
LWPOLYLINE
  5
2CB
330
221
100
AcDbEntity
  8
0
  6
Continuous
 62
     2
100
AcDbPolyline
 90
        3
 70
     0
 43
0.0
 10
357.8183642578
 20
32.4239291382
 10
358.7326538086
 20
35.6239297485
 10
359.6469433594
 20
32.4239291382
  0
LINE
  5
2CC
330
221
100
AcDbEntity
  8
0
  6
Continuous
 62
     2
100
AcDbLine
 10
358.1231359863
 20
33.3382122803
 30
0.0
 11
359.3421716309
 21
33.3382122803
 31
0.0
  0
LINE
  5
2CD
330
221
100
AcDbEntity
  8
0
  6
Continuous
 62
     2
100
AcDbLine
 10
363.6850341797
 20
32.4239291382
 30
0.0
 11
363.6850341797
 21
35.6239297485
 31
0.0
  0
LWPOLYLINE
  5
2CE
330
221
100
AcDbEntity
  8
0
  6
Continuous
 62
     2
100
AcDbPolyline
 90
        4
 70
     0
 43
0.0
 10
365.1326550293
 20
32.4239291382
 10
365.1326550293
 20
35.6239297485
 10
366.7326489258
 20
32.4239291382
 10
366.7326489258
 20
35.6239297485
  0
LWPOLYLINE
  5
2CF
330
221
100
AcDbEntity
  8
0
  6
Continuous
 62
     2
100
AcDbPolyline
 90
        7
 70
     0
 43
0.0
 10
371.7612158203
 20
32.4239291382
 10
370.1612219238
 20
32.4239291382
 10
371.7612158203
 20
34.7096401978
 10
371.7612158203
 20
35.1667849731
 10
371.3040710449
 20
35.6239297485
 10
370.6183666992
 20
35.6239297485
 10
370.1612219238
 20
34.9382125854
  0
LWPOLYLINE
  5
2D0
330
221
100
AcDbEntity
  8
0
  6
Continuous
 62
     2
100
AcDbPolyline
 90
        9
 70
     0
 43
0.0
 10
373.3612097168
 20
32.957260437
 10
373.437421875
 20
32.8048809814
 10
373.437421875
 20
32.7286880493
 10
373.3612097168
 20
32.5763085937
 10
373.2088366699
 20
32.5763085937
 10
373.1326501465
 20
32.7286880493
 10
373.1326501465
 20
32.8048809814
 10
373.2088366699
 20
32.957260437
 10
373.3612097168
 20
32.957260437
  0
LWPOLYLINE
  5
2D1
330
221
100
AcDbEntity
  8
0
  6
Continuous
 62
     2
100
AcDbPolyline
 90
       13
 70
     0
 43
0.0
 10
374.5040844727
 20
33.3382122803
 10
374.5040844727
 20
34.7096401978
 10
374.732644043
 20
35.1667849731
 10
375.1897888184
 20
35.6239297485
 10
375.4183740234
 20
35.6239297485
 10
375.8755187988
 20
35.1667849731
 10
376.1040783691
 20
34.7096401978
 10
376.1040783691
 20
33.3382122803
 10
375.8755187988
 20
32.8810675049
 10
375.4183740234
 20
32.4239291382
 10
375.1897888184
 20
32.4239291382
 10
374.732644043
 20
32.8810675049
 10
374.5040844727
 20
33.3382122803
  0
LWPOLYLINE
  5
2D2
330
221
100
AcDbEntity
  8
0
  6
Continuous
 62
     2
100
AcDbPolyline
 90
        7
 70
     0
 43
0.0
 10
351.2850366211
 20
25.2739251709
 10
351.2850366211
 20
27.7739300537
 10
352.1778955078
 20
27.7739300537
 10
352.5350390625
 20
27.416786499
 10
352.5350390625
 20
25.6310687256
 10
352.1778955078
 20
25.2739251709
 10
351.2850366211
 20
25.2739251709
  0
LWPOLYLINE
  5
2D3
330
221
100
AcDbEntity
  8
0
  6
Continuous
 62
     2
100
AcDbPolyline
 90
        3
 70
     0
 43
0.0
 10
353.5469458008
 20
25.2739251709
 10
354.2612329102
 20
27.7739300537
 10
354.9754943848
 20
25.2739251709
  0
LINE
  5
2D4
330
221
100
AcDbEntity
  8
0
  6
Continuous
 62
     2
100
AcDbLine
 10
353.7850415039
 20
25.9882122803
 30
0.0
 11
354.7373986816
 21
25.9882122803
 31
0.0
  0
LINE
  5
2D5
330
221
100
AcDbEntity
  8
0
  6
Continuous
 62
     2
100
AcDbLine
 10
356.4040686035
 20
25.2739251709
 30
0.0
 11
356.4040686035
 21
27.7739300537
 31
0.0
  0
LINE
  5
2D6
330
221
100
AcDbEntity
  8
0
  6
Continuous
 62
     2
100
AcDbLine
 10
355.6897814941
 20
27.7739300537
 30
0.0
 11
357.1183557129
 21
27.7739300537
 31
0.0
  0
LWPOLYLINE
  5
2D7
330
221
100
AcDbEntity
  8
0
  6
Continuous
 62
     2
100
AcDbPolyline
 90
        3
 70
     0
 43
0.0
 10
357.8326428223
 20
25.2739251709
 10
357.8326428223
 20
27.7739300537
 10
358.9040734863
 20
27.7739300537
  0
LINE
  5
2D8
330
221
100
AcDbEntity
  8
0
  6
Continuous
 62
     2
100
AcDbLine
 10
358.5469299316
 20
26.7024993896
 30
0.0
 11
357.8326428223
 21
26.7024993896
 31
0.0
  0
LINE
  5
2D9
330
221
100
AcDbEntity
  8
0
  6
Continuous
 62
     2
100
AcDbLine
 10
357.8326428223
 20
25.2739251709
 30
0.0
 11
358.9040734863
 21
25.2739251709
 31
0.0
  0
LWPOLYLINE
  5
2DA
330
221
100
AcDbEntity
  8
0
  6
Continuous
 62
     2
100
AcDbPolyline
 90
        4
 70
     0
 43
0.0
 10
359.6183605957
 20
25.2739251709
 10
359.6183605957
 20
25.4524969482
 10
359.7374084473
 20
25.4524969482
 10
359.6183605957
 20
25.2739251709
  0
LWPOLYLINE
  5
2DB
330
221
100
AcDbEntity
  8
0
  6
Continuous
 62
     2
100
AcDbPolyline
 90
        4
 70
     0
 43
0.0
 10
359.6183605957
 20
26.345355835
 10
359.6183605957
 20
26.5239276123
 10
359.7374084473
 20
26.5239276123
 10
359.6183605957
 20
26.345355835
  0
LWPOLYLINE
  5
2DC
330
221
100
AcDbEntity
  8
0
  6
Continuous
 62
     2
100
AcDbPolyline
 90
        7
 70
     0
 43
0.0
 10
361.7612219238
 20
25.2739251709
 10
360.5112194824
 20
25.2739251709
 10
361.7612219238
 20
27.0596429443
 10
361.7612219238
 20
27.416786499
 10
361.4040783691
 20
27.7739300537
 10
360.8683630371
 20
27.7739300537
 10
360.5112194824
 20
27.2382147217
  0
LWPOLYLINE
  5
2DD
330
221
100
AcDbEntity
  8
0
  6
Continuous
 62
     2
100
AcDbPolyline
 90
        8
 70
     0
 43
0.0
 10
362.4755090332
 20
25.2739251709
 10
363.1897961426
 20
25.2739251709
 10
363.5469396973
 20
25.6310687256
 10
363.5469396973
 20
26.345355835
 10
363.1897961426
 20
26.7024993896
 10
362.4755090332
 20
26.7024993896
 10
362.4755090332
 20
27.7739300537
 10
363.5469396973
 20
27.7739300537
  0
LINE
  5
2DE
330
221
100
AcDbEntity
  8
0
  6
Continuous
 62
     2
100
AcDbLine
 10
365.6898010254
 20
27.5358343506
 30
0.0
 11
364.2612268066
 21
25.3334490967
 31
0.0
  0
LWPOLYLINE
  5
2DF
330
221
100
AcDbEntity
  8
0
  6
Continuous
 62
     2
100
AcDbPolyline
 90
       13
 70
     0
 43
0.0
 10
366.1659924316
 20
25.9882122803
 10
366.1659924316
 20
27.0596429443
 10
366.344564209
 20
27.416786499
 10
366.7017077637
 20
27.7739300537
 10
366.880279541
 20
27.7739300537
 10
367.2374230957
 20
27.416786499
 10
367.415994873
 20
27.0596429443
 10
367.415994873
 20
25.9882122803
 10
367.2374230957
 20
25.6310687256
 10
366.880279541
 20
25.2739251709
 10
366.7017077637
 20
25.2739251709
 10
366.344564209
 20
25.6310687256
 10
366.1659924316
 20
25.9882122803
  0
LWPOLYLINE
  5
2E0
330
221
100
AcDbEntity
  8
0
  6
Continuous
 62
     2
100
AcDbPolyline
 90
        7
 70
     0
 43
0.0
 10
369.3802587891
 20
25.2739251709
 10
368.1302563477
 20
25.2739251709
 10
369.3802587891
 20
27.0596429443
 10
369.3802587891
 20
27.416786499
 10
369.0231152344
 20
27.7739300537
 10
368.4873999023
 20
27.7739300537
 10
368.1302563477
 20
27.2382147217
  0
LINE
  5
2E1
330
221
100
AcDbEntity
  8
0
  6
Continuous
 62
     2
100
AcDbLine
 10
371.5231201172
 20
27.5358343506
 30
0.0
 11
370.0945458984
 21
25.3334490967
 31
0.0
  0
LWPOLYLINE
  5
2E2
330
221
100
AcDbEntity
  8
0
  6
Continuous
 62
     2
100
AcDbPolyline
 90
        7
 70
     0
 43
0.0
 10
373.2493139648
 20
25.2739251709
 10
371.9993115234
 20
25.2739251709
 10
373.2493139648
 20
27.0596429443
 10
373.2493139648
 20
27.416786499
 10
372.8921704102
 20
27.7739300537
 10
372.3564550781
 20
27.7739300537
 10
371.9993115234
 20
27.2382147217
  0
LWPOLYLINE
  5
2E3
330
221
100
AcDbEntity
  8
0
  6
Continuous
 62
     2
100
AcDbPolyline
 90
       13
 70
     0
 43
0.0
 10
373.9636010742
 20
25.9882122803
 10
373.9636010742
 20
27.0596429443
 10
374.1421728516
 20
27.416786499
 10
374.4993164062
 20
27.7739300537
 10
374.6778881836
 20
27.7739300537
 10
375.0350317383
 20
27.416786499
 10
375.2136035156
 20
27.0596429443
 10
375.2136035156
 20
25.9882122803
 10
375.0350317383
 20
25.6310687256
 10
374.6778881836
 20
25.2739251709
 10
374.4993164062
 20
25.2739251709
 10
374.1421728516
 20
25.6310687256
 10
373.9636010742
 20
25.9882122803
  0
LWPOLYLINE
  5
2E4
330
221
100
AcDbEntity
  8
0
  6
Continuous
 62
     2
100
AcDbPolyline
 90
        3
 70
     0
 43
0.0
 10
375.927890625
 20
27.0596429443
 10
376.6421777344
 20
27.7739300537
 10
376.6421777344
 20
25.2739251709
  0
LWPOLYLINE
  5
2E5
330
221
100
AcDbEntity
  8
0
  6
Continuous
 62
     2
100
AcDbPolyline
 90
        8
 70
     0
 43
0.0
 10
377.3564648437
 20
25.2739251709
 10
378.0707519531
 20
25.2739251709
 10
378.4278955078
 20
25.6310687256
 10
378.4278955078
 20
26.345355835
 10
378.0707519531
 20
26.7024993896
 10
377.3564648437
 20
26.7024993896
 10
377.3564648437
 20
27.7739300537
 10
378.4278955078
 20
27.7739300537
  0
LWPOLYLINE
  5
2E6
330
221
100
AcDbEntity
  8
0
  6
Continuous
 62
     2
100
AcDbPolyline
 90
        3
 70
     0
 43
0.0
 10
321.1036889648
 20
20.4239268494
 10
321.5950817871
 20
22.273927002
 10
322.0865002441
 20
20.4239268494
  0
LINE
  5
2E7
330
221
100
AcDbEntity
  8
0
  6
Continuous
 62
     2
100
AcDbLine
 10
321.3002563477
 20
21.0405935669
 30
0.0
 11
321.8899328613
 21
21.0405935669
 31
0.0
  0
LINE
  5
2E8
330
221
100
AcDbEntity
  8
0
  6
Continuous
 62
     2
100
AcDbLine
 10
322.8727441406
 20
20.4239268494
 30
0.0
 11
322.8727441406
 21
21.6572602844
 31
0.0
  0
LWPOLYLINE
  5
2E9
330
221
100
AcDbEntity
  8
0
  6
Continuous
 62
     2
100
AcDbPolyline
 90
        5
 70
     0
 43
0.0
 10
322.8727441406
 20
21.3489285278
 10
323.0693115234
 20
21.6572602844
 10
323.2658789063
 20
21.6572602844
 10
323.4624462891
 20
21.3489285278
 10
323.4624462891
 20
20.4239268494
  0
LWPOLYLINE
  5
2EA
330
221
100
AcDbEntity
  8
0
  6
Continuous
 62
     2
100
AcDbPolyline
 90
        5
 70
     0
 43
0.0
 10
324.346973877
 20
21.6572602844
 10
324.7400830078
 20
20.5780943298
 10
324.6417993164
 20
20.1155950928
 10
324.4452575684
 20
19.8072601318
 10
324.2486901855
 20
19.8072601318
  0
LINE
  5
2EB
330
221
100
AcDbEntity
  8
0
  6
Continuous
 62
     2
100
AcDbLine
 10
324.7400830078
 20
20.5780943298
 30
0.0
 11
325.1332177734
 21
21.6572602844
 31
0.0
  0
LINE
  5
2EC
330
221
100
AcDbEntity
  8
0
  6
Continuous
 62
     2
100
AcDbLine
 10
327.8850842285
 20
22.273927002
 30
0.0
 11
327.8850842285
 21
22.1197595215
 31
0.0
  0
LINE
  5
2ED
330
221
100
AcDbEntity
  8
0
  6
Continuous
 62
     2
100
AcDbLine
 10
327.8850842285
 20
21.6572602844
 30
0.0
 11
327.8850842285
 21
20.4239268494
 31
0.0
  0
LINE
  5
2EE
330
221
100
AcDbEntity
  8
0
  6
Continuous
 62
     2
100
AcDbLine
 10
329.162746582
 20
20.4239268494
 30
0.0
 11
329.162746582
 21
21.6572602844
 31
0.0
  0
LWPOLYLINE
  5
2EF
330
221
100
AcDbEntity
  8
0
  6
Continuous
 62
     2
100
AcDbPolyline
 90
        5
 70
     0
 43
0.0
 10
329.162746582
 20
21.3489285278
 10
329.3593139648
 20
21.6572602844
 10
329.5558813477
 20
21.6572602844
 10
329.7524230957
 20
21.3489285278
 10
329.7524230957
 20
20.4239268494
  0
LINE
  5
2F0
330
221
100
AcDbEntity
  8
0
  6
Continuous
 62
     2
100
AcDbLine
 10
331.0300854492
 20
20.4239268494
 30
0.0
 11
331.0300854492
 21
22.273927002
 31
0.0
  0
LINE
  5
2F1
330
221
100
AcDbEntity
  8
0
  6
Continuous
 62
     2
100
AcDbLine
 10
330.735234375
 20
21.503092804
 30
0.0
 11
331.3249365234
 21
21.503092804
 31
0.0
  0
LWPOLYLINE
  5
2F2
330
221
100
AcDbEntity
  8
0
  6
Continuous
 62
     2
100
AcDbPolyline
 90
       11
 70
     0
 43
0.0
 10
332.8974243164
 20
20.7322618103
 10
332.799140625
 20
20.5780943298
 10
332.602598877
 20
20.4239268494
 10
332.4060314941
 20
20.5780943298
 10
332.2094641113
 20
20.8864260864
 10
332.2094641113
 20
21.1947610474
 10
332.4060314941
 20
21.503092804
 10
332.602598877
 20
21.6572602844
 10
332.799140625
 20
21.503092804
 10
332.8974243164
 20
21.1947610474
 10
332.2094641113
 20
21.1947610474
  0
LWPOLYLINE
  5
2F3
330
221
100
AcDbEntity
  8
0
  6
Continuous
 62
     2
100
AcDbPolyline
 90
       10
 70
     0
 43
0.0
 10
334.5682214355
 20
20.8864260864
 10
334.3716540527
 20
20.5780943298
 10
334.1750866699
 20
20.4239268494
 10
333.9785192871
 20
20.5780943298
 10
333.7819775391
 20
20.8864260864
 10
333.7819775391
 20
21.1947610474
 10
333.9785192871
 20
21.503092804
 10
334.1750866699
 20
21.6572602844
 10
334.3716540527
 20
21.503092804
 10
334.5682214355
 20
21.1947610474
  0
LWPOLYLINE
  5
2F4
330
221
100
AcDbEntity
  8
0
  6
Continuous
 62
     2
100
AcDbPolyline
 90
        6
 70
     0
 43
0.0
 10
334.5682214355
 20
21.6572602844
 10
334.5682214355
 20
20.2697593689
 10
334.4699377441
 20
19.9614276123
 10
334.3716540527
 20
19.8072601318
 10
333.9785192871
 20
19.8072601318
 10
333.8802355957
 20
19.9614276123
  0
LINE
  5
2F5
330
221
100
AcDbEntity
  8
0
  6
Continuous
 62
     2
100
AcDbLine
 10
335.4527490234
 20
20.4239268494
 30
0.0
 11
335.4527490234
 21
21.6572602844
 31
0.0
  0
LWPOLYLINE
  5
2F6
330
221
100
AcDbEntity
  8
0
  6
Continuous
 62
     2
100
AcDbPolyline
 90
        4
 70
     0
 43
0.0
 10
335.4527490234
 20
21.3489285278
 10
335.6493164062
 20
21.6572602844
 10
335.8458837891
 20
21.6572602844
 10
335.9441418457
 20
21.503092804
  0
LWPOLYLINE
  5
2F7
330
221
100
AcDbEntity
  8
0
  6
Continuous
 62
     2
100
AcDbPolyline
 90
       10
 70
     0
 43
0.0
 10
337.7132226562
 20
20.8864260864
 10
337.5166552734
 20
20.5780943298
 10
337.3200878906
 20
20.4239268494
 10
337.1235205078
 20
20.5780943298
 10
336.926953125
 20
20.8864260864
 10
336.926953125
 20
21.1947610474
 10
337.1235205078
 20
21.503092804
 10
337.3200878906
 20
21.6572602844
 10
337.5166552734
 20
21.503092804
 10
337.7132226562
 20
21.1947610474
  0
LINE
  5
2F8
330
221
100
AcDbEntity
  8
0
  6
Continuous
 62
     2
100
AcDbLine
 10
337.7132226562
 20
21.6572602844
 30
0.0
 11
337.7132226562
 21
20.4239268494
 31
0.0
  0
LINE
  5
2F9
330
221
100
AcDbEntity
  8
0
  6
Continuous
 62
     2
100
AcDbLine
 10
338.8926013184
 20
20.4239268494
 30
0.0
 11
338.8926013184
 21
22.273927002
 31
0.0
  0
LWPOLYLINE
  5
2FA
330
221
100
AcDbEntity
  8
0
  6
Continuous
 62
     2
100
AcDbPolyline
 90
       11
 70
     0
 43
0.0
 10
342.4307116699
 20
20.8864260864
 10
342.2341442871
 20
20.5780943298
 10
342.0376025391
 20
20.4239268494
 10
341.8410351562
 20
20.5780943298
 10
341.6444677734
 20
20.8864260864
 10
341.6444677734
 20
21.1947610474
 10
341.8410351562
 20
21.503092804
 10
342.0376025391
 20
21.6572602844
 10
342.2341442871
 20
21.503092804
 10
342.4307116699
 20
21.1947610474
 10
342.4307116699
 20
20.8864260864
  0
LINE
  5
2FB
330
221
100
AcDbEntity
  8
0
  6
Continuous
 62
     2
100
AcDbLine
 10
343.3152392578
 20
20.4239268494
 30
0.0
 11
343.3152392578
 21
21.6572602844
 31
0.0
  0
LWPOLYLINE
  5
2FC
330
221
100
AcDbEntity
  8
0
  6
Continuous
 62
     2
100
AcDbPolyline
 90
        4
 70
     0
 43
0.0
 10
343.3152392578
 20
21.3489285278
 10
343.5118066406
 20
21.6572602844
 10
343.7083740234
 20
21.6572602844
 10
343.8066577148
 20
21.503092804
  0
LWPOLYLINE
  5
2FD
330
221
100
AcDbEntity
  8
0
  6
Continuous
 62
     2
100
AcDbPolyline
 90
       10
 70
     0
 43
0.0
 10
346.3619567871
 20
21.1947610474
 10
346.5585241699
 20
21.503092804
 10
346.7550915527
 20
21.6572602844
 10
346.9516589355
 20
21.503092804
 10
347.1482263184
 20
21.1947610474
 10
347.1482263184
 20
20.8864260864
 10
346.9516589355
 20
20.5780943298
 10
346.7550915527
 20
20.4239268494
 10
346.5585241699
 20
20.4239268494
 10
346.3619567871
 20
20.8864260864
  0
LINE
  5
2FE
330
221
100
AcDbEntity
  8
0
  6
Continuous
 62
     2
100
AcDbLine
 10
346.3619567871
 20
21.6572602844
 30
0.0
 11
346.3619567871
 21
19.8072601318
 31
0.0
  0
LWPOLYLINE
  5
2FF
330
221
100
AcDbEntity
  8
0
  6
Continuous
 62
     2
100
AcDbPolyline
 90
       10
 70
     0
 43
0.0
 10
348.7207141113
 20
20.8864260864
 10
348.5241467285
 20
20.5780943298
 10
348.3275793457
 20
20.4239268494
 10
348.1310375977
 20
20.5780943298
 10
347.9344702148
 20
20.8864260864
 10
347.9344702148
 20
21.1947610474
 10
348.1310375977
 20
21.503092804
 10
348.3275793457
 20
21.6572602844
 10
348.5241467285
 20
21.503092804
 10
348.7207141113
 20
21.1947610474
  0
LINE
  5
300
330
221
100
AcDbEntity
  8
0
  6
Continuous
 62
     2
100
AcDbLine
 10
348.7207141113
 20
21.6572602844
 30
0.0
 11
348.7207141113
 21
20.4239268494
 31
0.0
  0
LINE
  5
301
330
221
100
AcDbEntity
  8
0
  6
Continuous
 62
     2
100
AcDbLine
 10
349.6052416992
 20
20.4239268494
 30
0.0
 11
349.6052416992
 21
21.6572602844
 31
0.0
  0
LWPOLYLINE
  5
302
330
221
100
AcDbEntity
  8
0
  6
Continuous
 62
     2
100
AcDbPolyline
 90
        4
 70
     0
 43
0.0
 10
349.6052416992
 20
21.3489285278
 10
349.801809082
 20
21.6572602844
 10
349.9983764648
 20
21.6572602844
 10
350.0966601562
 20
21.503092804
  0
LINE
  5
303
330
221
100
AcDbEntity
  8
0
  6
Continuous
 62
     2
100
AcDbLine
 10
351.4725805664
 20
20.4239268494
 30
0.0
 11
351.4725805664
 21
22.273927002
 31
0.0
  0
LINE
  5
304
330
221
100
AcDbEntity
  8
0
  6
Continuous
 62
     2
100
AcDbLine
 10
351.177755127
 20
21.503092804
 30
0.0
 11
351.7674316406
 21
21.503092804
 31
0.0
  0
LINE
  5
305
330
221
100
AcDbEntity
  8
0
  6
Continuous
 62
     2
100
AcDbLine
 10
353.0450939941
 20
22.273927002
 30
0.0
 11
353.0450939941
 21
22.1197595215
 31
0.0
  0
LINE
  5
306
330
221
100
AcDbEntity
  8
0
  6
Continuous
 62
     2
100
AcDbLine
 10
353.0450939941
 20
21.6572602844
 30
0.0
 11
353.0450939941
 21
20.4239268494
 31
0.0
  0
LWPOLYLINE
  5
307
330
221
100
AcDbEntity
  8
0
  6
Continuous
 62
     2
100
AcDbPolyline
 90
       10
 70
     0
 43
0.0
 10
355.0107165527
 20
20.8864260864
 10
354.8141491699
 20
20.5780943298
 10
354.6175817871
 20
20.4239268494
 10
354.4210400391
 20
20.5780943298
 10
354.2244726562
 20
20.8864260864
 10
354.2244726562
 20
21.1947610474
 10
354.4210400391
 20
21.503092804
 10
354.6175817871
 20
21.6572602844
 10
354.8141491699
 20
21.503092804
 10
355.0107165527
 20
21.1947610474
  0
LINE
  5
308
330
221
100
AcDbEntity
  8
0
  6
Continuous
 62
     2
100
AcDbLine
 10
355.0107165527
 20
21.6572602844
 30
0.0
 11
355.0107165527
 21
20.4239268494
 31
0.0
  0
LINE
  5
309
330
221
100
AcDbEntity
  8
0
  6
Continuous
 62
     2
100
AcDbLine
 10
356.1900952148
 20
20.4239268494
 30
0.0
 11
356.1900952148
 21
22.273927002
 31
0.0
  0
LINE
  5
30A
330
221
100
AcDbEntity
  8
0
  6
Continuous
 62
     2
100
AcDbLine
 10
359.0402453613
 20
20.4239268494
 30
0.0
 11
359.0402453613
 21
21.6572602844
 31
0.0
  0
LWPOLYLINE
  5
30B
330
221
100
AcDbEntity
  8
0
  6
Continuous
 62
     2
100
AcDbPolyline
 90
        4
 70
     0
 43
0.0
 10
359.0402453613
 20
21.3489285278
 10
359.2368127441
 20
21.6572602844
 10
359.433380127
 20
21.6572602844
 10
359.5316638184
 20
21.503092804
  0
LWPOLYLINE
  5
30C
330
221
100
AcDbEntity
  8
0
  6
Continuous
 62
     2
100
AcDbPolyline
 90
       11
 70
     0
 43
0.0
 10
361.2024353027
 20
20.7322618103
 10
361.1041516113
 20
20.5780943298
 10
360.9075842285
 20
20.4239268494
 10
360.7110168457
 20
20.5780943298
 10
360.5144750977
 20
20.8864260864
 10
360.5144750977
 20
21.1947610474
 10
360.7110168457
 20
21.503092804
 10
360.9075842285
 20
21.6572602844
 10
361.1041516113
 20
21.503092804
 10
361.2024353027
 20
21.1947610474
 10
360.5144750977
 20
21.1947610474
  0
LWPOLYLINE
  5
30D
330
221
100
AcDbEntity
  8
0
  6
Continuous
 62
     2
100
AcDbPolyline
 90
       10
 70
     0
 43
0.0
 10
362.0869628906
 20
21.1947610474
 10
362.2835302734
 20
21.503092804
 10
362.4800976562
 20
21.6572602844
 10
362.6766650391
 20
21.503092804
 10
362.8732067871
 20
21.1947610474
 10
362.8732067871
 20
20.8864260864
 10
362.6766650391
 20
20.5780943298
 10
362.4800976562
 20
20.4239268494
 10
362.2835302734
 20
20.4239268494
 10
362.0869628906
 20
20.8864260864
  0
LINE
  5
30E
330
221
100
AcDbEntity
  8
0
  6
Continuous
 62
     2
100
AcDbLine
 10
362.0869628906
 20
21.6572602844
 30
0.0
 11
362.0869628906
 21
19.8072601318
 31
0.0
  0
LINE
  5
30F
330
221
100
AcDbEntity
  8
0
  6
Continuous
 62
     2
100
AcDbLine
 10
363.757734375
 20
20.4239268494
 30
0.0
 11
363.757734375
 21
21.6572602844
 31
0.0
  0
LWPOLYLINE
  5
310
330
221
100
AcDbEntity
  8
0
  6
Continuous
 62
     2
100
AcDbPolyline
 90
        4
 70
     0
 43
0.0
 10
363.757734375
 20
21.3489285278
 10
363.9543017578
 20
21.6572602844
 10
364.1508691406
 20
21.6572602844
 10
364.249152832
 20
21.503092804
  0
LWPOLYLINE
  5
311
330
221
100
AcDbEntity
  8
0
  6
Continuous
 62
     2
100
AcDbPolyline
 90
       11
 70
     0
 43
0.0
 10
366.0182080078
 20
20.8864260864
 10
365.821640625
 20
20.5780943298
 10
365.625098877
 20
20.4239268494
 10
365.4285314941
 20
20.5780943298
 10
365.2319641113
 20
20.8864260864
 10
365.2319641113
 20
21.1947610474
 10
365.4285314941
 20
21.503092804
 10
365.625098877
 20
21.6572602844
 10
365.821640625
 20
21.503092804
 10
366.0182080078
 20
21.1947610474
 10
366.0182080078
 20
20.8864260864
  0
LWPOLYLINE
  5
312
330
221
100
AcDbEntity
  8
0
  6
Continuous
 62
     2
100
AcDbPolyline
 90
       10
 70
     0
 43
0.0
 10
367.5907214355
 20
20.8864260864
 10
367.3941540527
 20
20.5780943298
 10
367.1975866699
 20
20.4239268494
 10
367.0010192871
 20
20.5780943298
 10
366.8044775391
 20
20.8864260864
 10
366.8044775391
 20
21.1947610474
 10
367.0010192871
 20
21.503092804
 10
367.1975866699
 20
21.6572602844
 10
367.3941540527
 20
21.503092804
 10
367.5907214355
 20
21.1947610474
  0
LINE
  5
313
330
221
100
AcDbEntity
  8
0
  6
Continuous
 62
     2
100
AcDbLine
 10
367.5907214355
 20
22.273927002
 30
0.0
 11
367.5907214355
 21
20.4239268494
 31
0.0
  0
LWPOLYLINE
  5
314
330
221
100
AcDbEntity
  8
0
  6
Continuous
 62
     2
100
AcDbPolyline
 90
        5
 70
     0
 43
0.0
 10
368.4752490234
 20
21.6572602844
 10
368.4752490234
 20
20.7322618103
 10
368.6718164063
 20
20.4239268494
 10
368.8683837891
 20
20.4239268494
 10
369.0649255371
 20
20.7322618103
  0
LINE
  5
315
330
221
100
AcDbEntity
  8
0
  6
Continuous
 62
     2
100
AcDbLine
 10
369.0649255371
 20
21.6572602844
 30
0.0
 11
369.0649255371
 21
20.4239268494
 31
0.0
  0
LWPOLYLINE
  5
316
330
221
100
AcDbEntity
  8
0
  6
Continuous
 62
     2
100
AcDbPolyline
 90
        8
 70
     0
 43
0.0
 10
370.5391552734
 20
20.5780943298
 10
370.3425878906
 20
20.4239268494
 10
370.1460205078
 20
20.5780943298
 10
369.949453125
 20
20.8864260864
 10
369.949453125
 20
21.1947610474
 10
370.1460205078
 20
21.503092804
 10
370.3425878906
 20
21.6572602844
 10
370.5391552734
 20
21.503092804
  0
LINE
  5
317
330
221
100
AcDbEntity
  8
0
  6
Continuous
 62
     2
100
AcDbLine
 10
371.9151013184
 20
20.4239268494
 30
0.0
 11
371.9151013184
 21
22.273927002
 31
0.0
  0
LINE
  5
318
330
221
100
AcDbEntity
  8
0
  6
Continuous
 62
     2
100
AcDbLine
 10
371.6202502441
 20
21.503092804
 30
0.0
 11
372.2099267578
 21
21.503092804
 31
0.0
  0
LINE
  5
319
330
221
100
AcDbEntity
  8
0
  6
Continuous
 62
     2
100
AcDbLine
 10
373.4875891113
 20
22.273927002
 30
0.0
 11
373.4875891113
 21
22.1197595215
 31
0.0
  0
LINE
  5
31A
330
221
100
AcDbEntity
  8
0
  6
Continuous
 62
     2
100
AcDbLine
 10
373.4875891113
 20
21.6572602844
 30
0.0
 11
373.4875891113
 21
20.4239268494
 31
0.0
  0
LWPOLYLINE
  5
31B
330
221
100
AcDbEntity
  8
0
  6
Continuous
 62
     2
100
AcDbPolyline
 90
       11
 70
     0
 43
0.0
 10
375.4532116699
 20
20.8864260864
 10
375.2566442871
 20
20.5780943298
 10
375.0601025391
 20
20.4239268494
 10
374.8635351563
 20
20.5780943298
 10
374.6669677734
 20
20.8864260864
 10
374.6669677734
 20
21.1947610474
 10
374.8635351563
 20
21.503092804
 10
375.0601025391
 20
21.6572602844
 10
375.2566442871
 20
21.503092804
 10
375.4532116699
 20
21.1947610474
 10
375.4532116699
 20
20.8864260864
  0
LINE
  5
31C
330
221
100
AcDbEntity
  8
0
  6
Continuous
 62
     2
100
AcDbLine
 10
376.3377392578
 20
20.4239268494
 30
0.0
 11
376.3377392578
 21
21.6572602844
 31
0.0
  0
LWPOLYLINE
  5
31D
330
221
100
AcDbEntity
  8
0
  6
Continuous
 62
     2
100
AcDbPolyline
 90
        5
 70
     0
 43
0.0
 10
376.3377392578
 20
21.3489285278
 10
376.5343066406
 20
21.6572602844
 10
376.7308740234
 20
21.6572602844
 10
376.9274414063
 20
21.3489285278
 10
376.9274414063
 20
20.4239268494
  0
LWPOLYLINE
  5
31E
330
221
100
AcDbEntity
  8
0
  6
Continuous
 62
     2
100
AcDbPolyline
 90
       14
 70
     0
 43
0.0
 10
378.4016455078
 20
21.503092804
 10
378.3033618164
 20
21.6572602844
 10
378.1068200684
 20
21.6572602844
 10
378.008536377
 20
21.503092804
 10
378.008536377
 20
21.3489285278
 10
378.205078125
 20
21.1947610474
 10
378.4016455078
 20
21.0405935669
 10
378.4999291992
 20
20.8864260864
 10
378.4999291992
 20
20.7322618103
 10
378.4016455078
 20
20.5780943298
 10
378.3033618164
 20
20.4239268494
 10
378.1068200684
 20
20.4239268494
 10
378.008536377
 20
20.5780943298
 10
377.9102526855
 20
20.7322618103
  0
LWPOLYLINE
  5
31F
330
221
100
AcDbEntity
  8
0
  6
Continuous
 62
     2
100
AcDbPolyline
 90
       10
 70
     0
 43
0.0
 10
381.7432141113
 20
20.8864260864
 10
381.5466467285
 20
20.5780943298
 10
381.3500793457
 20
20.4239268494
 10
381.1535375977
 20
20.5780943298
 10
380.9569702148
 20
20.8864260864
 10
380.9569702148
 20
21.1947610474
 10
381.1535375977
 20
21.503092804
 10
381.3500793457
 20
21.6572602844
 10
381.5466467285
 20
21.503092804
 10
381.7432141113
 20
21.1947610474
  0
LINE
  5
320
330
221
100
AcDbEntity
  8
0
  6
Continuous
 62
     2
100
AcDbLine
 10
381.7432141113
 20
21.6572602844
 30
0.0
 11
381.7432141113
 21
20.4239268494
 31
0.0
  0
LINE
  5
321
330
221
100
AcDbEntity
  8
0
  6
Continuous
 62
     2
100
AcDbLine
 10
382.6277416992
 20
20.4239268494
 30
0.0
 11
382.6277416992
 21
21.6572602844
 31
0.0
  0
LWPOLYLINE
  5
322
330
221
100
AcDbEntity
  8
0
  6
Continuous
 62
     2
100
AcDbPolyline
 90
        4
 70
     0
 43
0.0
 10
382.6277416992
 20
21.3489285278
 10
382.824309082
 20
21.6572602844
 10
383.0208764648
 20
21.6572602844
 10
383.1191601562
 20
21.503092804
  0
LWPOLYLINE
  5
323
330
221
100
AcDbEntity
  8
0
  6
Continuous
 62
     2
100
AcDbPolyline
 90
       11
 70
     0
 43
0.0
 10
384.7899316406
 20
20.7322618103
 10
384.6916479492
 20
20.5780943298
 10
384.4950805664
 20
20.4239268494
 10
384.2985388184
 20
20.5780943298
 10
384.1019714355
 20
20.8864260864
 10
384.1019714355
 20
21.1947610474
 10
384.2985388184
 20
21.503092804
 10
384.4950805664
 20
21.6572602844
 10
384.6916479492
 20
21.503092804
 10
384.7899316406
 20
21.1947610474
 10
384.1019714355
 20
21.1947610474
  0
LWPOLYLINE
  5
324
330
221
100
AcDbEntity
  8
0
  6
Continuous
 62
     2
100
AcDbPolyline
 90
       10
 70
     0
 43
0.0
 10
387.2469726562
 20
21.1947610474
 10
387.4435400391
 20
21.503092804
 10
387.6400817871
 20
21.6572602844
 10
387.8366491699
 20
21.503092804
 10
388.0332165527
 20
21.1947610474
 10
388.0332165527
 20
20.8864260864
 10
387.8366491699
 20
20.5780943298
 10
387.6400817871
 20
20.4239268494
 10
387.4435400391
 20
20.4239268494
 10
387.2469726562
 20
20.8864260864
  0
LINE
  5
325
330
221
100
AcDbEntity
  8
0
  6
Continuous
 62
     2
100
AcDbLine
 10
387.2469726562
 20
21.6572602844
 30
0.0
 11
387.2469726562
 21
19.8072601318
 31
0.0
  0
LINE
  5
326
330
221
100
AcDbEntity
  8
0
  6
Continuous
 62
     2
100
AcDbLine
 10
388.9177441406
 20
20.4239268494
 30
0.0
 11
388.9177441406
 21
21.6572602844
 31
0.0
  0
LWPOLYLINE
  5
327
330
221
100
AcDbEntity
  8
0
  6
Continuous
 62
     2
100
AcDbPolyline
 90
        4
 70
     0
 43
0.0
 10
388.9177441406
 20
21.3489285278
 10
389.1143115234
 20
21.6572602844
 10
389.3108789062
 20
21.6572602844
 10
389.4091625977
 20
21.503092804
  0
LWPOLYLINE
  5
328
330
221
100
AcDbEntity
  8
0
  6
Continuous
 62
     2
100
AcDbPolyline
 90
       11
 70
     0
 43
0.0
 10
391.1782177734
 20
20.8864260864
 10
390.9816503906
 20
20.5780943298
 10
390.7850830078
 20
20.4239268494
 10
390.588515625
 20
20.5780943298
 10
390.391973877
 20
20.8864260864
 10
390.391973877
 20
21.1947610474
 10
390.588515625
 20
21.503092804
 10
390.7850830078
 20
21.6572602844
 10
390.9816503906
 20
21.503092804
 10
391.1782177734
 20
21.1947610474
 10
391.1782177734
 20
20.8864260864
  0
LINE
  5
329
330
221
100
AcDbEntity
  8
0
  6
Continuous
 62
     2
100
AcDbLine
 10
392.0627453613
 20
20.4239268494
 30
0.0
 11
392.0627453613
 21
22.273927002
 31
0.0
  0
LWPOLYLINE
  5
32A
330
221
100
AcDbEntity
  8
0
  6
Continuous
 62
     2
100
AcDbPolyline
 90
        7
 70
     0
 43
0.0
 10
392.0627453613
 20
21.3489285278
 10
392.0627453613
 20
21.503092804
 10
392.2593127441
 20
21.6572602844
 10
392.3575964355
 20
21.6572602844
 10
392.455880127
 20
21.6572602844
 10
392.652421875
 20
21.3489285278
 10
392.652421875
 20
20.4239268494
  0
LINE
  5
32B
330
221
100
AcDbEntity
  8
0
  6
Continuous
 62
     2
100
AcDbLine
 10
393.9300842285
 20
22.273927002
 30
0.0
 11
393.9300842285
 21
22.1197595215
 31
0.0
  0
LINE
  5
32C
330
221
100
AcDbEntity
  8
0
  6
Continuous
 62
     2
100
AcDbLine
 10
393.9300842285
 20
21.6572602844
 30
0.0
 11
393.9300842285
 21
20.4239268494
 31
0.0
  0
LWPOLYLINE
  5
32D
330
221
100
AcDbEntity
  8
0
  6
Continuous
 62
     2
100
AcDbPolyline
 90
       10
 70
     0
 43
0.0
 10
395.1094628906
 20
21.1947610474
 10
395.3060302734
 20
21.503092804
 10
395.5025976562
 20
21.6572602844
 10
395.6991650391
 20
21.503092804
 10
395.8957067871
 20
21.1947610474
 10
395.8957067871
 20
20.8864260864
 10
395.6991650391
 20
20.5780943298
 10
395.5025976562
 20
20.4239268494
 10
395.3060302734
 20
20.5780943298
 10
395.1094628906
 20
20.8864260864
  0
LINE
  5
32E
330
221
100
AcDbEntity
  8
0
  6
Continuous
 62
     2
100
AcDbLine
 10
395.1094628906
 20
22.273927002
 30
0.0
 11
395.1094628906
 21
20.4239268494
 31
0.0
  0
LINE
  5
32F
330
221
100
AcDbEntity
  8
0
  6
Continuous
 62
     2
100
AcDbLine
 10
397.0750854492
 20
22.273927002
 30
0.0
 11
397.0750854492
 21
22.1197595215
 31
0.0
  0
LINE
  5
330
330
221
100
AcDbEntity
  8
0
  6
Continuous
 62
     2
100
AcDbLine
 10
397.0750854492
 20
21.6572602844
 30
0.0
 11
397.0750854492
 21
20.4239268494
 31
0.0
  0
LINE
  5
331
330
221
100
AcDbEntity
  8
0
  6
Continuous
 62
     2
100
AcDbLine
 10
398.647598877
 20
20.4239268494
 30
0.0
 11
398.647598877
 21
22.273927002
 31
0.0
  0
LINE
  5
332
330
221
100
AcDbEntity
  8
0
  6
Continuous
 62
     2
100
AcDbLine
 10
398.3527478027
 20
21.503092804
 30
0.0
 11
398.9424243164
 21
21.503092804
 31
0.0
  0
LWPOLYLINE
  5
333
330
221
100
AcDbEntity
  8
0
  6
Continuous
 62
     2
100
AcDbPolyline
 90
       11
 70
     0
 43
0.0
 10
400.5149377441
 20
20.7322618103
 10
400.4166540527
 20
20.5780943298
 10
400.2200866699
 20
20.4239268494
 10
400.0235192871
 20
20.5780943298
 10
399.8269775391
 20
20.8864260864
 10
399.8269775391
 20
21.1947610474
 10
400.0235192871
 20
21.503092804
 10
400.2200866699
 20
21.6572602844
 10
400.4166540527
 20
21.503092804
 10
400.5149377441
 20
21.1947610474
 10
399.8269775391
 20
21.1947610474
  0
LWPOLYLINE
  5
334
330
221
100
AcDbEntity
  8
0
  6
Continuous
 62
     2
100
AcDbPolyline
 90
       10
 70
     0
 43
0.0
 10
402.1857092285
 20
20.8864260864
 10
401.9891418457
 20
20.5780943298
 10
401.7926000977
 20
20.4239268494
 10
401.5960327148
 20
20.5780943298
 10
401.399465332
 20
20.8864260864
 10
401.399465332
 20
21.1947610474
 10
401.5960327148
 20
21.503092804
 10
401.7926000977
 20
21.6572602844
 10
401.9891418457
 20
21.503092804
 10
402.1857092285
 20
21.1947610474
  0
LINE
  5
335
330
221
100
AcDbEntity
  8
0
  6
Continuous
 62
     2
100
AcDbLine
 10
402.1857092285
 20
22.273927002
 30
0.0
 11
402.1857092285
 21
20.4239268494
 31
0.0
  0
LWPOLYLINE
  5
336
330
221
100
AcDbEntity
  8
0
  6
Continuous
 62
     2
100
AcDbPolyline
 90
        5
 70
     0
 43
0.0
 10
321.1036889648
 20
18.8822616577
 10
321.3002563477
 20
17.6489282227
 10
321.5950817871
 20
18.8822616577
 10
321.7916491699
 20
17.6489282227
 10
322.0865002441
 20
18.8822616577
  0
LINE
  5
337
330
221
100
AcDbEntity
  8
0
  6
Continuous
 62
     2
100
AcDbLine
 10
323.1675952148
 20
19.4989283752
 30
0.0
 11
323.1675952148
 21
19.3447608948
 31
0.0
  0
LINE
  5
338
330
221
100
AcDbEntity
  8
0
  6
Continuous
 62
     2
100
AcDbLine
 10
323.1675952148
 20
18.8822616577
 30
0.0
 11
323.1675952148
 21
17.6489282227
 31
0.0
  0
LINE
  5
339
330
221
100
AcDbEntity
  8
0
  6
Continuous
 62
     2
100
AcDbLine
 10
324.7400830078
 20
17.6489282227
 30
0.0
 11
324.7400830078
 21
19.4989283752
 31
0.0
  0
LINE
  5
33A
330
221
100
AcDbEntity
  8
0
  6
Continuous
 62
     2
100
AcDbLine
 10
324.4452575684
 20
18.7280941772
 30
0.0
 11
325.034934082
 21
18.7280941772
 31
0.0
  0
LINE
  5
33B
330
221
100
AcDbEntity
  8
0
  6
Continuous
 62
     2
100
AcDbLine
 10
326.0177453613
 20
17.6489282227
 30
0.0
 11
326.0177453613
 21
19.4989283752
 31
0.0
  0
LWPOLYLINE
  5
33C
330
221
100
AcDbEntity
  8
0
  6
Continuous
 62
     2
100
AcDbPolyline
 90
        7
 70
     0
 43
0.0
 10
326.0177453613
 20
18.5739266968
 10
326.0177453613
 20
18.7280941772
 10
326.2143127441
 20
18.8822616577
 10
326.3125964355
 20
18.8822616577
 10
326.410880127
 20
18.8822616577
 10
326.607421875
 20
18.5739266968
 10
326.607421875
 20
17.6489282227
  0
LWPOLYLINE
  5
33D
330
221
100
AcDbEntity
  8
0
  6
Continuous
 62
     2
100
AcDbPolyline
 90
       11
 70
     0
 43
0.0
 10
328.2782189941
 20
18.1114274597
 10
328.0816516113
 20
17.8030924988
 10
327.8850842285
 20
17.6489282227
 10
327.6885168457
 20
17.8030924988
 10
327.4919750977
 20
18.1114274597
 10
327.4919750977
 20
18.4197592163
 10
327.6885168457
 20
18.7280941772
 10
327.8850842285
 20
18.8822616577
 10
328.0816516113
 20
18.7280941772
 10
328.2782189941
 20
18.4197592163
 10
328.2782189941
 20
18.1114274597
  0
LWPOLYLINE
  5
33E
330
221
100
AcDbEntity
  8
0
  6
Continuous
 62
     2
100
AcDbPolyline
 90
        5
 70
     0
 43
0.0
 10
329.162746582
 20
18.8822616577
 10
329.162746582
 20
17.9572599792
 10
329.3593139648
 20
17.6489282227
 10
329.5558813477
 20
17.6489282227
 10
329.7524230957
 20
17.9572599792
  0
LINE
  5
33F
330
221
100
AcDbEntity
  8
0
  6
Continuous
 62
     2
100
AcDbLine
 10
329.7524230957
 20
18.8822616577
 30
0.0
 11
329.7524230957
 21
17.6489282227
 31
0.0
  0
LINE
  5
340
330
221
100
AcDbEntity
  8
0
  6
Continuous
 62
     2
100
AcDbLine
 10
331.0300854492
 20
17.6489282227
 30
0.0
 11
331.0300854492
 21
19.4989283752
 31
0.0
  0
LINE
  5
341
330
221
100
AcDbEntity
  8
0
  6
Continuous
 62
     2
100
AcDbLine
 10
330.735234375
 20
18.7280941772
 30
0.0
 11
331.3249365234
 21
18.7280941772
 31
0.0
  0
LWPOLYLINE
  5
342
330
221
100
AcDbEntity
  8
0
  6
Continuous
 62
     2
100
AcDbPolyline
 90
       10
 70
     0
 43
0.0
 10
333.7819775391
 20
18.4197592163
 10
333.9785192871
 20
18.7280941772
 10
334.1750866699
 20
18.8822616577
 10
334.3716540527
 20
18.7280941772
 10
334.5682214355
 20
18.4197592163
 10
334.5682214355
 20
18.1114274597
 10
334.3716540527
 20
17.8030924988
 10
334.1750866699
 20
17.6489282227
 10
333.9785192871
 20
17.6489282227
 10
333.7819775391
 20
18.1114274597
  0
LINE
  5
343
330
221
100
AcDbEntity
  8
0
  6
Continuous
 62
     2
100
AcDbLine
 10
333.7819775391
 20
18.8822616577
 30
0.0
 11
333.7819775391
 21
17.0322615051
 31
0.0
  0
LINE
  5
344
330
221
100
AcDbEntity
  8
0
  6
Continuous
 62
     2
100
AcDbLine
 10
335.4527490234
 20
17.6489282227
 30
0.0
 11
335.4527490234
 21
18.8822616577
 31
0.0
  0
LWPOLYLINE
  5
345
330
221
100
AcDbEntity
  8
0
  6
Continuous
 62
     2
100
AcDbPolyline
 90
        4
 70
     0
 43
0.0
 10
335.4527490234
 20
18.5739266968
 10
335.6493164062
 20
18.8822616577
 10
335.8458837891
 20
18.8822616577
 10
335.9441418457
 20
18.7280941772
  0
LINE
  5
346
330
221
100
AcDbEntity
  8
0
  6
Continuous
 62
     2
100
AcDbLine
 10
337.3200878906
 20
19.4989283752
 30
0.0
 11
337.3200878906
 21
19.3447608948
 31
0.0
  0
LINE
  5
347
330
221
100
AcDbEntity
  8
0
  6
Continuous
 62
     2
100
AcDbLine
 10
337.3200878906
 20
18.8822616577
 30
0.0
 11
337.3200878906
 21
17.6489282227
 31
0.0
  0
LWPOLYLINE
  5
348
330
221
100
AcDbEntity
  8
0
  6
Continuous
 62
     2
100
AcDbPolyline
 90
       11
 70
     0
 43
0.0
 10
339.2857104492
 20
18.1114274597
 10
339.0891430664
 20
17.8030924988
 10
338.8926013184
 20
17.6489282227
 10
338.6960339355
 20
17.8030924988
 10
338.4994665527
 20
18.1114274597
 10
338.4994665527
 20
18.4197592163
 10
338.6960339355
 20
18.7280941772
 10
338.8926013184
 20
18.8822616577
 10
339.0891430664
 20
18.7280941772
 10
339.2857104492
 20
18.4197592163
 10
339.2857104492
 20
18.1114274597
  0
LINE
  5
349
330
221
100
AcDbEntity
  8
0
  6
Continuous
 62
     2
100
AcDbLine
 10
340.1702380371
 20
17.6489282227
 30
0.0
 11
340.1702380371
 21
18.8822616577
 31
0.0
  0
LWPOLYLINE
  5
34A
330
221
100
AcDbEntity
  8
0
  6
Continuous
 62
     2
100
AcDbPolyline
 90
        4
 70
     0
 43
0.0
 10
340.1702380371
 20
18.5739266968
 10
340.3668054199
 20
18.8822616577
 10
340.5633728027
 20
18.8822616577
 10
340.6616564941
 20
18.7280941772
  0
LWPOLYLINE
  5
34B
330
221
100
AcDbEntity
  8
0
  6
Continuous
 62
     2
100
AcDbPolyline
 90
       10
 70
     0
 43
0.0
 10
344.0032250977
 20
18.1114274597
 10
343.8066577148
 20
17.8030924988
 10
343.610090332
 20
17.6489282227
 10
343.4135229492
 20
17.8030924988
 10
343.2169555664
 20
18.1114274597
 10
343.2169555664
 20
18.4197592163
 10
343.4135229492
 20
18.7280941772
 10
343.610090332
 20
18.8822616577
 10
343.8066577148
 20
18.7280941772
 10
344.0032250977
 20
18.4197592163
  0
LINE
  5
34C
330
221
100
AcDbEntity
  8
0
  6
Continuous
 62
     2
100
AcDbLine
 10
344.0032250977
 20
18.8822616577
 30
0.0
 11
344.0032250977
 21
17.6489282227
 31
0.0
  0
LWPOLYLINE
  5
34D
330
221
100
AcDbEntity
  8
0
  6
Continuous
 62
     2
100
AcDbPolyline
 90
        5
 70
     0
 43
0.0
 10
344.8877526855
 20
18.8822616577
 10
344.8877526855
 20
17.9572599792
 10
345.0843200684
 20
17.6489282227
 10
345.2808618164
 20
17.6489282227
 10
345.4774291992
 20
17.9572599792
  0
LINE
  5
34E
330
221
100
AcDbEntity
  8
0
  6
Continuous
 62
     2
100
AcDbLine
 10
345.4774291992
 20
18.8822616577
 30
0.0
 11
345.4774291992
 21
17.6489282227
 31
0.0
  0
LINE
  5
34F
330
221
100
AcDbEntity
  8
0
  6
Continuous
 62
     2
100
AcDbLine
 10
346.7550915527
 20
17.6489282227
 30
0.0
 11
346.7550915527
 21
19.4989283752
 31
0.0
  0
LINE
  5
350
330
221
100
AcDbEntity
  8
0
  6
Continuous
 62
     2
100
AcDbLine
 10
346.4602404785
 20
18.7280941772
 30
0.0
 11
347.049942627
 21
18.7280941772
 31
0.0
  0
LINE
  5
351
330
221
100
AcDbEntity
  8
0
  6
Continuous
 62
     2
100
AcDbLine
 10
348.0327539062
 20
17.6489282227
 30
0.0
 11
348.0327539062
 21
19.4989283752
 31
0.0
  0
LWPOLYLINE
  5
352
330
221
100
AcDbEntity
  8
0
  6
Continuous
 62
     2
100
AcDbPolyline
 90
        7
 70
     0
 43
0.0
 10
348.0327539062
 20
18.5739266968
 10
348.0327539062
 20
18.7280941772
 10
348.2293212891
 20
18.8822616577
 10
348.3275793457
 20
18.8822616577
 10
348.4258630371
 20
18.8822616577
 10
348.6224304199
 20
18.5739266968
 10
348.6224304199
 20
17.6489282227
  0
LWPOLYLINE
  5
353
330
221
100
AcDbEntity
  8
0
  6
Continuous
 62
     2
100
AcDbPolyline
 90
       11
 70
     0
 43
0.0
 10
350.2932275391
 20
18.1114274597
 10
350.0966601562
 20
17.8030924988
 10
349.9000927734
 20
17.6489282227
 10
349.7035253906
 20
17.8030924988
 10
349.5069580078
 20
18.1114274597
 10
349.5069580078
 20
18.4197592163
 10
349.7035253906
 20
18.7280941772
 10
349.9000927734
 20
18.8822616577
 10
350.0966601562
 20
18.7280941772
 10
350.2932275391
 20
18.4197592163
 10
350.2932275391
 20
18.1114274597
  0
LINE
  5
354
330
221
100
AcDbEntity
  8
0
  6
Continuous
 62
     2
100
AcDbLine
 10
351.177755127
 20
17.6489282227
 30
0.0
 11
351.177755127
 21
18.8822616577
 31
0.0
  0
LWPOLYLINE
  5
355
330
221
100
AcDbEntity
  8
0
  6
Continuous
 62
     2
100
AcDbPolyline
 90
        4
 70
     0
 43
0.0
 10
351.177755127
 20
18.5739266968
 10
351.374296875
 20
18.8822616577
 10
351.5708642578
 20
18.8822616577
 10
351.6691479492
 20
18.7280941772
  0
LINE
  5
356
330
221
100
AcDbEntity
  8
0
  6
Continuous
 62
     2
100
AcDbLine
 10
353.0450939941
 20
19.4989283752
 30
0.0
 11
353.0450939941
 21
19.3447608948
 31
0.0
  0
LINE
  5
357
330
221
100
AcDbEntity
  8
0
  6
Continuous
 62
     2
100
AcDbLine
 10
353.0450939941
 20
18.8822616577
 30
0.0
 11
353.0450939941
 21
17.6489282227
 31
0.0
  0
LWPOLYLINE
  5
358
330
221
100
AcDbEntity
  8
0
  6
Continuous
 62
     2
100
AcDbPolyline
 90
       14
 70
     0
 43
0.0
 10
354.8141491699
 20
18.7280941772
 10
354.7158654785
 20
18.8822616577
 10
354.5192980957
 20
18.8822616577
 10
354.4210400391
 20
18.7280941772
 10
354.4210400391
 20
18.5739266968
 10
354.6175817871
 20
18.4197592163
 10
354.8141491699
 20
18.2655949402
 10
354.9124328613
 20
18.1114274597
 10
354.9124328613
 20
17.9572599792
 10
354.8141491699
 20
17.8030924988
 10
354.7158654785
 20
17.6489282227
 10
354.5192980957
 20
17.6489282227
 10
354.4210400391
 20
17.8030924988
 10
354.3227563477
 20
17.9572599792
  0
LWPOLYLINE
  5
359
330
221
100
AcDbEntity
  8
0
  6
Continuous
 62
     2
100
AcDbPolyline
 90
       10
 70
     0
 43
0.0
 10
356.5832043457
 20
18.1114274597
 10
356.3866625977
 20
17.8030924988
 10
356.1900952148
 20
17.6489282227
 10
355.993527832
 20
17.8030924988
 10
355.7969604492
 20
18.1114274597
 10
355.7969604492
 20
18.4197592163
 10
355.993527832
 20
18.7280941772
 10
356.1900952148
 20
18.8822616577
 10
356.3866625977
 20
18.7280941772
 10
356.5832043457
 20
18.4197592163
  0
LINE
  5
35A
330
221
100
AcDbEntity
  8
0
  6
Continuous
 62
     2
100
AcDbLine
 10
356.5832043457
 20
18.8822616577
 30
0.0
 11
356.5832043457
 21
17.6489282227
 31
0.0
  0
LINE
  5
35B
330
221
100
AcDbEntity
  8
0
  6
Continuous
 62
     2
100
AcDbLine
 10
357.7625830078
 20
17.6489282227
 30
0.0
 11
357.7625830078
 21
19.4989283752
 31
0.0
  0
LINE
  5
35C
330
221
100
AcDbEntity
  8
0
  6
Continuous
 62
     2
100
AcDbLine
 10
357.4677575684
 20
18.7280941772
 30
0.0
 11
358.057434082
 21
18.7280941772
 31
0.0
  0
LINE
  5
35D
330
221
100
AcDbEntity
  8
0
  6
Continuous
 62
     2
100
AcDbLine
 10
359.3350964355
 20
19.4989283752
 30
0.0
 11
359.3350964355
 21
19.3447608948
 31
0.0
  0
LINE
  5
35E
330
221
100
AcDbEntity
  8
0
  6
Continuous
 62
     2
100
AcDbLine
 10
359.3350964355
 20
18.8822616577
 30
0.0
 11
359.3350964355
 21
17.6489282227
 31
0.0
  0
LWPOLYLINE
  5
35F
330
221
100
AcDbEntity
  8
0
  6
Continuous
 62
     2
100
AcDbPolyline
 90
       11
 70
     0
 43
0.0
 10
361.3007189941
 20
18.1114274597
 10
361.1041516113
 20
17.8030924988
 10
360.9075842285
 20
17.6489282227
 10
360.7110168457
 20
17.8030924988
 10
360.5144750977
 20
18.1114274597
 10
360.5144750977
 20
18.4197592163
 10
360.7110168457
 20
18.7280941772
 10
360.9075842285
 20
18.8822616577
 10
361.1041516113
 20
18.7280941772
 10
361.3007189941
 20
18.4197592163
 10
361.3007189941
 20
18.1114274597
  0
LINE
  5
360
330
221
100
AcDbEntity
  8
0
  6
Continuous
 62
     2
100
AcDbLine
 10
362.185246582
 20
17.6489282227
 30
0.0
 11
362.185246582
 21
18.8822616577
 31
0.0
  0
LWPOLYLINE
  5
361
330
221
100
AcDbEntity
  8
0
  6
Continuous
 62
     2
100
AcDbPolyline
 90
        5
 70
     0
 43
0.0
 10
362.185246582
 20
18.5739266968
 10
362.3818139648
 20
18.8822616577
 10
362.5783813477
 20
18.8822616577
 10
362.7749230957
 20
18.5739266968
 10
362.7749230957
 20
17.6489282227
  0
LWPOLYLINE
  5
362
330
221
100
AcDbEntity
  8
0
  6
Continuous
 62
     2
100
AcDbPolyline
 90
       11
 70
     0
 43
0.0
 10
366.0182080078
 20
18.1114274597
 10
365.821640625
 20
17.8030924988
 10
365.625098877
 20
17.6489282227
 10
365.4285314941
 20
17.8030924988
 10
365.2319641113
 20
18.1114274597
 10
365.2319641113
 20
18.4197592163
 10
365.4285314941
 20
18.7280941772
 10
365.625098877
 20
18.8822616577
 10
365.821640625
 20
18.7280941772
 10
366.0182080078
 20
18.4197592163
 10
366.0182080078
 20
18.1114274597
  0
LWPOLYLINE
  5
363
330
221
100
AcDbEntity
  8
0
  6
Continuous
 62
     2
100
AcDbPolyline
 90
        5
 70
     0
 43
0.0
 10
367.1975866699
 20
17.6489282227
 10
367.1975866699
 20
19.1905934143
 10
367.3941540527
 20
19.4989283752
 10
367.4924377441
 20
19.4989283752
 10
367.5907214355
 20
19.3447608948
  0
LINE
  5
364
330
221
100
AcDbEntity
  8
0
  6
Continuous
 62
     2
100
AcDbLine
 10
367.0010192871
 20
18.7280941772
 30
0.0
 11
367.3941540527
 21
18.7280941772
 31
0.0
  0
LWPOLYLINE
  5
365
330
221
100
AcDbEntity
  8
0
  6
Continuous
 62
     2
100
AcDbPolyline
 90
        3
 70
     0
 43
0.0
 10
369.949453125
 20
19.4989283752
 10
369.949453125
 20
17.6489282227
 10
370.7357226563
 20
17.6489282227
  0
LWPOLYLINE
  5
366
330
221
100
AcDbEntity
  8
0
  6
Continuous
 62
     2
100
AcDbPolyline
 90
       19
 70
     0
 43
0.0
 10
373.9790075684
 20
18.1114274597
 10
373.880723877
 20
17.9572599792
 10
373.7824401855
 20
17.8030924988
 10
373.5858728027
 20
17.6489282227
 10
373.3893054199
 20
17.6489282227
 10
373.1927380371
 20
17.8030924988
 10
373.0944543457
 20
17.9572599792
 10
373.0944543457
 20
18.2655949402
 10
373.4875891113
 20
18.7280941772
 10
373.6841564941
 20
19.0364259338
 10
373.6841564941
 20
19.3447608948
 10
373.5858728027
 20
19.4989283752
 10
373.3893054199
 20
19.4989283752
 10
373.2910217285
 20
19.3447608948
 10
373.2910217285
 20
19.0364259338
 10
373.4875891113
 20
18.7280941772
 10
373.880723877
 20
17.9572599792
 10
373.9790075684
 20
17.8030924988
 10
374.077265625
 20
17.8030924988
  0
LWPOLYLINE
  5
367
330
221
100
AcDbEntity
  8
0
  6
Continuous
 62
     2
100
AcDbPolyline
 90
        3
 70
     0
 43
0.0
 10
376.2394555664
 20
19.4989283752
 10
376.2394555664
 20
17.6489282227
 10
377.0257250977
 20
17.6489282227
  0
LWPOLYLINE
  5
368
330
221
100
AcDbEntity
  8
0
  6
Continuous
 62
     2
100
AcDbPolyline
 90
        3
 70
     0
 43
0.0
 10
379.3844567871
 20
19.4989283752
 10
379.3844567871
 20
17.6489282227
 10
380.1707263184
 20
17.6489282227
  0
LWPOLYLINE
  5
369
330
221
100
AcDbEntity
  8
0
  6
Continuous
 62
     2
100
AcDbPolyline
 90
        5
 70
     0
 43
0.0
 10
381.0552539062
 20
18.8822616577
 10
381.0552539062
 20
17.9572599792
 10
381.2518212891
 20
17.6489282227
 10
381.4483630371
 20
17.6489282227
 10
381.6449304199
 20
17.9572599792
  0
LINE
  5
36A
330
221
100
AcDbEntity
  8
0
  6
Continuous
 62
     2
100
AcDbLine
 10
381.6449304199
 20
18.8822616577
 30
0.0
 11
381.6449304199
 21
17.6489282227
 31
0.0
  0
LWPOLYLINE
  5
36B
330
221
100
AcDbEntity
  8
0
  6
Continuous
 62
     2
100
AcDbPolyline
 90
        8
 70
     0
 43
0.0
 10
383.1191601562
 20
17.8030924988
 10
382.9225927734
 20
17.6489282227
 10
382.7260253906
 20
17.8030924988
 10
382.5294580078
 20
18.1114274597
 10
382.5294580078
 20
18.4197592163
 10
382.7260253906
 20
18.7280941772
 10
382.9225927734
 20
18.8822616577
 10
383.1191601562
 20
18.7280941772
  0
LWPOLYLINE
  5
36C
330
221
100
AcDbEntity
  8
0
  6
Continuous
 62
     2
100
AcDbPolyline
 90
       11
 70
     0
 43
0.0
 10
384.7899316406
 20
17.9572599792
 10
384.6916479492
 20
17.8030924988
 10
384.4950805664
 20
17.6489282227
 10
384.2985388184
 20
17.8030924988
 10
384.1019714355
 20
18.1114274597
 10
384.1019714355
 20
18.4197592163
 10
384.2985388184
 20
18.7280941772
 10
384.4950805664
 20
18.8822616577
 10
384.6916479492
 20
18.7280941772
 10
384.7899316406
 20
18.4197592163
 10
384.1019714355
 20
18.4197592163
  0
LWPOLYLINE
  5
36D
330
221
100
AcDbEntity
  8
0
  6
Continuous
 62
     2
100
AcDbPolyline
 90
       19
 70
     0
 43
0.0
 10
388.1315002441
 20
18.1114274597
 10
388.0332165527
 20
17.9572599792
 10
387.9349328613
 20
17.8030924988
 10
387.7383654785
 20
17.6489282227
 10
387.5417980957
 20
17.6489282227
 10
387.3452563477
 20
17.8030924988
 10
387.2469726562
 20
17.9572599792
 10
387.2469726562
 20
18.2655949402
 10
387.6400817871
 20
18.7280941772
 10
387.8366491699
 20
19.0364259338
 10
387.8366491699
 20
19.3447608948
 10
387.7383654785
 20
19.4989283752
 10
387.5417980957
 20
19.4989283752
 10
387.4435400391
 20
19.3447608948
 10
387.4435400391
 20
19.0364259338
 10
387.6400817871
 20
18.7280941772
 10
388.0332165527
 20
17.9572599792
 10
388.1315002441
 20
17.8030924988
 10
388.2297839355
 20
17.8030924988
  0
LWPOLYLINE
  5
36E
330
221
100
AcDbEntity
  8
0
  6
Continuous
 62
     2
100
AcDbPolyline
 90
        3
 70
     0
 43
0.0
 10
390.391973877
 20
19.4989283752
 10
390.391973877
 20
17.6489282227
 10
391.1782177734
 20
17.6489282227
  0
LINE
  5
36F
330
221
100
AcDbEntity
  8
0
  6
Continuous
 62
     2
100
AcDbLine
 10
392.3575964355
 20
19.4989283752
 30
0.0
 11
392.3575964355
 21
19.3447608948
 31
0.0
  0
LINE
  5
370
330
221
100
AcDbEntity
  8
0
  6
Continuous
 62
     2
100
AcDbLine
 10
392.3575964355
 20
18.8822616577
 30
0.0
 11
392.3575964355
 21
17.6489282227
 31
0.0
  0
LWPOLYLINE
  5
371
330
221
100
AcDbEntity
  8
0
  6
Continuous
 62
     2
100
AcDbPolyline
 90
       10
 70
     0
 43
0.0
 10
394.3232189941
 20
18.1114274597
 10
394.1266516113
 20
17.8030924988
 10
393.9300842285
 20
17.6489282227
 10
393.7335168457
 20
17.8030924988
 10
393.5369750977
 20
18.1114274597
 10
393.5369750977
 20
18.4197592163
 10
393.7335168457
 20
18.7280941772
 10
393.9300842285
 20
18.8822616577
 10
394.1266516113
 20
18.7280941772
 10
394.3232189941
 20
18.4197592163
  0
LWPOLYLINE
  5
372
330
221
100
AcDbEntity
  8
0
  6
Continuous
 62
     2
100
AcDbPolyline
 90
        6
 70
     0
 43
0.0
 10
394.3232189941
 20
18.8822616577
 10
394.3232189941
 20
17.4947607422
 10
394.2249353027
 20
17.1864257812
 10
394.1266516113
 20
17.0322615051
 10
393.7335168457
 20
17.0322615051
 10
393.6352587891
 20
17.1864257812
  0
LINE
  5
373
330
221
100
AcDbEntity
  8
0
  6
Continuous
 62
     2
100
AcDbLine
 10
395.207746582
 20
17.6489282227
 30
0.0
 11
395.207746582
 21
19.4989283752
 31
0.0
  0
LWPOLYLINE
  5
374
330
221
100
AcDbEntity
  8
0
  6
Continuous
 62
     2
100
AcDbPolyline
 90
        7
 70
     0
 43
0.0
 10
395.207746582
 20
18.5739266968
 10
395.207746582
 20
18.7280941772
 10
395.4043139648
 20
18.8822616577
 10
395.5025976562
 20
18.8822616577
 10
395.6008813477
 20
18.8822616577
 10
395.7974230957
 20
18.5739266968
 10
395.7974230957
 20
17.6489282227
  0
LINE
  5
375
330
221
100
AcDbEntity
  8
0
  6
Continuous
 62
     2
100
AcDbLine
 10
397.0750854492
 20
17.6489282227
 30
0.0
 11
397.0750854492
 21
19.4989283752
 31
0.0
  0
LINE
  5
376
330
221
100
AcDbEntity
  8
0
  6
Continuous
 62
     2
100
AcDbLine
 10
396.780234375
 20
18.7280941772
 30
0.0
 11
397.3699365234
 21
18.7280941772
 31
0.0
  0
LWPOLYLINE
  5
377
330
221
100
AcDbEntity
  8
0
  6
Continuous
 62
     2
100
AcDbPolyline
 90
       14
 70
     0
 43
0.0
 10
400.4166540527
 20
18.7280941772
 10
400.3183703613
 20
18.8822616577
 10
400.1218029785
 20
18.8822616577
 10
400.0235192871
 20
18.7280941772
 10
400.0235192871
 20
18.5739266968
 10
400.2200866699
 20
18.4197592163
 10
400.4166540527
 20
18.2655949402
 10
400.5149377441
 20
18.1114274597
 10
400.5149377441
 20
17.9572599792
 10
400.4166540527
 20
17.8030924988
 10
400.3183703613
 20
17.6489282227
 10
400.1218029785
 20
17.6489282227
 10
400.0235192871
 20
17.8030924988
 10
399.9252355957
 20
17.9572599792
  0
LWPOLYLINE
  5
378
330
221
100
AcDbEntity
  8
0
  6
Continuous
 62
     2
100
AcDbPolyline
 90
        4
 70
     0
 43
0.0
 10
401.7926000977
 20
17.6489282227
 10
401.6943164062
 20
17.6489282227
 10
401.6943164062
 20
17.8030924988
 10
401.7926000977
 20
17.6489282227
  0
LINE
  5
379
330
221
100
AcDbEntity
  8
0
  6
Continuous
 62
     2
100
AcDbLine
 10
403.0702368164
 20
17.6489282227
 30
0.0
 11
403.0702368164
 21
18.8822616577
 31
0.0
  0
LWPOLYLINE
  5
37A
330
221
100
AcDbEntity
  8
0
  6
Continuous
 62
     2
100
AcDbPolyline
 90
        4
 70
     0
 43
0.0
 10
403.0702368164
 20
18.5739266968
 10
403.2668041992
 20
18.8822616577
 10
403.463371582
 20
18.8822616577
 10
403.5616552734
 20
18.7280941772
  0
LWPOLYLINE
  5
37B
330
221
100
AcDbEntity
  8
0
  6
Continuous
 62
     2
100
AcDbPolyline
 90
        4
 70
     0
 43
0.0
 10
404.9376013184
 20
17.6489282227
 10
404.839317627
 20
17.6489282227
 10
404.839317627
 20
17.8030924988
 10
404.9376013184
 20
17.6489282227
  0
LINE
  5
37C
330
221
100
AcDbEntity
  8
0
  6
Continuous
 62
     2
100
AcDbLine
 10
406.5100891113
 20
17.6489282227
 30
0.0
 11
406.5100891113
 21
19.4989283752
 31
0.0
  0
LWPOLYLINE
  5
37D
330
221
100
AcDbEntity
  8
0
  6
Continuous
 62
     2
100
AcDbPolyline
 90
        4
 70
     0
 43
0.0
 10
408.0826025391
 20
17.6489282227
 10
407.9843188477
 20
17.6489282227
 10
407.9843188477
 20
17.8030924988
 10
408.0826025391
 20
17.6489282227
  0
LWPOLYLINE
  5
37E
330
221
100
AcDbEntity
  8
0
  6
Continuous
 62
     2
100
AcDbPolyline
 90
        5
 70
     0
 43
0.0
 10
409.655090332
 20
17.6489282227
 10
409.5568066406
 20
17.8030924988
 10
409.655090332
 20
17.8030924988
 10
409.655090332
 20
17.6489282227
 10
409.4585229492
 20
17.3405932617
  0
LINE
  5
37F
330
221
100
AcDbEntity
  8
0
  6
Continuous
 62
     2
100
AcDbLine
 10
321.5950817871
 20
16.7239265442
 30
0.0
 11
321.5950817871
 21
16.5697590637
 31
0.0
  0
LINE
  5
380
330
221
100
AcDbEntity
  8
0
  6
Continuous
 62
     2
100
AcDbLine
 10
321.5950817871
 20
16.1072598267
 30
0.0
 11
321.5950817871
 21
14.8739263916
 31
0.0
  0
LINE
  5
381
330
221
100
AcDbEntity
  8
0
  6
Continuous
 62
     2
100
AcDbLine
 10
322.8727441406
 20
14.8739263916
 30
0.0
 11
322.8727441406
 21
16.1072598267
 31
0.0
  0
LWPOLYLINE
  5
382
330
221
100
AcDbEntity
  8
0
  6
Continuous
 62
     2
100
AcDbPolyline
 90
        5
 70
     0
 43
0.0
 10
322.8727441406
 20
15.7989280701
 10
323.0693115234
 20
16.1072598267
 10
323.2658789063
 20
16.1072598267
 10
323.4624462891
 20
15.7989280701
 10
323.4624462891
 20
14.8739263916
  0
LWPOLYLINE
  5
383
330
221
100
AcDbEntity
  8
0
  6
Continuous
 62
     2
100
AcDbPolyline
 90
       10
 70
     0
 43
0.0
 10
326.7057055664
 20
15.3364256287
 10
326.5091638184
 20
15.0280938721
 10
326.3125964355
 20
14.8739263916
 10
326.1160290527
 20
15.0280938721
 10
325.9194616699
 20
15.3364256287
 10
325.9194616699
 20
15.6447605896
 10
326.1160290527
 20
15.9530923462
 10
326.3125964355
 20
16.1072598267
 10
326.5091638184
 20
15.9530923462
 10
326.7057055664
 20
15.6447605896
  0
LINE
  5
384
330
221
100
AcDbEntity
  8
0
  6
Continuous
 62
     2
100
AcDbLine
 10
326.7057055664
 20
16.1072598267
 30
0.0
 11
326.7057055664
 21
14.8739263916
 31
0.0
  0
LWPOLYLINE
  5
385
330
221
100
AcDbEntity
  8
0
  6
Continuous
 62
     2
100
AcDbPolyline
 90
        8
 70
     0
 43
0.0
 10
328.0816516113
 20
15.0280938721
 10
327.8850842285
 20
14.8739263916
 10
327.6885168457
 20
15.0280938721
 10
327.4919750977
 20
15.3364256287
 10
327.4919750977
 20
15.6447605896
 10
327.6885168457
 20
15.9530923462
 10
327.8850842285
 20
16.1072598267
 10
328.0816516113
 20
15.9530923462
  0
LWPOLYLINE
  5
386
330
221
100
AcDbEntity
  8
0
  6
Continuous
 62
     2
100
AcDbPolyline
 90
        8
 70
     0
 43
0.0
 10
329.6541650391
 20
15.0280938721
 10
329.4575976563
 20
14.8739263916
 10
329.2610302734
 20
15.0280938721
 10
329.0644628906
 20
15.3364256287
 10
329.0644628906
 20
15.6447605896
 10
329.2610302734
 20
15.9530923462
 10
329.4575976563
 20
16.1072598267
 10
329.6541650391
 20
15.9530923462
  0
LWPOLYLINE
  5
387
330
221
100
AcDbEntity
  8
0
  6
Continuous
 62
     2
100
AcDbPolyline
 90
       11
 70
     0
 43
0.0
 10
331.4232202148
 20
15.3364256287
 10
331.226652832
 20
15.0280938721
 10
331.0300854492
 20
14.8739263916
 10
330.8335180664
 20
15.0280938721
 10
330.6369763184
 20
15.3364256287
 10
330.6369763184
 20
15.6447605896
 10
330.8335180664
 20
15.9530923462
 10
331.0300854492
 20
16.1072598267
 10
331.226652832
 20
15.9530923462
 10
331.4232202148
 20
15.6447605896
 10
331.4232202148
 20
15.3364256287
  0
LINE
  5
388
330
221
100
AcDbEntity
  8
0
  6
Continuous
 62
     2
100
AcDbLine
 10
332.3077478027
 20
14.8739263916
 30
0.0
 11
332.3077478027
 21
16.1072598267
 31
0.0
  0
LWPOLYLINE
  5
389
330
221
100
AcDbEntity
  8
0
  6
Continuous
 62
     2
100
AcDbPolyline
 90
        4
 70
     0
 43
0.0
 10
332.3077478027
 20
15.7989280701
 10
332.5043151855
 20
16.1072598267
 10
332.7008825684
 20
16.1072598267
 10
332.799140625
 20
15.9530923462
  0
LWPOLYLINE
  5
38A
330
221
100
AcDbEntity
  8
0
  6
Continuous
 62
     2
100
AcDbPolyline
 90
       10
 70
     0
 43
0.0
 10
334.5682214355
 20
15.3364256287
 10
334.3716540527
 20
15.0280938721
 10
334.1750866699
 20
14.8739263916
 10
333.9785192871
 20
15.0280938721
 10
333.7819775391
 20
15.3364256287
 10
333.7819775391
 20
15.6447605896
 10
333.9785192871
 20
15.9530923462
 10
334.1750866699
 20
16.1072598267
 10
334.3716540527
 20
15.9530923462
 10
334.5682214355
 20
15.6447605896
  0
LINE
  5
38B
330
221
100
AcDbEntity
  8
0
  6
Continuous
 62
     2
100
AcDbLine
 10
334.5682214355
 20
16.7239265442
 30
0.0
 11
334.5682214355
 21
14.8739263916
 31
0.0
  0
LWPOLYLINE
  5
38C
330
221
100
AcDbEntity
  8
0
  6
Continuous
 62
     2
100
AcDbPolyline
 90
       10
 70
     0
 43
0.0
 10
336.1407092285
 20
15.3364256287
 10
335.9441418457
 20
15.0280938721
 10
335.7476000977
 20
14.8739263916
 10
335.5510327148
 20
15.0280938721
 10
335.354465332
 20
15.3364256287
 10
335.354465332
 20
15.6447605896
 10
335.5510327148
 20
15.9530923462
 10
335.7476000977
 20
16.1072598267
 10
335.9441418457
 20
15.9530923462
 10
336.1407092285
 20
15.6447605896
  0
LINE
  5
38D
330
221
100
AcDbEntity
  8
0
  6
Continuous
 62
     2
100
AcDbLine
 10
336.1407092285
 20
16.1072598267
 30
0.0
 11
336.1407092285
 21
14.8739263916
 31
0.0
  0
LINE
  5
38E
330
221
100
AcDbEntity
  8
0
  6
Continuous
 62
     2
100
AcDbLine
 10
337.0252368164
 20
14.8739263916
 30
0.0
 11
337.0252368164
 21
16.1072598267
 31
0.0
  0
LWPOLYLINE
  5
38F
330
221
100
AcDbEntity
  8
0
  6
Continuous
 62
     2
100
AcDbPolyline
 90
        5
 70
     0
 43
0.0
 10
337.0252368164
 20
15.7989280701
 10
337.2218041992
 20
16.1072598267
 10
337.418371582
 20
16.1072598267
 10
337.6149389648
 20
15.7989280701
 10
337.6149389648
 20
14.8739263916
  0
LWPOLYLINE
  5
390
330
221
100
AcDbEntity
  8
0
  6
Continuous
 62
     2
100
AcDbPolyline
 90
        8
 70
     0
 43
0.0
 10
339.0891430664
 20
15.0280938721
 10
338.8926013184
 20
14.8739263916
 10
338.6960339355
 20
15.0280938721
 10
338.4994665527
 20
15.3364256287
 10
338.4994665527
 20
15.6447605896
 10
338.6960339355
 20
15.9530923462
 10
338.8926013184
 20
16.1072598267
 10
339.0891430664
 20
15.9530923462
  0
LWPOLYLINE
  5
391
330
221
100
AcDbEntity
  8
0
  6
Continuous
 62
     2
100
AcDbPolyline
 90
       11
 70
     0
 43
0.0
 10
340.7599401855
 20
15.1822613525
 10
340.6616564941
 20
15.0280938721
 10
340.4650891113
 20
14.8739263916
 10
340.2685217285
 20
15.0280938721
 10
340.0719543457
 20
15.3364256287
 10
340.0719543457
 20
15.6447605896
 10
340.2685217285
 20
15.9530923462
 10
340.4650891113
 20
16.1072598267
 10
340.6616564941
 20
15.9530923462
 10
340.7599401855
 20
15.6447605896
 10
340.0719543457
 20
15.6447605896
  0
LWPOLYLINE
  5
392
330
221
100
AcDbEntity
  8
0
  6
Continuous
 62
     2
100
AcDbPolyline
 90
        5
 70
     0
 43
0.0
 10
343.118671875
 20
16.1072598267
 10
343.3152392578
 20
14.8739263916
 10
343.610090332
 20
16.1072598267
 10
343.8066577148
 20
14.8739263916
 10
344.1015087891
 20
16.1072598267
  0
LINE
  5
393
330
221
100
AcDbEntity
  8
0
  6
Continuous
 62
     2
100
AcDbLine
 10
345.182578125
 20
16.7239265442
 30
0.0
 11
345.182578125
 21
16.5697590637
 31
0.0
  0
LINE
  5
394
330
221
100
AcDbEntity
  8
0
  6
Continuous
 62
     2
100
AcDbLine
 10
345.182578125
 20
16.1072598267
 30
0.0
 11
345.182578125
 21
14.8739263916
 31
0.0
  0
LINE
  5
395
330
221
100
AcDbEntity
  8
0
  6
Continuous
 62
     2
100
AcDbLine
 10
346.7550915527
 20
14.8739263916
 30
0.0
 11
346.7550915527
 21
16.7239265442
 31
0.0
  0
LINE
  5
396
330
221
100
AcDbEntity
  8
0
  6
Continuous
 62
     2
100
AcDbLine
 10
346.4602404785
 20
15.9530923462
 30
0.0
 11
347.049942627
 21
15.9530923462
 31
0.0
  0
LINE
  5
397
330
221
100
AcDbEntity
  8
0
  6
Continuous
 62
     2
100
AcDbLine
 10
348.0327539062
 20
14.8739263916
 30
0.0
 11
348.0327539062
 21
16.7239265442
 31
0.0
  0
LWPOLYLINE
  5
398
330
221
100
AcDbEntity
  8
0
  6
Continuous
 62
     2
100
AcDbPolyline
 90
        7
 70
     0
 43
0.0
 10
348.0327539062
 20
15.7989280701
 10
348.0327539062
 20
15.9530923462
 10
348.2293212891
 20
16.1072598267
 10
348.3275793457
 20
16.1072598267
 10
348.4258630371
 20
16.1072598267
 10
348.6224304199
 20
15.7989280701
 10
348.6224304199
 20
14.8739263916
  0
LINE
  5
399
330
221
100
AcDbEntity
  8
0
  6
Continuous
 62
     2
100
AcDbLine
 10
351.4725805664
 20
14.8739263916
 30
0.0
 11
351.4725805664
 21
16.7239265442
 31
0.0
  0
LINE
  5
39A
330
221
100
AcDbEntity
  8
0
  6
Continuous
 62
     2
100
AcDbLine
 10
351.177755127
 20
15.9530923462
 30
0.0
 11
351.7674316406
 21
15.9530923462
 31
0.0
  0
LINE
  5
39B
330
221
100
AcDbEntity
  8
0
  6
Continuous
 62
     2
100
AcDbLine
 10
352.7502429199
 20
14.8739263916
 30
0.0
 11
352.7502429199
 21
16.7239265442
 31
0.0
  0
LWPOLYLINE
  5
39C
330
221
100
AcDbEntity
  8
0
  6
Continuous
 62
     2
100
AcDbPolyline
 90
        7
 70
     0
 43
0.0
 10
352.7502429199
 20
15.7989280701
 10
352.7502429199
 20
15.9530923462
 10
352.9468103027
 20
16.1072598267
 10
353.0450939941
 20
16.1072598267
 10
353.1433776855
 20
16.1072598267
 10
353.3399450684
 20
15.7989280701
 10
353.3399450684
 20
14.8739263916
  0
LWPOLYLINE
  5
39D
330
221
100
AcDbEntity
  8
0
  6
Continuous
 62
     2
100
AcDbPolyline
 90
       11
 70
     0
 43
0.0
 10
354.9124328613
 20
15.1822613525
 10
354.8141491699
 20
15.0280938721
 10
354.6175817871
 20
14.8739263916
 10
354.4210400391
 20
15.0280938721
 10
354.2244726562
 20
15.3364256287
 10
354.2244726562
 20
15.6447605896
 10
354.4210400391
 20
15.9530923462
 10
354.6175817871
 20
16.1072598267
 10
354.8141491699
 20
15.9530923462
 10
354.9124328613
 20
15.6447605896
 10
354.2244726562
 20
15.6447605896
  0
LINE
  5
39E
330
221
100
AcDbEntity
  8
0
  6
Continuous
 62
     2
100
AcDbLine
 10
357.7625830078
 20
14.8739263916
 30
0.0
 11
357.7625830078
 21
16.7239265442
 31
0.0
  0
LWPOLYLINE
  5
39F
330
221
100
AcDbEntity
  8
0
  6
Continuous
 62
     2
100
AcDbPolyline
 90
       10
 70
     0
 43
0.0
 10
359.7282055664
 20
15.3364256287
 10
359.5316638184
 20
15.0280938721
 10
359.3350964355
 20
14.8739263916
 10
359.1385290527
 20
15.0280938721
 10
358.9419616699
 20
15.3364256287
 10
358.9419616699
 20
15.6447605896
 10
359.1385290527
 20
15.9530923462
 10
359.3350964355
 20
16.1072598267
 10
359.5316638184
 20
15.9530923462
 10
359.7282055664
 20
15.6447605896
  0
LINE
  5
3A0
330
221
100
AcDbEntity
  8
0
  6
Continuous
 62
     2
100
AcDbLine
 10
359.7282055664
 20
16.1072598267
 30
0.0
 11
359.7282055664
 21
14.8739263916
 31
0.0
  0
LWPOLYLINE
  5
3A1
330
221
100
AcDbEntity
  8
0
  6
Continuous
 62
     2
100
AcDbPolyline
 90
        5
 70
     0
 43
0.0
 10
360.4161914062
 20
16.1072598267
 10
360.6127587891
 20
14.8739263916
 10
360.9075842285
 20
16.1072598267
 10
361.1041516113
 20
14.8739263916
 10
361.3990026855
 20
16.1072598267
  0
LINE
  5
3A2
330
221
100
AcDbEntity
  8
0
  6
Continuous
 62
     2
100
AcDbLine
 10
364.0525854492
 20
16.7239265442
 30
0.0
 11
364.0525854492
 21
16.5697590637
 31
0.0
  0
LINE
  5
3A3
330
221
100
AcDbEntity
  8
0
  6
Continuous
 62
     2
100
AcDbLine
 10
364.0525854492
 20
16.1072598267
 30
0.0
 11
364.0525854492
 21
14.8739263916
 31
0.0
  0
LINE
  5
3A4
330
221
100
AcDbEntity
  8
0
  6
Continuous
 62
     2
100
AcDbLine
 10
365.3302478027
 20
14.8739263916
 30
0.0
 11
365.3302478027
 21
16.1072598267
 31
0.0
  0
LWPOLYLINE
  5
3A5
330
221
100
AcDbEntity
  8
0
  6
Continuous
 62
     2
100
AcDbPolyline
 90
        5
 70
     0
 43
0.0
 10
365.3302478027
 20
15.7989280701
 10
365.5268151855
 20
16.1072598267
 10
365.7233825684
 20
16.1072598267
 10
365.9199243164
 20
15.7989280701
 10
365.9199243164
 20
14.8739263916
  0
LWPOLYLINE
  5
3A6
330
221
100
AcDbEntity
  8
0
  6
Continuous
 62
     2
100
AcDbPolyline
 90
        5
 70
     0
 43
0.0
 10
368.7701000977
 20
14.8739263916
 10
368.7701000977
 20
16.4155947876
 10
368.9666418457
 20
16.7239265442
 10
369.0649255371
 20
16.7239265442
 10
369.1632092285
 20
16.5697590637
  0
LINE
  5
3A7
330
221
100
AcDbEntity
  8
0
  6
Continuous
 62
     2
100
AcDbLine
 10
368.5735327148
 20
15.9530923462
 30
0.0
 11
368.9666418457
 21
15.9530923462
 31
0.0
  0
LWPOLYLINE
  5
3A8
330
221
100
AcDbEntity
  8
0
  6
Continuous
 62
     2
100
AcDbPolyline
 90
       11
 70
     0
 43
0.0
 10
370.7357226563
 20
15.3364256287
 10
370.5391552734
 20
15.0280938721
 10
370.3425878906
 20
14.8739263916
 10
370.1460205078
 20
15.0280938721
 10
369.949453125
 20
15.3364256287
 10
369.949453125
 20
15.6447605896
 10
370.1460205078
 20
15.9530923462
 10
370.3425878906
 20
16.1072598267
 10
370.5391552734
 20
15.9530923462
 10
370.7357226563
 20
15.6447605896
 10
370.7357226563
 20
15.3364256287
  0
LINE
  5
3A9
330
221
100
AcDbEntity
  8
0
  6
Continuous
 62
     2
100
AcDbLine
 10
371.6202502441
 20
14.8739263916
 30
0.0
 11
371.6202502441
 21
16.1072598267
 31
0.0
  0
LWPOLYLINE
  5
3AA
330
221
100
AcDbEntity
  8
0
  6
Continuous
 62
     2
100
AcDbPolyline
 90
        4
 70
     0
 43
0.0
 10
371.6202502441
 20
15.7989280701
 10
371.816817627
 20
16.1072598267
 10
372.013359375
 20
16.1072598267
 10
372.1116430664
 20
15.9530923462
  0
LWPOLYLINE
  5
3AB
330
221
100
AcDbEntity
  8
0
  6
Continuous
 62
     2
100
AcDbPolyline
 90
        8
 70
     0
 43
0.0
 10
373.6841564941
 20
15.0280938721
 10
373.4875891113
 20
14.8739263916
 10
373.2910217285
 20
15.0280938721
 10
373.0944543457
 20
15.3364256287
 10
373.0944543457
 20
15.6447605896
 10
373.2910217285
 20
15.9530923462
 10
373.4875891113
 20
16.1072598267
 10
373.6841564941
 20
15.9530923462
  0
LWPOLYLINE
  5
3AC
330
221
100
AcDbEntity
  8
0
  6
Continuous
 62
     2
100
AcDbPolyline
 90
       11
 70
     0
 43
0.0
 10
375.3549279785
 20
15.1822613525
 10
375.2566442871
 20
15.0280938721
 10
375.0601025391
 20
14.8739263916
 10
374.8635351563
 20
15.0280938721
 10
374.6669677734
 20
15.3364256287
 10
374.6669677734
 20
15.6447605896
 10
374.8635351563
 20
15.9530923462
 10
375.0601025391
 20
16.1072598267
 10
375.2566442871
 20
15.9530923462
 10
375.3549279785
 20
15.6447605896
 10
374.6669677734
 20
15.6447605896
  0
LWPOLYLINE
  5
3AD
330
221
100
AcDbEntity
  8
0
  6
Continuous
 62
     2
100
AcDbPolyline
 90
        4
 70
     0
 43
0.0
 10
376.632590332
 20
14.8739263916
 10
376.5343066406
 20
14.8739263916
 10
376.5343066406
 20
15.0280938721
 10
376.632590332
 20
14.8739263916
  0
LWPOLYLINE
  5
3AE
330
221
100
AcDbEntity
  8
0
  6
Continuous
 62
     2
100
AcDbPolyline
 90
        3
 70
     0
 43
0.0
 10
321.1036889648
 20
12.0989277649
 10
321.5950817871
 20
13.9489279175
 10
322.0865002441
 20
12.0989277649
  0
LINE
  5
3AF
330
221
100
AcDbEntity
  8
0
  6
Continuous
 62
     2
100
AcDbLine
 10
321.3002563477
 20
12.7155944824
 30
0.0
 11
321.8899328613
 21
12.7155944824
 31
0.0
  0
LINE
  5
3B0
330
221
100
AcDbEntity
  8
0
  6
Continuous
 62
     2
100
AcDbLine
 10
323.1675952148
 20
12.0989277649
 30
0.0
 11
323.1675952148
 21
13.9489279175
 31
0.0
  0
LINE
  5
3B1
330
221
100
AcDbEntity
  8
0
  6
Continuous
 62
     2
100
AcDbLine
 10
324.7400830078
 20
12.0989277649
 30
0.0
 11
324.7400830078
 21
13.9489279175
 31
0.0
  0
LINE
  5
3B2
330
221
100
AcDbEntity
  8
0
  6
Continuous
 62
     2
100
AcDbLine
 10
327.5902587891
 20
12.0989277649
 30
0.0
 11
327.5902587891
 21
13.3322612
 31
0.0
  0
LWPOLYLINE
  5
3B3
330
221
100
AcDbEntity
  8
0
  6
Continuous
 62
     2
100
AcDbPolyline
 90
        4
 70
     0
 43
0.0
 10
327.5902587891
 20
13.023926239
 10
327.7868005371
 20
13.3322612
 10
327.9833679199
 20
13.3322612
 10
328.0816516113
 20
13.1780937195
  0
LINE
  5
3B4
330
221
100
AcDbEntity
  8
0
  6
Continuous
 62
     2
100
AcDbLine
 10
329.4575976563
 20
13.9489279175
 30
0.0
 11
329.4575976563
 21
13.794760437
 31
0.0
  0
LINE
  5
3B5
330
221
100
AcDbEntity
  8
0
  6
Continuous
 62
     2
100
AcDbLine
 10
329.4575976563
 20
13.3322612
 30
0.0
 11
329.4575976563
 21
12.0989277649
 31
0.0
  0
LWPOLYLINE
  5
3B6
330
221
100
AcDbEntity
  8
0
  6
Continuous
 62
     2
100
AcDbPolyline
 90
       10
 70
     0
 43
0.0
 10
331.4232202148
 20
12.561427002
 10
331.226652832
 20
12.2530952454
 10
331.0300854492
 20
12.0989277649
 10
330.8335180664
 20
12.2530952454
 10
330.6369763184
 20
12.561427002
 10
330.6369763184
 20
12.8697619629
 10
330.8335180664
 20
13.1780937195
 10
331.0300854492
 20
13.3322612
 10
331.226652832
 20
13.1780937195
 10
331.4232202148
 20
12.8697619629
  0
LWPOLYLINE
  5
3B7
330
221
100
AcDbEntity
  8
0
  6
Continuous
 62
     2
100
AcDbPolyline
 90
        6
 70
     0
 43
0.0
 10
331.4232202148
 20
13.3322612
 10
331.4232202148
 20
11.9447602844
 10
331.3249365234
 20
11.6364285278
 10
331.226652832
 20
11.4822610474
 10
330.8335180664
 20
11.4822610474
 10
330.735234375
 20
11.6364285278
  0
LINE
  5
3B8
330
221
100
AcDbEntity
  8
0
  6
Continuous
 62
     2
100
AcDbLine
 10
332.3077478027
 20
12.0989277649
 30
0.0
 11
332.3077478027
 21
13.9489279175
 31
0.0
  0
LWPOLYLINE
  5
3B9
330
221
100
AcDbEntity
  8
0
  6
Continuous
 62
     2
100
AcDbPolyline
 90
        7
 70
     0
 43
0.0
 10
332.3077478027
 20
13.023926239
 10
332.3077478027
 20
13.1780937195
 10
332.5043151855
 20
13.3322612
 10
332.602598877
 20
13.3322612
 10
332.7008825684
 20
13.3322612
 10
332.8974243164
 20
13.023926239
 10
332.8974243164
 20
12.0989277649
  0
LINE
  5
3BA
330
221
100
AcDbEntity
  8
0
  6
Continuous
 62
     2
100
AcDbLine
 10
334.1750866699
 20
12.0989277649
 30
0.0
 11
334.1750866699
 21
13.9489279175
 31
0.0
  0
LINE
  5
3BB
330
221
100
AcDbEntity
  8
0
  6
Continuous
 62
     2
100
AcDbLine
 10
333.8802355957
 20
13.1780937195
 30
0.0
 11
334.4699377441
 21
13.1780937195
 31
0.0
  0
LWPOLYLINE
  5
3BC
330
221
100
AcDbEntity
  8
0
  6
Continuous
 62
     2
100
AcDbPolyline
 90
       14
 70
     0
 43
0.0
 10
335.9441418457
 20
13.1780937195
 10
335.8458837891
 20
13.3322612
 10
335.6493164062
 20
13.3322612
 10
335.5510327148
 20
13.1780937195
 10
335.5510327148
 20
13.023926239
 10
335.7476000977
 20
12.8697619629
 10
335.9441418457
 20
12.7155944824
 10
336.0424255371
 20
12.561427002
 10
336.0424255371
 20
12.4072595215
 10
335.9441418457
 20
12.2530952454
 10
335.8458837891
 20
12.0989277649
 10
335.6493164062
 20
12.0989277649
 10
335.5510327148
 20
12.2530952454
 10
335.4527490234
 20
12.4072595215
  0
LINE
  5
3BD
330
221
100
AcDbEntity
  8
0
  6
Continuous
 62
     2
100
AcDbLine
 10
338.5977502441
 20
12.0989277649
 30
0.0
 11
338.5977502441
 21
13.3322612
 31
0.0
  0
LWPOLYLINE
  5
3BE
330
221
100
AcDbEntity
  8
0
  6
Continuous
 62
     2
100
AcDbPolyline
 90
        4
 70
     0
 43
0.0
 10
338.5977502441
 20
13.023926239
 10
338.794317627
 20
13.3322612
 10
338.990859375
 20
13.3322612
 10
339.0891430664
 20
13.1780937195
  0
LWPOLYLINE
  5
3BF
330
221
100
AcDbEntity
  8
0
  6
Continuous
 62
     2
100
AcDbPolyline
 90
       11
 70
     0
 43
0.0
 10
340.7599401855
 20
12.4072595215
 10
340.6616564941
 20
12.2530952454
 10
340.4650891113
 20
12.0989277649
 10
340.2685217285
 20
12.2530952454
 10
340.0719543457
 20
12.561427002
 10
340.0719543457
 20
12.8697619629
 10
340.2685217285
 20
13.1780937195
 10
340.4650891113
 20
13.3322612
 10
340.6616564941
 20
13.1780937195
 10
340.7599401855
 20
12.8697619629
 10
340.0719543457
 20
12.8697619629
  0
LWPOLYLINE
  5
3C0
330
221
100
AcDbEntity
  8
0
  6
Continuous
 62
     2
100
AcDbPolyline
 90
       14
 70
     0
 43
0.0
 10
342.2341442871
 20
13.1780937195
 10
342.1358605957
 20
13.3322612
 10
341.9393188477
 20
13.3322612
 10
341.8410351562
 20
13.1780937195
 10
341.8410351562
 20
13.023926239
 10
342.0376025391
 20
12.8697619629
 10
342.2341442871
 20
12.7155944824
 10
342.3324279785
 20
12.561427002
 10
342.3324279785
 20
12.4072595215
 10
342.2341442871
 20
12.2530952454
 10
342.1358605957
 20
12.0989277649
 10
341.9393188477
 20
12.0989277649
 10
341.8410351562
 20
12.2530952454
 10
341.7427514648
 20
12.4072595215
  0
LWPOLYLINE
  5
3C1
330
221
100
AcDbEntity
  8
0
  6
Continuous
 62
     2
100
AcDbPolyline
 90
       11
 70
     0
 43
0.0
 10
343.9049414062
 20
12.4072595215
 10
343.8066577148
 20
12.2530952454
 10
343.610090332
 20
12.0989277649
 10
343.4135229492
 20
12.2530952454
 10
343.2169555664
 20
12.561427002
 10
343.2169555664
 20
12.8697619629
 10
343.4135229492
 20
13.1780937195
 10
343.610090332
 20
13.3322612
 10
343.8066577148
 20
13.1780937195
 10
343.9049414062
 20
12.8697619629
 10
343.2169555664
 20
12.8697619629
  0
LINE
  5
3C2
330
221
100
AcDbEntity
  8
0
  6
Continuous
 62
     2
100
AcDbLine
 10
344.8877526855
 20
12.0989277649
 30
0.0
 11
344.8877526855
 21
13.3322612
 31
0.0
  0
LWPOLYLINE
  5
3C3
330
221
100
AcDbEntity
  8
0
  6
Continuous
 62
     2
100
AcDbPolyline
 90
        4
 70
     0
 43
0.0
 10
344.8877526855
 20
13.023926239
 10
345.0843200684
 20
13.3322612
 10
345.2808618164
 20
13.3322612
 10
345.3791455078
 20
13.1780937195
  0
LWPOLYLINE
  5
3C4
330
221
100
AcDbEntity
  8
0
  6
Continuous
 62
     2
100
AcDbPolyline
 90
        3
 70
     0
 43
0.0
 10
346.4602404785
 20
13.3322612
 10
346.7550915527
 20
12.0989277649
 10
347.049942627
 20
13.3322612
  0
LWPOLYLINE
  5
3C5
330
221
100
AcDbEntity
  8
0
  6
Continuous
 62
     2
100
AcDbPolyline
 90
       11
 70
     0
 43
0.0
 10
348.6224304199
 20
12.4072595215
 10
348.5241467285
 20
12.2530952454
 10
348.3275793457
 20
12.0989277649
 10
348.1310375977
 20
12.2530952454
 10
347.9344702148
 20
12.561427002
 10
347.9344702148
 20
12.8697619629
 10
348.1310375977
 20
13.1780937195
 10
348.3275793457
 20
13.3322612
 10
348.5241467285
 20
13.1780937195
 10
348.6224304199
 20
12.8697619629
 10
347.9344702148
 20
12.8697619629
  0
LWPOLYLINE
  5
3C6
330
221
100
AcDbEntity
  8
0
  6
Continuous
 62
     2
100
AcDbPolyline
 90
       10
 70
     0
 43
0.0
 10
350.2932275391
 20
12.561427002
 10
350.0966601562
 20
12.2530952454
 10
349.9000927734
 20
12.0989277649
 10
349.7035253906
 20
12.2530952454
 10
349.5069580078
 20
12.561427002
 10
349.5069580078
 20
12.8697619629
 10
349.7035253906
 20
13.1780937195
 10
349.9000927734
 20
13.3322612
 10
350.0966601562
 20
13.1780937195
 10
350.2932275391
 20
12.8697619629
  0
LINE
  5
3C7
330
221
100
AcDbEntity
  8
0
  6
Continuous
 62
     2
100
AcDbLine
 10
350.2932275391
 20
13.9489279175
 30
0.0
 11
350.2932275391
 21
12.0989277649
 31
0.0
  0
LWPOLYLINE
  5
3C8
330
221
100
AcDbEntity
  8
0
  6
Continuous
 62
     2
100
AcDbPolyline
 90
        4
 70
     0
 43
0.0
 10
351.4725805664
 20
12.0989277649
 10
351.374296875
 20
12.0989277649
 10
351.374296875
 20
12.2530952454
 10
351.4725805664
 20
12.0989277649
  0
ACAD_TABLE
  5
3C9
330
221
100
AcDbEntity
  8
0
  6
Continuous
 62
     2
 92
     1136
310
700400000E000000880000001D000000000000000000F03F00000000000000000000000000000000D937513524F573400000000000000000000000000000F03F00000000000000008357C90A1083494000000000000000000000000000000000000000000000F03F0000000000000000000000000000000000000000000000
310
000000000000000000000000000000F03F54000000200000000200000000000000000000000000000000000000000000000000000000000000008056400000000000000000000000000000000000000000000000000000000000000000000000000000F03F5400000020000000020000000000000000000000000000000000
310
00000000000000000000000000000000000000000000000044C0000000000000000000000000000000000000000000000000000000000000F03F5400000020000000020000000000000000003E4000000000000018C00000000000000000000000000080564000000000000018C00000000000000000000000000000000000
310
00000000000000000000000000F03F5400000020000000020000000000000000003E4000000000000028C00000000000000000000000000080564000000000000028C0000000000000000000000000000000000000000000000000000000000000F03F5400000020000000020000000000000000003E4000000000000036C0
310
0000000000000000000000000080564000000000000036C0000000000000000000000000000000000000000000000000000000000000F03F54000000200000000200000000000000000000000000000000003BC0000000000000000000000000008056400000000000003BC000000000000000000000000000000000000000
310
0000000000000000000000F03F540000002000000002000000000000000000000000000000000044C00000000000000000000000000080564000000000000044C0000000000000000000000000000000000000000000000000000000000000F03F5400000020000000020000000000000000003E4000000000000000000000
310
0000000000000000000000003E400000000000003BC0000000000000000000000000000000000000000000000000000000000000F03F540000002000000002000000000000000080514000000000000000000000000000000000000000000080514000000000000028C0000000000000000000000000000000000000000000
310
000000000000000000F03F540000002000000002000000000000000080564000000000000000000000000000000000000000000080564000000000000044C0000000000000000000000000000000000000000000000000000000000000F03F080000001F000000880000001D000000000000000000F03F0000000000000000
310
000000000000000000000000000000000000000000000000000000000000F03F0000000000000000000000000000000000000000000000000000000000000000000000000000F03F0000000000000000000000000000000000000000000000000000000000000000000000000000F03F080000001F000000
100
AcDbBlockReference
  2
*T6
 10
319.3213399098
 20
51.0239270671
 30
0.0
100
AcDbTable
342
594
343
229
 11
1.0
 21
0.0
 31
0.0
 90
       54
 91
        5
 92
        5
 93
        0
 94
        0
 95
        0
 96
        0
141
6.0
141
6.0
141
10.0
141
5.0
141
13.0
142
10.0
142
10.0
142
10.0
142
40.0
142
20.0
171
     1
172
     0
173
     0
174
     0
175
     3
176
     4
 91
        1
178
     0
145
0.0
170
     5
 92
        0
301
CELL_VALUE
 93
        3
 90
        0
 91
        0
 94
        0
300

302

304
ACVALUE_END
171
     1
172
     0
173
     1
174
     0
175
     1
176
     1
 91
        0
178
     0
145
0.0
 92
        0
301
CELL_VALUE
 93
        3
 90
        0
 91
        0
 94
        0
300

302

304
ACVALUE_END
171
     1
172
     0
173
     1
174
     0
175
     1
176
     1
 91
        0
178
     0
145
0.0
 92
        0
301
CELL_VALUE
 93
        3
 90
        0
 91
        0
 94
        0
300

302

304
ACVALUE_END
171
     1
172
     0
173
     0
174
     0
175
     1
176
     1
 91
       33
178
     0
145
0.0
170
     4
140
3.0
 92
        0
301
CELL_VALUE
 93
        4
 90
        4
  1
{\Ftxt.shx;\W6.976190;\H3.000000; }
 94
        0
300

302
{\Ftxt.shx;\W6.976190;\H3.000000; }
304
ACVALUE_END
171
     1
172
     0
173
     0
174
     0
175
     1
176
     1
 91
       32
178
     0
145
0.0
140
3.5
 92
        0
301
CELL_VALUE
 93
        4
 90
        4
  1
{\Ftxt.shx;\W5.100000;\H3.500000; }
 94
        0
300

302
{\Ftxt.shx;\W5.100000;\H3.500000; }
304
ACVALUE_END
171
     1
172
     0
173
     1
174
     0
175
     1
176
     1
 91
        0
178
     0
145
0.0
 92
        0
301
CELL_VALUE
 93
        3
 90
        0
 91
        0
 94
        0
300

302

304
ACVALUE_END
171
     1
172
     0
173
     1
174
     0
175
     1
176
     1
 91
        0
178
     0
145
0.0
 92
        0
301
CELL_VALUE
 93
        3
 90
        0
 91
        0
 94
        0
300

302

304
ACVALUE_END
171
     1
172
     0
173
     1
174
     0
175
     1
176
     1
 91
        0
178
     0
145
0.0
 92
        0
301
CELL_VALUE
 93
        3
 90
        0
 91
        0
 94
        0
300

302

304
ACVALUE_END
171
     1
172
     0
173
     0
174
     0
175
     1
176
     1
 91
       32
178
     0
145
0.0
140
3.5
 92
        0
301
CELL_VALUE
 93
        4
 90
        4
  1
{\Ftxt.shx;\W3.714286;\H3.500000; }{\Ftxt.shx;\W1.500000;\H3.500000; }
 94
        0
300

302
{\Ftxt.shx;\W3.714286;\H3.500000; }{\Ftxt.shx;\W1.500000;\H3.500000; }
304
ACVALUE_END
171
     1
172
     0
173
     0
174
     0
175
     1
176
     1
 91
       33
178
     0
145
0.0
170
     4
140
3.5
 92
        0
301
CELL_VALUE
 93
        4
 90
        4
  1
{\Ftxt.shx;\W1.571429;\H3.500000; }
 94
        0
300

302
{\Ftxt.shx;\W1.571429;\H3.500000; }
304
ACVALUE_END
171
     1
172
     0
173
     1
174
     0
175
     1
176
     1
 91
        0
178
     0
145
0.0
 92
        0
301
CELL_VALUE
 93
        3
 90
        0
 91
        0
 94
        0
300

302

304
ACVALUE_END
171
     1
172
     0
173
     1
174
     0
175
     1
176
     1
 91
        0
178
     0
145
0.0
 92
        0
301
CELL_VALUE
 93
        3
 90
        0
 91
        0
 94
        0
300

302

304
ACVALUE_END
171
     1
172
     0
173
     1
174
     0
175
     1
176
     1
 91
        0
178
     0
145
0.0
 92
        0
301
CELL_VALUE
 93
        3
 90
        0
 91
        0
 94
        0
300

302

304
ACVALUE_END
171
     1
172
     0
173
     0
174
     0
175
     2
176
     1
 91
       33
178
     0
145
0.0
170
     4
140
3.2
 92
        0
301
CELL_VALUE
 93
        4
 90
        4
  1
{\Ftxt.shx;\W8.190476;\H3.200000; }{\Ftxt.shx;\W0.785714;\H3.200000; }
 94
        0
300

302
{\Ftxt.shx;\W8.190476;\H3.200000; }{\Ftxt.shx;\W0.785714;\H3.200000; }
304
ACVALUE_END
171
     1
172
     0
173
     1
174
     0
175
     1
176
     1
 91
        0
178
     0
145
0.0
 92
        0
301
CELL_VALUE
 93
        3
 90
        0
 91
        0
 94
        0
300

302

304
ACVALUE_END
171
     1
172
     0
173
     1
174
     0
175
     1
176
     1
 91
        0
178
     0
145
0.0
 92
        0
301
CELL_VALUE
 93
        3
 90
        0
 91
        0
 94
        0
300

302

304
ACVALUE_END
171
     1
172
     0
173
     1
174
     0
175
     1
176
     1
 91
        0
178
     0
145
0.0
 92
        0
301
CELL_VALUE
 93
        3
 90
        0
 91
        0
 94
        0
300

302

304
ACVALUE_END
171
     1
172
     0
173
     1
174
     0
175
     1
176
     1
 91
        0
178
     0
145
0.0
 92
        0
301
CELL_VALUE
 93
        3
 90
        0
 91
        0
 94
        0
300

302

304
ACVALUE_END
171
     1
172
     0
173
     0
174
     0
175
     2
176
     1
 91
       33
178
     0
145
0.0
170
     4
140
2.5
 92
        0
301
CELL_VALUE
 93
        4
 90
        4
  1
{\Ftxt.shx;\W11.333333;\H2.500000; }
 94
        0
300

302
{\Ftxt.shx;\W11.333333;\H2.500000; }
304
ACVALUE_END
171
     1
172
     0
173
     1
174
     0
175
     1
176
     1
 91
        0
178
     0
145
0.0
 92
        0
301
CELL_VALUE
 93
        3
 90
        0
 91
        0
 94
        0
300

302

304
ACVALUE_END
171
     1
172
     0
173
     0
174
     0
175
     5
176
     1
 91
       32
178
     0
145
0.0
140
1.85
 92
        0
301
CELL_VALUE
 93
        4
 90
        4
  1
{\Ftxt.shx;\W45.050000;\H1.850000; }\P{\Ftxt.shx;\W28.050000;\H1.850000; }{\Ftxt.shx;\W7.650000;\H1.850000; }{\Ftxt.shx;\W13.600000;\H1.850000; }\P{\Ftxt.shx;\W31.450000;\H1.850000; }\P{\Ftxt.shx;\W17.000000;\H1.850000; }
 94
        0
300

302
{\Ftxt.shx;\W45.050000;\H1.850000; }\P{\Ftxt.shx;\W28.050000;\H1.850000; }{\Ftxt.shx;\W7.650000;\H1.850000; }{\Ftxt.shx;\W13.600000;\H1.850000; }\P{\Ftxt.shx;\W31.450000;\H1.850000; }\P{\Ftxt.shx;\W17.000000;\H1.850000; }
304
ACVALUE_END
171
     1
172
     0
173
     1
174
     0
175
     1
176
     1
 91
        0
178
     0
145
0.0
 92
        0
301
CELL_VALUE
 93
        3
 90
        0
 91
        0
 94
        0
300

302

304
ACVALUE_END
171
     1
172
     0
173
     1
174
     0
175
     1
176
     1
 91
        0
178
     0
145
0.0
 92
        0
301
CELL_VALUE
 93
        3
 90
        0
 91
        0
 94
        0
300

302

304
ACVALUE_END
171
     1
172
     0
173
     1
174
     0
175
     1
176
     1
 91
        0
178
     0
145
0.0
 92
        0
301
CELL_VALUE
 93
        3
 90
        0
 91
        0
 94
        0
300

302

304
ACVALUE_END
171
     1
172
     0
173
     1
174
     0
175
     1
176
     1
 91
        0
178
     0
145
0.0
 92
        0
301
CELL_VALUE
 93
        3
 90
        0
 91
        0
 94
        0
300

302

304
ACVALUE_END
  0
LINE
  5
3CA
330
221
100
AcDbEntity
  8
0
  6
Continuous
 62
     7
100
AcDbLine
 10
0.0
 20
0.0
 30
0.0
 11
0.0
 21
297.0
 31
0.0
  0
LWPOLYLINE
  5
3CB
330
221
100
AcDbEntity
  8
0
  6
Continuous
 62
     7
100
AcDbPolyline
 90
        2
 70
     0
 43
0.1000000003
 10
7.0536312849
 20
0.0
 10
7.0536312849
 20
297.0
  0
LWPOLYLINE
  5
3CC
330
221
100
AcDbEntity
  8
0
  6
Continuous
 62
     7
100
AcDbPolyline
 90
        2
 70
     0
 43
0.4999999952
 10
10.0536312849
 20
10.0318435754
 10
10.0536312849
 20
287.0
  0
LWPOLYLINE
  5
3CD
330
221
100
AcDbEntity
  8
0
  6
Continuous
 62
     2
100
AcDbPolyline
 90
        5
 70
     0
 43
0.0
 10
2.7895792007
 20
251.8807543945
 10
3.2657698059
 20
252.1664538574
 10
3.2657698059
 20
253.0236035156
 10
2.7895792007
 20
253.5950280762
 10
1.6467220688
 20
253.5950280762
  0
LINE
  5
3CE
330
221
100
AcDbEntity
  8
0
  6
Continuous
 62
     7
100
AcDbLine
 10
0.0
 20
0.0
 30
0.0
 11
420.0
 21
0.0
 31
0.0
  0
LINE
  5
3CF
330
221
100
AcDbEntity
  8
0
  6
Continuous
 62
     2
100
AcDbLine
 10
363.2799023437
 20
2.6920935059
 30
0.0
 11
364.6298803711
 21
2.6920935059
 31
0.0
  0
LINE
  5
3D0
330
221
100
AcDbEntity
  8
0
  6
Continuous
 62
     2
100
AcDbLine
 10
262.8298937988
 20
3.6920928955
 30
0.0
 11
264.4048937988
 21
3.6920928955
 31
0.0
  0
LWPOLYLINE
  5
3D1
330
221
100
AcDbEntity
  8
0
  6
Continuous
 62
     2
100
AcDbPolyline
 90
       12
 70
     0
 43
0.0
 10
56.6978659058
 20
5.535344696
 10
57.5978704834
 20
5.535344696
 10
58.0478695679
 20
5.2020094299
 10
58.2728659058
 20
4.8686773682
 10
58.4978686523
 20
4.5353453064
 10
58.7228713989
 20
3.5353427124
 10
58.4978686523
 20
2.5353433228
 10
58.2728659058
 20
2.202011261
 10
58.0478695679
 20
1.8686759949
 10
57.5978704834
 20
1.5353439331
 10
56.6978659058
 20
1.5353439331
 10
56.6978659058
 20
5.535344696
  0
LWPOLYLINE
  5
3D2
330
221
100
AcDbEntity
  8
0
  6
Continuous
 62
     7
100
AcDbPolyline
 90
        2
 70
     0
 43
0.1000000003
 10
0.0
 20
7.0318435754
 10
420.0
 20
7.0318435754
  0
LWPOLYLINE
  5
3D3
330
221
100
AcDbEntity
  8
0
  6
Continuous
 62
     7
100
AcDbPolyline
 90
        2
 70
     0
 43
0.4999999952
 10
10.0536312849
 20
10.0318435754
 10
410.0
 20
10.0318435754
  0
LWPOLYLINE
  5
3D4
330
221
100
AcDbEntity
  8
0
  6
Continuous
 62
     2
100
AcDbPolyline
 90
       15
 70
     0
 43
0.0
 10
164.8548962402
 20
292.0254382324
 10
164.629887085
 20
291.6920837402
 10
164.1798944092
 20
291.3587548828
 10
163.729888916
 20
291.3587548828
 10
163.2798962402
 20
291.6920837402
 10
163.054887085
 20
292.0254382324
 10
162.8298907471
 20
292.3587670898
 10
162.6048944092
 20
293.3587536621
 10
162.8298907471
 20
294.3587658691
 10
163.054887085
 20
294.6920947266
 10
163.2798962402
 20
295.025423584
 10
163.729888916
 20
295.3587524414
 10
164.1798944092
 20
295.3587524414
 10
164.629887085
 20
295.025423584
 10
164.8548962402
 20
294.6920947266
  0
LINE
  5
3D5
330
221
100
AcDbEntity
  8
0
  6
Continuous
 62
     7
100
AcDbLine
 10
113.0
 20
297.0
 30
0.0
 11
113.0
 21
290.0
 31
0.0
  0
LINE
  5
3D6
330
221
100
AcDbEntity
  8
0
  6
Continuous
 62
     7
100
AcDbLine
 10
113.0
 20
7.0
 30
0.0
 11
113.0
 21
0.0
 31
0.0
  0
LWPOLYLINE
  5
3D7
330
221
100
AcDbEntity
  8
0
  6
Continuous
 62
     7
100
AcDbPolyline
 90
        2
 70
     0
 43
0.1000000003
 10
123.0
 20
10.0
 10
123.0
 20
0.0
  0
LWPOLYLINE
  5
3D8
330
221
100
AcDbEntity
  8
0
  6
Continuous
 62
     7
100
AcDbPolyline
 90
        2
 70
     0
 43
0.1000000003
 10
123.0
 20
287.0
 10
123.0
 20
297.0
  0
LWPOLYLINE
  5
3D9
330
221
100
AcDbEntity
  8
0
  6
Continuous
 62
     2
100
AcDbPolyline
 90
        3
 70
     0
 43
0.0
 10
1.6467220688
 20
52.4521728516
 10
2.7895792007
 20
53.5950283813
 10
2.7895792007
 20
49.5950244141
  0
LINE
  5
3DA
330
221
100
AcDbEntity
  8
0
  6
Continuous
 62
     7
100
AcDbLine
 10
0.0
 20
99.9681564246
 30
0.0
 11
7.0
 21
99.9681564246
 31
0.0
  0
LWPOLYLINE
  5
3DB
330
221
100
AcDbEntity
  8
0
  6
Continuous
 62
     2
100
AcDbPolyline
 90
        9
 70
     0
 43
0.0
 10
56.2378820801
 20
295.2461645508
 10
56.6878811646
 20
294.5794812012
 10
56.9128839111
 20
293.5794946289
 10
56.6878811646
 20
292.5794824219
 10
56.4628848267
 20
292.2461535645
 10
56.2378820801
 20
291.912824707
 10
55.7878829956
 20
291.5794958496
 10
54.8878848267
 20
291.5794958496
 10
54.8878848267
 20
295.5794934082
  0
LINE
  5
3DC
330
221
100
AcDbEntity
  8
0
  6
Continuous
 62
     7
100
AcDbLine
 10
413.0
 20
107.0
 30
0.0
 11
420.0
 21
107.0
 31
0.0
  0
LWPOLYLINE
  5
3DD
330
221
100
AcDbEntity
  8
0
  6
Continuous
 62
     7
100
AcDbPolyline
 90
        2
 70
     0
 43
0.1000000003
 10
210.0
 20
10.0
 10
210.0
 20
0.0
  0
LWPOLYLINE
  5
3DE
330
221
100
AcDbEntity
  8
0
  6
Continuous
 62
     7
100
AcDbPolyline
 90
        2
 70
     0
 43
0.1000000003
 10
210.0
 20
287.0
 10
210.0
 20
297.0
  0
LWPOLYLINE
  5
3DF
330
221
100
AcDbEntity
  8
0
  6
Continuous
 62
     7
100
AcDbPolyline
 90
        2
 70
     0
 43
0.1000000003
 10
10.0
 20
148.5
 10
0.0
 20
148.5
  0
LWPOLYLINE
  5
3E0
330
221
100
AcDbEntity
  8
0
  6
Continuous
 62
     7
100
AcDbPolyline
 90
        2
 70
     0
 43
0.1000000003
 10
410.0
 20
148.5
 10
420.0
 20
148.5
  0
LWPOLYLINE
  5
3E1
330
221
100
AcDbEntity
  8
0
  6
Continuous
 62
     2
100
AcDbPolyline
 90
        7
 70
     0
 43
0.0
 10
3.6467220497
 20
149.5950274658
 10
1.6467220688
 20
149.5950274658
 10
3.6467220497
 20
152.4521759033
 10
3.6467220497
 20
153.0236004639
 10
3.0752934837
 20
153.5950250244
 10
2.2181506348
 20
153.5950250244
 10
1.6467220688
 20
152.7378881836
  0
LWPOLYLINE
  5
3E2
330
221
100
AcDbEntity
  8
0
  6
Continuous
 62
     2
100
AcDbPolyline
 90
        5
 70
     0
 43
0.0
 10
415.7895666504
 20
258.9125756836
 10
416.2657580566
 20
259.1983007812
 10
416.2657580566
 20
260.0554504395
 10
415.7895666504
 20
260.626875
 10
414.6467175293
 20
260.626875
  0
LWPOLYLINE
  5
3E3
330
221
100
AcDbEntity
  8
0
  6
Continuous
 62
     2
100
AcDbPolyline
 90
        7
 70
     0
 43
0.0
 10
416.6467163086
 20
156.6268743896
 10
414.6467175293
 20
156.6268743896
 10
416.6467163086
 20
159.4840100098
 10
416.6467163086
 20
160.0554473877
 10
416.075291748
 20
160.6268719482
 10
415.2181420898
 20
160.6268719482
 10
414.6467175293
 20
159.76972229
  0
LWPOLYLINE
  5
3E4
330
221
100
AcDbEntity
  8
0
  6
Continuous
 62
     2
100
AcDbPolyline
 90
       15
 70
     0
 43
0.0
 10
164.8548962402
 20
2.025426178
 10
164.629887085
 20
1.6920941162
 10
164.1798944092
 20
1.3587588501
 10
163.729888916
 20
1.3587588501
 10
163.2798962402
 20
1.6920941162
 10
163.054887085
 20
2.025426178
 10
162.8298907471
 20
2.3587614441
 10
162.6048944092
 20
3.3587608337
 10
162.8298907471
 20
4.3587602234
 10
163.054887085
 20
4.6920922852
 10
163.2798962402
 20
5.0254275513
 10
163.729888916
 20
5.358759613
 10
164.1798944092
 20
5.358759613
 10
164.629887085
 20
5.0254275513
 10
164.8548962402
 20
4.6920922852
  0
LWPOLYLINE
  5
3E5
330
221
100
AcDbEntity
  8
0
  6
Continuous
 62
     2
100
AcDbPolyline
 90
        6
 70
     0
 43
0.0
 10
262.8298937988
 20
295.3587524414
 10
262.8298937988
 20
291.3587548828
 10
264.4048937988
 20
291.3587548828
 10
264.6298901367
 20
291.6920837402
 10
264.8548864746
 20
292.0254382324
 10
264.8548864746
 20
293.0254248047
  0
LWPOLYLINE
  5
3E6
330
221
100
AcDbEntity
  8
0
  6
Continuous
 62
     2
100
AcDbPolyline
 90
       12
 70
     0
 43
0.0
 10
262.8298937988
 20
5.358759613
 10
262.8298937988
 20
1.3587588501
 10
264.4048937988
 20
1.3587588501
 10
264.6298901367
 20
1.6920941162
 10
264.8548864746
 20
2.025426178
 10
264.8548864746
 20
3.0254255676
 10
264.6298901367
 20
3.3587608337
 10
264.4048937988
 20
3.6920928955
 10
264.6298901367
 20
4.0254281616
 10
264.6298901367
 20
5.0254275513
 10
264.4048937988
 20
5.358759613
 10
262.8298937988
 20
5.358759613
  0
LINE
  5
3E7
330
221
100
AcDbEntity
  8
0
  6
Continuous
 62
     7
100
AcDbLine
 10
0.0
 20
199.9681564246
 30
0.0
 11
7.0
 21
199.9681564246
 31
0.0
  0
LWPOLYLINE
  5
3E8
330
221
100
AcDbEntity
  8
0
  6
Continuous
 62
     7
100
AcDbPolyline
 90
        2
 70
     0
 43
0.1000000003
 10
10.0
 20
202.9681564246
 10
0.0
 20
202.9681564246
  0
LWPOLYLINE
  5
3E9
330
221
100
AcDbEntity
  8
0
  6
Continuous
 62
     7
100
AcDbPolyline
 90
        2
 70
     0
 43
0.1000000003
 10
410.0
 20
210.0
 10
420.0
 20
210.0
  0
LINE
  5
3EA
330
221
100
AcDbEntity
  8
0
  6
Continuous
 62
     7
100
AcDbLine
 10
313.0
 20
297.0
 30
0.0
 11
313.0
 21
290.0
 31
0.0
  0
LINE
  5
3EB
330
221
100
AcDbEntity
  8
0
  6
Continuous
 62
     7
100
AcDbLine
 10
313.0
 20
7.0
 30
0.0
 11
313.0
 21
0.0
 31
0.0
  0
LWPOLYLINE
  5
3EC
330
221
100
AcDbEntity
  8
0
  6
Continuous
 62
     2
100
AcDbPolyline
 90
        6
 70
     0
 43
0.0
 10
1.6467220688
 20
249.5950305176
 10
3.0752934837
 20
249.5950305176
 10
3.3610077667
 20
249.8807299805
 10
3.3610077667
 20
251.3093041992
 10
2.7895792007
 20
251.8807543945
 10
2.2181506348
 20
251.8807543945
  0
LWPOLYLINE
  5
3ED
330
221
100
AcDbEntity
  8
0
  6
Continuous
 62
     2
100
AcDbPolyline
 90
        3
 70
     0
 43
0.0
 10
362.8298840332
 20
291.3587548828
 10
363.9548913574
 20
295.3587524414
 10
365.0798986816
 20
291.3587548828
  0
LWPOLYLINE
  5
3EE
330
221
100
AcDbEntity
  8
0
  6
Continuous
 62
     2
100
AcDbPolyline
 90
        6
 70
     0
 43
0.0
 10
414.6467175293
 20
256.6268774414
 10
416.075291748
 20
256.6268774414
 10
416.3610168457
 20
256.9125769043
 10
416.3610168457
 20
258.341151123
 10
415.7895666504
 20
258.9125756836
 10
415.2181420898
 20
258.9125756836
  0
LWPOLYLINE
  5
3EF
330
221
100
AcDbEntity
  8
0
  6
Continuous
 62
     2
100
AcDbPolyline
 90
        6
 70
     0
 43
0.0
 10
264.8548864746
 20
293.0254248047
 10
264.4048937988
 20
293.6920825195
 10
264.6298901367
 20
294.0254370117
 10
264.6298901367
 20
295.025423584
 10
264.4048937988
 20
295.3587524414
 10
262.8298937988
 20
295.3587524414
  0
LWPOLYLINE
  5
3F0
330
221
100
AcDbEntity
  8
0
  6
Continuous
 62
     7
100
AcDbPolyline
 90
        2
 70
     0
 43
0.4999999952
 10
10.0536312849
 20
287.0
 10
410.0
 20
287.0
  0
LWPOLYLINE
  5
3F1
330
221
100
AcDbEntity
  8
0
  6
Continuous
 62
     7
100
AcDbPolyline
 90
        2
 70
     0
 43
0.1000000003
 10
0.0
 20
290.0
 10
420.0
 20
290.0
  0
LINE
  5
3F2
330
221
100
AcDbEntity
  8
0
  6
Continuous
 62
     2
100
AcDbLine
 10
363.2799023437
 20
292.6920959473
 30
0.0
 11
364.6298803711
 21
292.6920959473
 31
0.0
  0
LINE
  5
3F3
330
221
100
AcDbEntity
  8
0
  6
Continuous
 62
     2
100
AcDbLine
 10
262.8298937988
 20
293.6920825195
 30
0.0
 11
264.4048937988
 21
293.6920825195
 31
0.0
  0
LWPOLYLINE
  5
3F4
330
221
100
AcDbEntity
  8
0
  6
Continuous
 62
     2
100
AcDbPolyline
 90
        3
 70
     0
 43
0.0
 10
54.8878848267
 20
295.5794934082
 10
55.7878829956
 20
295.5794934082
 10
56.2378820801
 20
295.2461645508
  0
LINE
  5
3F5
330
221
100
AcDbEntity
  8
0
  6
Continuous
 62
     7
100
AcDbLine
 10
0.0
 20
297.0
 30
0.0
 11
420.0
 21
297.0
 31
0.0
  0
LWPOLYLINE
  5
3F6
330
221
100
AcDbEntity
  8
0
  6
Continuous
 62
     2
100
AcDbPolyline
 90
        3
 70
     0
 43
0.0
 10
362.8298840332
 20
1.3587588501
 10
363.9548913574
 20
5.358759613
 10
365.0798986816
 20
1.3587588501
  0
LWPOLYLINE
  5
3F7
330
221
100
AcDbEntity
  8
0
  6
Continuous
 62
     7
100
AcDbPolyline
 90
        2
 70
     0
 43
0.4999999952
 10
410.0
 20
10.0318435754
 10
410.0
 20
287.0
  0
LWPOLYLINE
  5
3F8
330
221
100
AcDbEntity
  8
0
  6
Continuous
 62
     7
100
AcDbPolyline
 90
        2
 70
     0
 43
0.1000000003
 10
413.0
 20
0.0
 10
413.0
 20
297.0
  0
LINE
  5
3F9
330
221
100
AcDbEntity
  8
0
  6
Continuous
 62
     7
100
AcDbLine
 10
420.0
 20
0.0
 30
0.0
 11
420.0
 21
297.0
 31
0.0
  0
LWPOLYLINE
  5
3FA
330
221
100
AcDbEntity
  8
0
  6
Continuous
 62
     2
100
AcDbPolyline
 90
        3
 70
     0
 43
0.0
 10
414.6467175293
 20
59.4840133667
 10
415.7895666504
 20
60.6268688965
 10
415.7895666504
 20
56.6268713379
  0
LINE
  5
3FB
330
221
100
AcDbEntity
  8
7_ALL_FEATURES
  6
Continuous
 62
     7
100
AcDbLine
 10
43.04049025149497
 20
160.7283057865439
 30
0.0
 11
43.54049025149497
 21
161.2283057865439
 31
0.0
  0
LINE
  5
3FC
330
221
100
AcDbEntity
  8
7_ALL_FEATURES
  6
Continuous
 62
     7
100
AcDbLine
 10
43.04049025149497
 20
160.7283057865439
 30
0.0
 11
43.04049025149497
 21
82.2283057865439
 31
0.0
  0
LINE
  5
3FD
330
221
100
AcDbEntity
  8
7_ALL_FEATURES
  6
Continuous
 62
     7
100
AcDbLine
 10
43.54049025149497
 20
160.7283057865439
 30
0.0
 11
43.54049025149497
 21
82.2283057865439
 31
0.0
  0
LINE
  5
3FE
330
221
100
AcDbEntity
  8
7_ALL_FEATURES
  6
Continuous
 62
     7
100
AcDbLine
 10
43.54049025149497
 20
81.7283057865439
 30
0.0
 11
43.04049025149497
 21
82.2283057865439
 31
0.0
  0
LINE
  5
3FF
330
221
100
AcDbEntity
  8
7_ALL_FEATURES
  6
Continuous
 62
     7
100
AcDbLine
 10
55.04049025149497
 20
134.7783057865439
 30
0.0
 11
55.04049025149497
 21
154.6783057865439
 31
0.0
  0
LINE
  5
400
330
221
100
AcDbEntity
  8
7_ALL_FEATURES
  6
Continuous
 62
     7
100
AcDbLine
 10
55.54049025149497
 20
134.7783057865439
 30
0.0
 11
55.54049025149497
 21
154.6783057865439
 31
0.0
  0
LINE
  5
401
330
221
100
AcDbEntity
  8
7_ALL_FEATURES
  6
Continuous
 62
     7
100
AcDbLine
 10
56.16549025149497
 20
155.4783057865439
 30
0.0
 11
56.16549025149497
 21
133.9783057865439
 31
0.0
  0
LINE
  5
403
330
221
100
AcDbEntity
  8
7_ALL_FEATURES
  6
Continuous
 62
     7
100
AcDbLine
 10
57.66549025149497
 20
156.9783057865439
 30
0.0
 11
56.16549025149497
 21
155.4783057865439
 31
0.0
  0
LINE
  5
404
330
221
100
AcDbEntity
  8
7_ALL_FEATURES
  6
Continuous
 62
     7
100
AcDbLine
 10
51.96313998229498
 20
90.2283057865439
 30
0.0
 11
51.38578971309498
 21
91.2283057865439
 31
0.0
  0
LINE
  5
405
330
221
100
AcDbEntity
  8
7_ALL_FEATURES
  6
Continuous
 62
     7
100
AcDbLine
 10
53.11784052069498
 20
92.2283057865439
 30
0.0
 11
53.69519078989498
 21
91.2283057865439
 31
0.0
  0
LINE
  5
406
330
221
100
AcDbEntity
  8
7_ALL_FEATURES
  6
Continuous
 62
     9
100
AcDbLine
 10
58.34049025149498
 20
157.9783057865439
 30
0.0
 11
58.34049025149498
 21
157.4783057865439
 31
0.0
  0
LINE
  5
407
330
221
100
AcDbEntity
  8
7_ALL_FEATURES
  6
Continuous
 62
     9
100
AcDbLine
 10
58.34049025149498
 20
131.4783057865439
 30
0.0
 11
58.34049025149498
 21
131.9783057865439
 31
0.0
  0
LINE
  5
408
330
221
100
AcDbEntity
  8
7_ALL_FEATURES
  6
Continuous
 62
     7
100
AcDbLine
 10
51.38578971309498
 20
91.2283057865439
 30
0.0
 11
51.96313998229498
 21
92.2283057865439
 31
0.0
  0
LINE
  5
409
330
221
100
AcDbEntity
  8
7_ALL_FEATURES
  6
Continuous
 62
     7
100
AcDbLine
 10
53.69519078989498
 20
91.2283057865439
 30
0.0
 11
53.11784052069498
 21
90.2283057865439
 31
0.0
  0
LINE
  5
40A
330
221
100
AcDbEntity
  8
7_ALL_FEATURES
  6
Continuous
 62
     7
100
AcDbLine
 10
56.16549025149497
 20
133.9783057865439
 30
0.0
 11
57.66549025149497
 21
132.4783057865439
 31
0.0
  0
LINE
  5
40C
330
221
100
AcDbEntity
  8
7_ALL_FEATURES
  6
Continuous
 62
     7
100
AcDbLine
 10
43.54049025149497
 20
82.2283057865439
 30
0.0
 11
43.29049025149497
 21
81.9783057865439
 31
0.0
  0
LINE
  5
40E
330
221
100
AcDbEntity
  8
7_ALL_FEATURES
  6
Continuous
 62
     7
100
AcDbLine
 10
43.54049025149497
 20
160.7283057865439
 30
0.0
 11
43.29049025149497
 21
160.9783057865439
 31
0.0
  0
LINE
  5
40F
330
221
100
AcDbEntity
  8
7_ALL_FEATURES
  6
Continuous
 62
     7
100
AcDbLine
 10
43.54049025149497
 20
81.7283057865439
 30
0.0
 11
250.540490251495
 21
81.7283057865439
 31
0.0
  0
LINE
  5
410
330
221
100
AcDbEntity
  8
7_ALL_FEATURES
  6
Continuous
 62
     7
100
AcDbLine
 10
43.54049025149497
 20
82.2283057865439
 30
0.0
 11
250.540490251495
 21
82.2283057865439
 31
0.0
  0
LINE
  5
411
330
221
100
AcDbEntity
  8
7_ALL_FEATURES
  6
Continuous
 62
     7
100
AcDbLine
 10
51.96313998229498
 20
90.2283057865439
 30
0.0
 11
53.11784052069498
 21
90.2283057865439
 31
0.0
  0
LINE
  5
412
330
221
100
AcDbEntity
  8
7_ALL_FEATURES
  6
Continuous
 62
     7
100
AcDbLine
 10
240.963139982295
 20
90.2283057865439
 30
0.0
 11
242.117840520695
 21
90.2283057865439
 31
0.0
  0
LINE
  5
413
330
221
100
AcDbEntity
  8
7_ALL_FEATURES
  6
Continuous
 62
     7
100
AcDbLine
 10
242.117840520695
 20
92.2283057865439
 30
0.0
 11
240.963139982295
 21
92.2283057865439
 31
0.0
  0
LINE
  5
414
330
221
100
AcDbEntity
  8
7_ALL_FEATURES
  6
Continuous
 62
     7
100
AcDbLine
 10
53.11784052069498
 20
92.2283057865439
 30
0.0
 11
51.96313998229498
 21
92.2283057865439
 31
0.0
  0
LINE
  5
41C
330
221
100
AcDbEntity
  8
7_ALL_FEATURES
  6
Continuous
 62
     7
100
AcDbLine
 10
158.040490251495
 20
131.9783057865439
 30
0.0
 11
158.040490251495
 21
132.2283057865439
 31
0.0
  0
LINE
  5
41D
330
221
100
AcDbEntity
  8
7_ALL_FEATURES
  6
Continuous
 62
     7
100
AcDbLine
 10
235.740490251495
 20
131.4783057865439
 30
0.0
 11
58.34049025149498
 21
131.4783057865439
 31
0.0
  0
LINE
  5
41E
330
221
100
AcDbEntity
  8
7_ALL_FEATURES
  6
Continuous
 62
     7
100
AcDbLine
 10
235.740490251495
 20
131.9783057865439
 30
0.0
 11
58.34049025149498
 21
131.9783057865439
 31
0.0
  0
LINE
  5
41F
330
221
100
AcDbEntity
  8
7_ALL_FEATURES
  6
Continuous
 62
     7
100
AcDbLine
 10
158.040490251495
 20
132.2283057865439
 30
0.0
 11
188.040490251495
 21
132.2283057865439
 31
0.0
  0
LINE
  5
420
330
221
100
AcDbEntity
  8
7_ALL_FEATURES
  6
Continuous
 62
     7
100
AcDbLine
 10
57.66549025149497
 20
132.4783057865439
 30
0.0
 11
236.415490251495
 21
132.4783057865439
 31
0.0
  0
LINE
  5
421
330
221
100
AcDbEntity
  8
7_ALL_FEATURES
  6
Continuous
 62
     9
100
AcDbLine
 10
239.040490251495
 20
134.7783057865439
 30
0.0
 11
238.540490251495
 21
134.7783057865439
 31
0.0
  0
LINE
  5
422
330
221
100
AcDbEntity
  8
7_ALL_FEATURES
  6
Continuous
 62
     9
100
AcDbLine
 10
55.04049025149497
 20
134.7783057865439
 30
0.0
 11
55.54049025149497
 21
134.7783057865439
 31
0.0
  0
LINE
  5
423
330
221
100
AcDbEntity
  8
7_ALL_FEATURES
  6
Continuous
 62
     9
100
AcDbLine
 10
239.040490251495
 20
154.6783057865439
 30
0.0
 11
238.540490251495
 21
154.6783057865439
 31
0.0
  0
LINE
  5
424
330
221
100
AcDbEntity
  8
7_ALL_FEATURES
  6
Continuous
 62
     9
100
AcDbLine
 10
55.04049025149497
 20
154.6783057865439
 30
0.0
 11
55.54049025149497
 21
154.6783057865439
 31
0.0
  0
LINE
  5
425
330
221
100
AcDbEntity
  8
7_ALL_FEATURES
  6
Continuous
 62
     7
100
AcDbLine
 10
188.040490251495
 20
131.9783057865439
 30
0.0
 11
188.040490251495
 21
132.2283057865439
 31
0.0
  0
LINE
  5
426
330
221
100
AcDbEntity
  8
7_ALL_FEATURES
  6
Continuous
 62
     7
100
AcDbLine
 10
250.790490251495
 20
160.9783057865439
 30
0.0
 11
250.540490251495
 21
160.7283057865439
 31
0.0
  0
LINE
  5
427
330
221
100
AcDbEntity
  8
7_ALL_FEATURES
  6
Continuous
 62
     7
100
AcDbLine
 10
236.415490251495
 20
156.9783057865439
 30
0.0
 11
57.66549025149497
 21
156.9783057865439
 31
0.0
  0
LINE
  5
428
330
221
100
AcDbEntity
  8
7_ALL_FEATURES
  6
Continuous
 62
     7
100
AcDbLine
 10
58.34049025149498
 20
157.4783057865439
 30
0.0
 11
235.740490251495
 21
157.4783057865439
 31
0.0
  0
LINE
  5
429
330
221
100
AcDbEntity
  8
7_ALL_FEATURES
  6
Continuous
 62
     7
100
AcDbLine
 10
58.34049025149498
 20
157.9783057865439
 30
0.0
 11
235.740490251495
 21
157.9783057865439
 31
0.0
  0
LINE
  5
42A
330
221
100
AcDbEntity
  8
7_ALL_FEATURES
  6
Continuous
 62
     7
100
AcDbLine
 10
250.540490251495
 20
160.7283057865439
 30
0.0
 11
43.54049025149497
 21
160.7283057865439
 31
0.0
  0
LINE
  5
42B
330
221
100
AcDbEntity
  8
7_ALL_FEATURES
  6
Continuous
 62
     7
100
AcDbLine
 10
250.540490251495
 20
161.2283057865439
 30
0.0
 11
43.54049025149497
 21
161.2283057865439
 31
0.0
  0
LINE
  5
42C
330
221
100
AcDbEntity
  8
7_ALL_FEATURES
  6
Continuous
 62
     7
100
AcDbLine
 10
236.415490251495
 20
132.4783057865439
 30
0.0
 11
237.915490251495
 21
133.9783057865439
 31
0.0
  0
LINE
  5
42D
330
221
100
AcDbEntity
  8
7_ALL_FEATURES
  6
Continuous
 62
     7
100
AcDbLine
 10
250.540490251495
 20
82.2283057865439
 30
0.0
 11
250.790490251495
 21
81.9783057865439
 31
0.0
  0
LINE
  5
42F
330
221
100
AcDbEntity
  8
7_ALL_FEATURES
  6
Continuous
 62
     7
100
AcDbLine
 10
240.963139982295
 20
90.2283057865439
 30
0.0
 11
240.385789713095
 21
91.2283057865439
 31
0.0
  0
LINE
  5
430
330
221
100
AcDbEntity
  8
7_ALL_FEATURES
  6
Continuous
 62
     7
100
AcDbLine
 10
242.117840520695
 20
92.2283057865439
 30
0.0
 11
242.695190789895
 21
91.2283057865439
 31
0.0
  0
LINE
  5
433
330
221
100
AcDbEntity
  8
7_ALL_FEATURES
  6
Continuous
 62
     9
100
AcDbLine
 10
235.740490251495
 20
157.9783057865439
 30
0.0
 11
235.740490251495
 21
157.4783057865439
 31
0.0
  0
LINE
  5
434
330
221
100
AcDbEntity
  8
7_ALL_FEATURES
  6
Continuous
 62
     9
100
AcDbLine
 10
235.740490251495
 20
131.4783057865439
 30
0.0
 11
235.740490251495
 21
131.9783057865439
 31
0.0
  0
LINE
  5
435
330
221
100
AcDbEntity
  8
7_ALL_FEATURES
  6
Continuous
 62
     7
100
AcDbLine
 10
237.915490251495
 20
133.9783057865439
 30
0.0
 11
237.915490251495
 21
155.4783057865439
 31
0.0
  0
LINE
  5
436
330
221
100
AcDbEntity
  8
7_ALL_FEATURES
  6
Continuous
 62
     7
100
AcDbLine
 10
238.540490251495
 20
154.6783057865439
 30
0.0
 11
238.540490251495
 21
134.7783057865439
 31
0.0
  0
LINE
  5
437
330
221
100
AcDbEntity
  8
7_ALL_FEATURES
  6
Continuous
 62
     7
100
AcDbLine
 10
239.040490251495
 20
154.6783057865439
 30
0.0
 11
239.040490251495
 21
134.7783057865439
 31
0.0
  0
LINE
  5
438
330
221
100
AcDbEntity
  8
7_ALL_FEATURES
  6
Continuous
 62
     7
100
AcDbLine
 10
240.385789713095
 20
91.2283057865439
 30
0.0
 11
240.963139982295
 21
92.2283057865439
 31
0.0
  0
LINE
  5
439
330
221
100
AcDbEntity
  8
7_ALL_FEATURES
  6
Continuous
 62
     7
100
AcDbLine
 10
242.695190789895
 20
91.2283057865439
 30
0.0
 11
242.117840520695
 21
90.2283057865439
 31
0.0
  0
LINE
  5
43A
330
221
100
AcDbEntity
  8
7_ALL_FEATURES
  6
Continuous
 62
     7
100
AcDbLine
 10
251.040490251495
 20
82.2283057865439
 30
0.0
 11
250.540490251495
 21
81.7283057865439
 31
0.0
  0
LINE
  5
43B
330
221
100
AcDbEntity
  8
7_ALL_FEATURES
  6
Continuous
 62
     7
100
AcDbLine
 10
237.915490251495
 20
155.4783057865439
 30
0.0
 11
236.415490251495
 21
156.9783057865439
 31
0.0
  0
LINE
  5
43C
330
221
100
AcDbEntity
  8
7_ALL_FEATURES
  6
Continuous
 62
     7
100
AcDbLine
 10
250.540490251495
 20
82.2283057865439
 30
0.0
 11
250.540490251495
 21
160.7283057865439
 31
0.0
  0
LINE
  5
43D
330
221
100
AcDbEntity
  8
7_ALL_FEATURES
  6
Continuous
 62
     7
100
AcDbLine
 10
251.040490251495
 20
82.2283057865439
 30
0.0
 11
251.040490251495
 21
160.7283057865439
 31
0.0
  0
LINE
  5
443
330
221
100
AcDbEntity
  8
7_ALL_FEATURES
  6
Continuous
 62
     7
100
AcDbLine
 10
250.540490251495
 20
161.2283057865439
 30
0.0
 11
251.040490251495
 21
160.7283057865439
 31
0.0
  0
LINE
  5
444
330
221
100
AcDbEntity
  8
7_ALL_FEATURES
  6
Continuous
 62
     7
100
AcDbLine
 10
43.04049025149497
 20
248.933018566635
 30
0.0
 11
43.04049025149497
 21
220.933018566635
 31
0.0
  0
LINE
  5
445
330
221
100
AcDbEntity
  8
7_ALL_FEATURES
  6
Continuous
 62
     7
100
AcDbLine
 10
43.54049025149497
 20
248.933018566635
 30
0.0
 11
43.54049025149497
 21
220.933018566635
 31
0.0
  0
LINE
  5
446
330
221
100
AcDbEntity
  8
7_ALL_FEATURES
  6
Continuous
 62
     7
100
AcDbLine
 10
45.04049025149497
 20
241.433018566635
 30
0.0
 11
45.04049025149497
 21
228.433018566635
 31
0.0
  0
LINE
  5
447
330
221
100
AcDbEntity
  8
7_ALL_FEATURES
  6
Continuous
 62
     7
100
AcDbLine
 10
45.54049025149497
 20
241.433018566635
 30
0.0
 11
45.54049025149497
 21
228.433018566635
 31
0.0
  0
LINE
  5
448
330
221
100
AcDbEntity
  8
7_ALL_FEATURES
  6
Continuous
 62
     7
100
AcDbLine
 10
46.04049025149497
 20
228.933018566635
 30
0.0
 11
46.04049025149497
 21
240.933018566635
 31
0.0
  0
LINE
  5
449
330
221
100
AcDbEntity
  8
7_ALL_FEATURES
  6
Continuous
 62
     9
100
AcDbLine
 10
51.54049025149497
 20
222.433018566635
 30
0.0
 11
51.54049025149497
 21
221.933018566635
 31
0.0
  0
LINE
  5
44A
330
221
100
AcDbEntity
  8
7_ALL_FEATURES
  6
Continuous
 62
     9
100
AcDbLine
 10
51.54049025149497
 20
247.433018566635
 30
0.0
 11
51.54049025149497
 21
247.933018566635
 31
0.0
  0
LINE
  5
44B
330
221
100
AcDbEntity
  8
7_ALL_FEATURES
  6
Continuous
 62
     7
100
AcDbLine
 10
43.04049025149497
 20
220.933018566635
 30
0.0
 11
43.54049025149497
 21
220.433018566635
 31
0.0
  0
LINE
  5
44C
330
221
100
AcDbEntity
  8
7_ALL_FEATURES
  6
Continuous
 62
     7
100
AcDbLine
 10
51.09711457849498
 20
234.933018566635
 30
0.0
 11
51.81880241489498
 21
233.683018566635
 31
0.0
  0
LINE
  5
44D
330
221
100
AcDbEntity
  8
02___PRT_ALL_AXES
  6
Continuous
 62
     7
100
AcDbLine
 10
64.54049025149497
 20
237.433018566635
 30
0.0
 11
64.54049025149497
 21
232.433018566635
 31
0.0
  0
LINE
  5
44E
330
221
100
AcDbEntity
  8
06___PRT_ALL_SURFS
  6
Continuous
 62
     7
100
AcDbLine
 10
67.99049025149498
 20
238.303018566635
 30
0.0
 11
67.99049025149498
 21
238.403018566635
 31
0.0
  0
LINE
  5
44F
330
221
100
AcDbEntity
  8
06___PRT_ALL_SURFS
  6
Continuous
 62
     7
100
AcDbLine
 10
68.09049025149498
 20
238.303018566635
 30
0.0
 11
68.09049025149498
 21
238.751975293435
 31
0.0
  0
LINE
  5
450
330
221
100
AcDbEntity
  8
02___PRT_ALL_AXES
  6
Continuous
 62
     7
100
AcDbLine
 10
69.54049025149497
 20
232.433018566635
 30
0.0
 11
69.54049025149497
 21
237.433018566635
 31
0.0
  0
LINE
  5
451
330
221
100
AcDbEntity
  8
7_ALL_FEATURES
  6
Continuous
 62
     7
100
AcDbLine
 10
51.81880241489498
 20
236.183018566635
 30
0.0
 11
51.09711457849498
 21
234.933018566635
 31
0.0
  0
LINE
  5
452
330
221
100
AcDbEntity
  8
7_ALL_FEATURES
  6
Continuous
 62
     7
100
AcDbLine
 10
53.26217808789498
 20
233.683018566635
 30
0.0
 11
53.98386592449498
 21
234.933018566635
 31
0.0
  0
LINE
  5
453
330
221
100
AcDbEntity
  8
7_ALL_FEATURES
  6
Continuous
 62
     7
100
AcDbLine
 10
43.54049025149497
 20
249.433018566635
 30
0.0
 11
43.04049025149497
 21
248.933018566635
 31
0.0
  0
LINE
  5
454
330
221
100
AcDbEntity
  8
7_ALL_FEATURES
  6
Continuous
 62
     7
100
AcDbLine
 10
53.98386592449498
 20
234.933018566635
 30
0.0
 11
53.26217808789498
 21
236.183018566635
 31
0.0
  0
LINE
  5
455
330
221
100
AcDbEntity
  8
7_ALL_FEATURES
  6
Continuous
 62
     7
100
AcDbLine
 10
84.04049025149499
 20
244.933018566635
 30
0.0
 11
84.04049025149499
 21
237.933018566635
 31
0.0
  0
LINE
  5
456
330
221
100
AcDbEntity
  8
7_ALL_FEATURES
  6
Continuous
 62
     7
100
AcDbLine
 10
43.54049025149497
 20
248.933018566635
 30
0.0
 11
43.29049025149497
 21
249.183018566635
 31
0.0
  0
LINE
  5
457
330
221
100
AcDbEntity
  8
7_ALL_FEATURES
  6
Continuous
 62
     7
100
AcDbLine
 10
43.54049025149497
 20
220.933018566635
 30
0.0
 11
43.29049025149497
 21
220.683018566635
 31
0.0
  0
LINE
  5
458
330
221
100
AcDbEntity
  8
06___PRT_ALL_SURFS
  6
Continuous
 62
     7
100
AcDbLine
 10
106.389645878095
 20
230.3932162380351
 30
0.0
 11
106.389645878095
 21
230.147450469035
 31
0.0
  0
LINE
  5
459
330
221
100
AcDbEntity
  8
06___PRT_ALL_SURFS
  6
Continuous
 62
     7
100
AcDbLine
 10
107.480025493895
 20
230.3932156396351
 30
0.0
 11
107.480025493895
 21
230.1981813028351
 31
0.0
  0
LINE
  5
45A
330
221
100
AcDbEntity
  8
06___PRT_ALL_SURFS
  6
Continuous
 62
     7
100
AcDbLine
 10
107.691334624895
 20
230.3932156396351
 30
0.0
 11
107.691334624895
 21
230.147450469035
 31
0.0
  0
LINE
  5
45B
330
221
100
AcDbEntity
  8
7_ALL_FEATURES
  6
Continuous
 62
     7
100
AcDbLine
 10
110.540490251495
 20
245.933018566635
 30
0.0
 11
110.540490251495
 21
247.433018566635
 31
0.0
  0
LINE
  5
45C
330
221
100
AcDbEntity
  8
7_ALL_FEATURES
  6
Continuous
 62
     9
100
AcDbLine
 10
111.181511172095
 20
245.933018566635
 30
0.0
 11
111.181511172095
 21
247.433018566635
 31
0.0
  0
LINE
  5
45D
330
221
100
AcDbEntity
  8
7_ALL_FEATURES
  6
Continuous
 62
     7
100
AcDbLine
 10
106.318802414895
 20
242.183018566635
 30
0.0
 11
105.597114578495
 21
240.933018566635
 31
0.0
  0
LINE
  5
45E
330
221
100
AcDbEntity
  8
06___PRT_ALL_SURFS
  6
Continuous
 62
     7
100
AcDbLine
 10
105.941040400895
 20
230.216392053235
 30
0.0
 11
106.042344321895
 21
230.040928515235
 31
0.0
  0
LINE
  5
45F
330
221
100
AcDbEntity
  8
06___PRT_ALL_SURFS
  6
Continuous
 62
     7
100
AcDbLine
 10
106.124039476295
 20
230.3220466186351
 30
0.0
 11
106.244905066895
 21
230.112701274635
 31
0.0
  0
LINE
  5
460
330
221
100
AcDbEntity
  8
7_ALL_FEATURES
  6
Continuous
 62
     7
100
AcDbLine
 10
105.597114578495
 20
240.933018566635
 30
0.0
 11
106.318802414895
 21
239.683018566635
 31
0.0
  0
LINE
  5
461
330
221
100
AcDbEntity
  8
7_ALL_FEATURES
  6
Continuous
 62
     9
100
AcDbLine
 10
116.399469330695
 20
245.933018566635
 30
0.0
 11
116.399469330695
 21
247.433018566635
 31
0.0
  0
LINE
  5
462
330
221
100
AcDbEntity
  8
7_ALL_FEATURES
  6
Continuous
 62
     7
100
AcDbLine
 10
117.040490251495
 20
230.374537006635
 30
0.0
 11
117.040490251495
 21
247.433018566635
 31
0.0
  0
LINE
  5
463
330
221
100
AcDbEntity
  8
7_ALL_FEATURES
  6
Continuous
 62
     9
100
AcDbLine
 10
119.040490251495
 20
230.374537006635
 30
0.0
 11
119.040490251495
 21
247.433018566635
 31
0.0
  0
LINE
  5
464
330
221
100
AcDbEntity
  8
7_ALL_FEATURES
  6
Continuous
 62
     7
100
AcDbLine
 10
107.762178087895
 20
239.683018566635
 30
0.0
 11
108.483865924495
 21
240.933018566635
 31
0.0
  0
LINE
  5
465
330
221
100
AcDbEntity
  8
06___PRT_ALL_SURFS
  6
Continuous
 62
     7
100
AcDbLine
 10
107.956941325895
 20
230.322047137035
 30
0.0
 11
107.836075435895
 21
230.112701274635
 31
0.0
  0
LINE
  5
468
330
221
100
AcDbEntity
  8
06___PRT_ALL_SURFS
  6
Continuous
 62
     7
100
AcDbLine
 10
108.636835649095
 20
229.986680527835
 30
0.0
 11
108.453836573695
 21
230.092335093235
 31
0.0
  0
LINE
  5
469
330
221
100
AcDbEntity
  8
7_ALL_FEATURES
  6
Continuous
 62
     7
100
AcDbLine
 10
108.483865924495
 20
240.933018566635
 30
0.0
 11
107.762178087895
 21
242.183018566635
 31
0.0
  0
LINE
  5
46A
330
221
100
AcDbEntity
  8
02___PRT_ALL_AXES
  6
Continuous
 62
     7
100
AcDbLine
 10
119.535814938095
 20
222.933018566635
 30
0.0
 11
119.496455842095
 21
222.652964047835
 31
0.0
  0
LINE
  5
46B
330
221
100
AcDbEntity
  8
7_ALL_FEATURES
  6
Continuous
 62
     9
100
AcDbLine
 10
118.893317438095
 20
229.933018566635
 30
0.0
 11
119.040490251495
 21
230.374537006635
 31
0.0
  0
LINE
  5
46C
330
221
100
AcDbEntity
  8
7_ALL_FEATURES
  6
Continuous
 62
     7
100
AcDbLine
 10
250.540490251495
 20
220.433018566635
 30
0.0
 11
43.54049025149497
 21
220.433018566635
 31
0.0
  0
LINE
  5
46D
330
221
100
AcDbEntity
  8
7_ALL_FEATURES
  6
Continuous
 62
     7
100
AcDbLine
 10
250.540490251495
 20
220.933018566635
 30
0.0
 11
43.54049025149497
 21
220.933018566635
 31
0.0
  0
LINE
  5
46E
330
221
100
AcDbEntity
  8
02___PRT_ALL_AXES
  6
Continuous
 62
     7
100
AcDbLine
 10
119.496455842095
 20
222.652964047835
 30
0.0
 11
121.061449260295
 21
222.433018566635
 31
0.0
  0
LINE
  5
46F
330
221
100
AcDbEntity
  8
02___PRT_ALL_AXES
  6
Continuous
 62
     7
100
AcDbLine
 10
110.207921253695
 20
229.933018566635
 30
0.0
 11
108.344323501895
 21
230.6810978228351
 31
0.0
  0
LINE
  5
470
330
221
100
AcDbEntity
  8
02___PRT_ALL_AXES
  6
Continuous
 62
     7
100
AcDbLine
 10
124.988883829695
 20
222.933018566635
 30
0.0
 11
124.918613412295
 21
222.433018566635
 31
0.0
  0
LINE
  5
471
330
221
100
AcDbEntity
  8
7_ALL_FEATURES
  6
Continuous
 62
     7
100
AcDbLine
 10
51.54049025149497
 20
221.933018566635
 30
0.0
 11
242.540490251495
 21
221.933018566635
 31
0.0
  0
LINE
  5
472
330
221
100
AcDbEntity
  8
7_ALL_FEATURES
  6
Continuous
 62
     7
100
AcDbLine
 10
51.54049025149497
 20
222.433018566635
 30
0.0
 11
242.540490251495
 21
222.433018566635
 31
0.0
  0
LINE
  5
473
330
221
100
AcDbEntity
  8
7_ALL_FEATURES
  6
Continuous
 62
     7
100
AcDbLine
 10
242.040490251495
 20
222.933018566635
 30
0.0
 11
150.611204465695
 21
222.933018566635
 31
0.0
  0
LINE
  5
474
330
221
100
AcDbEntity
  8
7_ALL_FEATURES
  6
Continuous
 62
     7
100
AcDbLine
 10
143.469776037095
 20
222.933018566635
 30
0.0
 11
52.04049025149497
 21
222.933018566635
 31
0.0
  0
LINE
  5
475
330
221
100
AcDbEntity
  8
7_ALL_FEATURES
  6
Continuous
 62
     7
100
AcDbLine
 10
149.146631131495
 20
223.933018566635
 30
0.0
 11
144.934349371495
 21
223.933018566635
 31
0.0
  0
LINE
  5
476
330
221
100
AcDbEntity
  8
7_ALL_FEATURES
  6
Continuous
 62
     9
100
AcDbLine
 10
119.040490251495
 20
230.374537006635
 30
0.0
 11
120.365045571695
 21
229.933018566635
 31
0.0
  0
LINE
  5
477
330
221
100
AcDbEntity
  8
06___PRT_ALL_SURFS
  6
Continuous
 62
     7
100
AcDbLine
 10
105.627126819095
 20
230.0923252148351
 30
0.0
 11
105.444127743695
 21
229.986670649435
 31
0.0
  0
LINE
  5
478
330
221
100
AcDbEntity
  8
06___PRT_ALL_SURFS
  6
Continuous
 62
     7
100
AcDbLine
 10
106.124039476295
 20
230.3220466186351
 30
0.0
 11
105.941040400895
 21
230.216392053235
 31
0.0
  0
LINE
  5
479
330
221
100
AcDbEntity
  8
7_ALL_FEATURES
  6
Continuous
 62
     9
100
AcDbLine
 10
45.54049025149497
 20
228.433018566635
 30
0.0
 11
45.04049025149497
 21
228.433018566635
 31
0.0
  0
LINE
  5
47A
330
221
100
AcDbEntity
  8
7_ALL_FEATURES
  6
Continuous
 62
     9
100
AcDbLine
 10
248.540490251495
 20
228.433018566635
 30
0.0
 11
249.040490251495
 21
228.433018566635
 31
0.0
  0
LINE
  5
47B
330
221
100
AcDbEntity
  8
7_ALL_FEATURES
  6
Continuous
 62
     7
100
AcDbLine
 10
92.04049025149499
 20
229.933018566635
 30
0.0
 11
202.040490251495
 21
229.933018566635
 31
0.0
  0
LINE
  5
47C
330
221
100
AcDbEntity
  8
7_ALL_FEATURES
  6
Continuous
 62
     9
100
AcDbLine
 10
119.040490251495
 20
230.374537006635
 30
0.0
 11
117.040490251495
 21
230.374537006635
 31
0.0
  0
LINE
  5
47D
330
221
100
AcDbEntity
  8
06___PRT_ALL_SURFS
  6
Continuous
 62
     7
100
AcDbLine
 10
107.691334624895
 20
230.3932156396351
 30
0.0
 11
107.480025493895
 21
230.3932156396351
 31
0.0
  0
LINE
  5
47E
330
221
100
AcDbEntity
  8
7_ALL_FEATURES
  6
Continuous
 62
     7
100
AcDbLine
 10
94.84417938209498
 20
230.433018566635
 30
0.0
 11
89.40462015809499
 21
230.433018566635
 31
0.0
  0
LINE
  5
47F
330
221
100
AcDbEntity
  8
06___PRT_ALL_SURFS
  6
Continuous
 62
     7
100
AcDbLine
 10
107.146134938495
 20
230.442727396435
 30
0.0
 11
106.934825807495
 21
230.442727396435
 31
0.0
  0
LINE
  5
480
330
221
100
AcDbEntity
  8
7_ALL_FEATURES
  6
Continuous
 62
     7
100
AcDbLine
 10
95.19777096909499
 20
230.933018566635
 30
0.0
 11
88.23878660649498
 21
230.933018566635
 31
0.0
  0
LINE
  5
481
330
221
100
AcDbEntity
  8
02___PRT_ALL_AXES
  6
Continuous
 62
     7
100
AcDbLine
 10
224.540490251495
 20
232.433018566635
 30
0.0
 11
229.540490251495
 21
232.433018566635
 31
0.0
  0
LINE
  5
482
330
221
100
AcDbEntity
  8
7_ALL_FEATURES
  6
Continuous
 62
     7
100
AcDbLine
 10
51.81880241489498
 20
233.683018566635
 30
0.0
 11
53.26217808789498
 21
233.683018566635
 31
0.0
  0
LINE
  5
483
330
221
100
AcDbEntity
  8
7_ALL_FEATURES
  6
Continuous
 62
     7
100
AcDbLine
 10
240.818802414895
 20
233.683018566635
 30
0.0
 11
242.262178087895
 21
233.683018566635
 31
0.0
  0
LINE
  5
484
330
221
100
AcDbEntity
  8
7_ALL_FEATURES
  6
Continuous
 62
     7
100
AcDbLine
 10
242.262178087895
 20
236.183018566635
 30
0.0
 11
240.818802414895
 21
236.183018566635
 31
0.0
  0
LINE
  5
485
330
221
100
AcDbEntity
  8
7_ALL_FEATURES
  6
Continuous
 62
     7
100
AcDbLine
 10
53.26217808789498
 20
236.183018566635
 30
0.0
 11
51.81880241489498
 21
236.183018566635
 31
0.0
  0
LINE
  5
486
330
221
100
AcDbEntity
  8
02___PRT_ALL_AXES
  6
Continuous
 62
     7
100
AcDbLine
 10
229.540490251495
 20
237.433018566635
 30
0.0
 11
224.540490251495
 21
237.433018566635
 31
0.0
  0
LINE
  5
487
330
221
100
AcDbEntity
  8
06___PRT_ALL_SURFS
  6
Continuous
 62
     7
100
AcDbLine
 10
65.85230921989498
 20
238.303018566635
 30
0.0
 11
68.22867128309498
 21
238.303018566635
 31
0.0
  0
LINE
  5
488
330
221
100
AcDbEntity
  8
06___PRT_ALL_SURFS
  6
Continuous
 62
     7
100
AcDbLine
 10
65.86215836009498
 20
238.403018566635
 30
0.0
 11
67.99049025149498
 21
238.403018566635
 31
0.0
  0
LINE
  5
489
330
221
100
AcDbEntity
  8
7_ALL_FEATURES
  6
Continuous
 62
     7
100
AcDbLine
 10
84.04049025149499
 20
238.933018566635
 30
0.0
 11
95.19777096909499
 21
238.933018566635
 31
0.0
  0
LINE
  5
48A
330
221
100
AcDbEntity
  8
7_ALL_FEATURES
  6
Continuous
 62
     7
100
AcDbLine
 10
84.23680110849497
 20
239.433018566635
 30
0.0
 11
94.84417937649499
 21
239.433018566635
 31
0.0
  0
LINE
  5
48B
330
221
100
AcDbEntity
  8
7_ALL_FEATURES
  6
Continuous
 62
     7
100
AcDbLine
 10
106.318802414895
 20
239.683018566635
 30
0.0
 11
107.762178087895
 21
239.683018566635
 31
0.0
  0
LINE
  5
48C
330
221
100
AcDbEntity
  8
7_ALL_FEATURES
  6
Continuous
 62
     9
100
AcDbLine
 10
45.54049025149497
 20
241.433018566635
 30
0.0
 11
45.04049025149497
 21
241.433018566635
 31
0.0
  0
LINE
  5
48D
330
221
100
AcDbEntity
  8
7_ALL_FEATURES
  6
Continuous
 62
     9
100
AcDbLine
 10
248.540490251495
 20
241.433018566635
 30
0.0
 11
249.040490251495
 21
241.433018566635
 31
0.0
  0
LINE
  5
48E
330
221
100
AcDbEntity
  8
7_ALL_FEATURES
  6
Continuous
 62
     7
100
AcDbLine
 10
107.762178087895
 20
242.183018566635
 30
0.0
 11
106.318802414895
 21
242.183018566635
 31
0.0
  0
LINE
  5
490
330
221
100
AcDbEntity
  8
7_ALL_FEATURES
  6
Continuous
 62
     7
100
AcDbLine
 10
110.540490251495
 20
245.933018566635
 30
0.0
 11
117.040490251495
 21
245.933018566635
 31
0.0
  0
LINE
  5
491
330
221
100
AcDbEntity
  8
7_ALL_FEATURES
  6
Continuous
 62
     7
100
AcDbLine
 10
52.04049025149497
 20
246.933018566635
 30
0.0
 11
82.04049025149499
 21
246.933018566635
 31
0.0
  0
LINE
  5
492
330
221
100
AcDbEntity
  8
7_ALL_FEATURES
  6
Continuous
 62
     7
100
AcDbLine
 10
212.040490251495
 20
246.933018566635
 30
0.0
 11
242.040490251495
 21
246.933018566635
 31
0.0
  0
LINE
  5
493
330
221
100
AcDbEntity
  8
7_ALL_FEATURES
  6
Continuous
 62
     7
100
AcDbLine
 10
242.540490251495
 20
247.433018566635
 30
0.0
 11
51.54049025149497
 21
247.433018566635
 31
0.0
  0
LINE
  5
494
330
221
100
AcDbEntity
  8
7_ALL_FEATURES
  6
Continuous
 62
     7
100
AcDbLine
 10
242.540490251495
 20
247.933018566635
 30
0.0
 11
51.54049025149497
 21
247.933018566635
 31
0.0
  0
LINE
  5
495
330
221
100
AcDbEntity
  8
7_ALL_FEATURES
  6
Continuous
 62
     7
100
AcDbLine
 10
43.54049025149497
 20
248.933018566635
 30
0.0
 11
250.540490251495
 21
248.933018566635
 31
0.0
  0
LINE
  5
496
330
221
100
AcDbEntity
  8
7_ALL_FEATURES
  6
Continuous
 62
     7
100
AcDbLine
 10
43.54049025149497
 20
249.433018566635
 30
0.0
 11
250.540490251495
 21
249.433018566635
 31
0.0
  0
LINE
  5
497
330
221
100
AcDbEntity
  8
7_ALL_FEATURES
  6
Continuous
 62
     7
100
AcDbLine
 10
210.040490251495
 20
244.933018566635
 30
0.0
 11
210.040490251495
 21
237.933018566635
 31
0.0
  0
LINE
  5
498
330
221
100
AcDbEntity
  8
7_ALL_FEATURES
  6
Continuous
 62
     7
100
AcDbLine
 10
250.540490251495
 20
220.933018566635
 30
0.0
 11
250.790490251495
 21
220.683018566635
 31
0.0
  0
LINE
  5
499
330
221
100
AcDbEntity
  8
7_ALL_FEATURES
  6
Continuous
 62
     7
100
AcDbLine
 10
250.790490251495
 20
249.183018566635
 30
0.0
 11
250.540490251495
 21
248.933018566635
 31
0.0
  0
LINE
  5
49A
330
221
100
AcDbEntity
  8
7_ALL_FEATURES
  6
Continuous
 62
     7
100
AcDbLine
 10
240.097114578495
 20
234.933018566635
 30
0.0
 11
240.818802414895
 21
233.683018566635
 31
0.0
  0
LINE
  5
49B
330
221
100
AcDbEntity
  8
7_ALL_FEATURES
  6
Continuous
 62
     9
100
AcDbLine
 10
227.040490251495
 20
232.433018566635
 30
0.0
 11
227.040490251495
 21
237.433018566635
 31
0.0
  0
LINE
  5
49C
330
221
100
AcDbEntity
  8
7_ALL_FEATURES
  6
Continuous
 62
     7
100
AcDbLine
 10
229.040490251495
 20
232.433018566635
 30
0.0
 11
229.040490251495
 21
237.433018566635
 31
0.0
  0
LINE
  5
49D
330
221
100
AcDbEntity
  8
7_ALL_FEATURES
  6
Continuous
 62
     7
100
AcDbLine
 10
240.818802414895
 20
236.183018566635
 30
0.0
 11
240.097114578495
 21
234.933018566635
 31
0.0
  0
LINE
  5
49E
330
221
100
AcDbEntity
  8
7_ALL_FEATURES
  6
Continuous
 62
     7
100
AcDbLine
 10
251.040490251495
 20
248.933018566635
 30
0.0
 11
250.540490251495
 21
249.433018566635
 31
0.0
  0
LINE
  5
49F
330
221
100
AcDbEntity
  8
7_ALL_FEATURES
  6
Continuous
 62
     7
100
AcDbLine
 10
242.983865924495
 20
234.933018566635
 30
0.0
 11
242.262178087895
 21
236.183018566635
 31
0.0
  0
LINE
  5
4A0
330
221
100
AcDbEntity
  8
7_ALL_FEATURES
  6
Continuous
 62
     7
100
AcDbLine
 10
242.262178087895
 20
233.683018566635
 30
0.0
 11
242.983865924495
 21
234.933018566635
 31
0.0
  0
LINE
  5
4A1
330
221
100
AcDbEntity
  8
7_ALL_FEATURES
  6
Continuous
 62
     7
100
AcDbLine
 10
251.040490251495
 20
220.933018566635
 30
0.0
 11
250.540490251495
 21
220.433018566635
 31
0.0
  0
LINE
  5
4A2
330
221
100
AcDbEntity
  8
7_ALL_FEATURES
  6
Continuous
 62
     9
100
AcDbLine
 10
242.540490251495
 20
222.433018566635
 30
0.0
 11
242.540490251495
 21
221.933018566635
 31
0.0
  0
LINE
  5
4A3
330
221
100
AcDbEntity
  8
7_ALL_FEATURES
  6
Continuous
 62
     9
100
AcDbLine
 10
242.540490251495
 20
247.433018566635
 30
0.0
 11
242.540490251495
 21
247.933018566635
 31
0.0
  0
LINE
  5
4A4
330
221
100
AcDbEntity
  8
7_ALL_FEATURES
  6
Continuous
 62
     7
100
AcDbLine
 10
248.040490251495
 20
240.933018566635
 30
0.0
 11
248.040490251495
 21
228.933018566635
 31
0.0
  0
LINE
  5
4A5
330
221
100
AcDbEntity
  8
7_ALL_FEATURES
  6
Continuous
 62
     7
100
AcDbLine
 10
248.540490251495
 20
228.433018566635
 30
0.0
 11
248.540490251495
 21
241.433018566635
 31
0.0
  0
LINE
  5
4A6
330
221
100
AcDbEntity
  8
7_ALL_FEATURES
  6
Continuous
 62
     7
100
AcDbLine
 10
249.040490251495
 20
228.433018566635
 30
0.0
 11
249.040490251495
 21
241.433018566635
 31
0.0
  0
LINE
  5
4A7
330
221
100
AcDbEntity
  8
7_ALL_FEATURES
  6
Continuous
 62
     7
100
AcDbLine
 10
250.540490251495
 20
248.933018566635
 30
0.0
 11
250.540490251495
 21
220.933018566635
 31
0.0
  0
LINE
  5
4A8
330
221
100
AcDbEntity
  8
7_ALL_FEATURES
  6
Continuous
 62
     7
100
AcDbLine
 10
251.040490251495
 20
248.933018566635
 30
0.0
 11
251.040490251495
 21
220.933018566635
 31
0.0
  0
LINE
  5
4A9
330
221
100
AcDbEntity
  8
7_ALL_FEATURES
  6
Continuous
 62
     7
100
AcDbLine
 10
278.9775431530981
 20
220.933018566635
 30
0.0
 11
279.4775431530981
 21
220.433018566635
 31
0.0
  0
LINE
  5
4AA
330
221
100
AcDbEntity
  8
7_ALL_FEATURES
  6
Continuous
 62
     7
100
AcDbLine
 10
278.9775431530981
 20
248.933018566635
 30
0.0
 11
278.9775431530981
 21
220.933018566635
 31
0.0
  0
LINE
  5
4AB
330
221
100
AcDbEntity
  8
7_ALL_FEATURES
  6
Continuous
 62
     7
100
AcDbLine
 10
279.4775431530981
 20
248.933018566635
 30
0.0
 11
279.4775431530981
 21
220.933018566635
 31
0.0
  0
LINE
  5
4AC
330
221
100
AcDbEntity
  8
7_ALL_FEATURES
  6
Continuous
 62
     7
100
AcDbLine
 10
279.4775431530981
 20
249.433018566635
 30
0.0
 11
278.9775431530981
 21
248.933018566635
 31
0.0
  0
LINE
  5
4AD
330
221
100
AcDbEntity
  8
7_ALL_FEATURES
  6
Continuous
 62
     7
100
AcDbLine
 10
279.4775431530981
 20
248.933018566635
 30
0.0
 11
279.2275431530981
 21
249.183018566635
 31
0.0
  0
LINE
  5
4AE
330
221
100
AcDbEntity
  8
7_ALL_FEATURES
  6
Continuous
 62
     7
100
AcDbLine
 10
357.9775431530981
 20
220.433018566635
 30
0.0
 11
279.4775431530981
 21
220.433018566635
 31
0.0
  0
LINE
  5
4AF
330
221
100
AcDbEntity
  8
7_ALL_FEATURES
  6
Continuous
 62
     7
100
AcDbLine
 10
357.9775431530981
 20
220.933018566635
 30
0.0
 11
279.4775431530981
 21
220.933018566635
 31
0.0
  0
LINE
  5
4B0
330
221
100
AcDbEntity
  8
7_ALL_FEATURES
  6
Continuous
 62
     7
100
AcDbLine
 10
279.4775431530981
 20
220.933018566635
 30
0.0
 11
279.2275431530981
 21
220.683018566635
 31
0.0
  0
LINE
  5
4B1
330
221
100
AcDbEntity
  8
7_ALL_FEATURES
  6
Continuous
 62
     7
100
AcDbLine
 10
279.4775431530981
 20
248.933018566635
 30
0.0
 11
357.9775431530981
 21
248.933018566635
 31
0.0
  0
LINE
  5
4B2
330
221
100
AcDbEntity
  8
7_ALL_FEATURES
  6
Continuous
 62
     7
100
AcDbLine
 10
279.4775431530981
 20
249.433018566635
 30
0.0
 11
357.9775431530981
 21
249.433018566635
 31
0.0
  0
LINE
  5
4B3
330
221
100
AcDbEntity
  8
7_ALL_FEATURES
  6
Continuous
 62
     7
100
AcDbLine
 10
357.9775431530981
 20
220.933018566635
 30
0.0
 11
358.2275431530981
 21
220.683018566635
 31
0.0
  0
LINE
  5
4B4
330
221
100
AcDbEntity
  8
7_ALL_FEATURES
  6
Continuous
 62
     7
100
AcDbLine
 10
358.2275431530981
 20
249.183018566635
 30
0.0
 11
357.9775431530981
 21
248.933018566635
 31
0.0
  0
LINE
  5
4B5
330
221
100
AcDbEntity
  8
7_ALL_FEATURES
  6
Continuous
 62
     7
100
AcDbLine
 10
358.4775431530981
 20
248.933018566635
 30
0.0
 11
357.9775431530981
 21
249.433018566635
 31
0.0
  0
LINE
  5
4B6
330
221
100
AcDbEntity
  8
7_ALL_FEATURES
  6
Continuous
 62
     7
100
AcDbLine
 10
357.9775431530981
 20
248.933018566635
 30
0.0
 11
357.9775431530981
 21
220.933018566635
 31
0.0
  0
LINE
  5
4B7
330
221
100
AcDbEntity
  8
7_ALL_FEATURES
  6
Continuous
 62
     7
100
AcDbLine
 10
358.4775431530981
 20
248.933018566635
 30
0.0
 11
358.4775431530981
 21
220.933018566635
 31
0.0
  0
LINE
  5
4B8
330
221
100
AcDbEntity
  8
7_ALL_FEATURES
  6
Continuous
 62
     7
100
AcDbLine
 10
358.4775431530981
 20
220.933018566635
 30
0.0
 11
357.9775431530981
 21
220.433018566635
 31
0.0
  0
LINE
  5
4BB
330
221
100
AcDbEntity
  8
7_ALL_FEATURES
  6
Continuous
 62
     7
100
AcDbLine
 10
268.1359879592
 20
126.679910544
 30
0.0
 11
266.7508753307
 21
113.8219525937
 31
0.0
  0
LINE
  5
4BC
330
221
100
AcDbEntity
  8
7_ALL_FEATURES
  6
Continuous
 62
     7
100
AcDbLine
 10
268.1359879592
 20
126.679910544
 30
0.0
 11
268.2089126234
 21
126.8530409168
 31
0.0
  0
LINE
  5
4BD
330
221
100
AcDbEntity
  8
7_ALL_FEATURES
  6
Continuous
 62
     7
100
AcDbLine
 10
274.3145055243
 20
125.1162722318
 30
0.0
 11
274.3025068341
 21
125.0048887599
 31
0.0
  0
LINE
  5
4BE
330
221
100
AcDbEntity
  8
7_ALL_FEATURES
  6
Continuous
 62
     7
100
AcDbLine
 10
266.7508753307
 20
113.8219525937
 30
0.0
 11
266.7990658408
 21
113.7654765744
 31
0.0
  0
LINE
  5
4BF
330
221
100
AcDbEntity
  8
7_ALL_FEATURES
  6
Continuous
 62
     7
100
AcDbLine
 10
283.3739897883
 20
98.3977148797
 30
0.0
 11
266.9518559297
 21
113.6120936838
 31
0.0
  0
LINE
  5
4C0
330
221
100
AcDbEntity
  8
7_ALL_FEATURES
  6
Continuous
 62
     7
100
AcDbLine
 10
283.1730091893
 20
98.6075737896
 30
0.0
 11
266.7508753307
 21
113.8219525937
 31
0.0
  0
LINE
  5
4C1
330
221
100
AcDbEntity
  8
7_ALL_FEATURES
  6
Continuous
 62
     7
100
AcDbLine
 10
266.7990658408
 20
113.7654765744
 30
0.0
 11
266.9518559297
 21
113.6120936838
 31
0.0
  0
LINE
  5
4C2
330
221
100
AcDbEntity
  8
7_ALL_FEATURES
  6
Continuous
 62
     7
100
AcDbLine
 10
283.1730091893
 20
98.6075737896
 30
0.0
 11
283.3257992782
 21
98.454190899
 31
0.0
  0
LINE
  5
4C3
330
221
100
AcDbEntity
  8
7_ALL_FEATURES
  6
Continuous
 62
     7
100
AcDbLine
 10
283.3739897883
 20
98.3977148797
 30
0.0
 11
283.3257992782
 21
98.454190899
 31
0.0
  0
LINE
  5
4C4
330
221
100
AcDbEntity
  8
7_ALL_FEATURES
  6
Continuous
 62
     7
100
AcDbLine
 10
284.8989290185
 20
117.2786318308
 30
0.0
 11
284.8613530767
 21
116.9298155174
 31
0.0
  0
LINE
  5
4C5
330
221
100
AcDbEntity
  8
7_ALL_FEATURES
  6
Continuous
 62
     7
100
AcDbLine
 10
284.5581218179
 20
111.46553174
 30
0.0
 11
283.1730091893
 21
98.6075737896
 31
0.0
  0
LINE
  5
4C6
330
221
100
AcDbEntity
  8
7_ALL_FEATURES
  6
Continuous
 62
     7
100
AcDbLine
 10
284.8884361496
 20
111.3883723507
 30
0.0
 11
283.5033235211
 21
98.5304144003
 31
0.0
  0
LINE
  5
4CB
330
221
100
AcDbEntity
  8
7_ALL_FEATURES
  6
Continuous
 62
     9
100
AcDbLine
 10
285.3706520609
 20
117.9684630585
 30
0.0
 11
285.4497717044
 21
117.6449987673
 31
0.0
  0
LINE
  5
4CC
330
221
100
AcDbEntity
  8
7_ALL_FEATURES
  6
Continuous
 62
     7
100
AcDbLine
 10
289.3967109034
 20
113.1116363621
 30
0.0
 11
289.3850467532
 21
113.0033584146
 31
0.0
  0
LINE
  5
4CD
330
221
100
AcDbEntity
  8
7_ALL_FEATURES
  6
Continuous
 62
     7
100
AcDbLine
 10
290.3876538988
 20
112.8801581943
 30
0.0
 11
290.3817789484
 21
112.8256212106
 31
0.0
  0
LINE
  5
4CE
330
221
100
AcDbEntity
  8
7_ALL_FEATURES
  6
Continuous
 62
     7
100
AcDbLine
 10
284.7356460608
 20
111.5417552413
 30
0.0
 11
284.808570725
 21
111.714885614
 31
0.0
  0
LINE
  5
4CF
330
221
100
AcDbEntity
  8
7_ALL_FEATURES
  6
Continuous
 62
     7
100
AcDbLine
 10
268.3864368664
 20
126.9292644181
 30
0.0
 11
268.2089126234
 21
126.8530409168
 31
0.0
  0
LINE
  5
4D0
330
221
100
AcDbEntity
  8
7_ALL_FEATURES
  6
Continuous
 62
     7
100
AcDbLine
 10
268.1359879592
 20
126.679910544
 30
0.0
 11
284.5581218179
 21
111.46553174
 31
0.0
  0
LINE
  5
4D1
330
221
100
AcDbEntity
  8
7_ALL_FEATURES
  6
Continuous
 62
     7
100
AcDbLine
 10
268.3864368664
 20
126.9292644181
 30
0.0
 11
284.808570725
 21
111.714885614
 31
0.0
  0
LINE
  5
4D2
330
221
100
AcDbEntity
  8
7_ALL_FEATURES
  6
Continuous
 62
     7
100
AcDbLine
 10
273.0680922214
 20
125.4298095114
 30
0.0
 11
273.041609985
 21
125.4558026904
 31
0.0
  0
LINE
  5
4D3
330
221
100
AcDbEntity
  8
7_ALL_FEATURES
  6
Continuous
 62
     7
100
AcDbLine
 10
275.0376896138
 20
125.0335208702
 30
0.0
 11
275.0538068625
 21
125.0176958395
 31
0.0
  0
LINE
  5
4D4
330
221
100
AcDbEntity
  8
7_ALL_FEATURES
  6
Continuous
 62
     7
100
AcDbLine
 10
284.8884361496
 20
111.3883723507
 30
0.0
 11
284.7356460608
 21
111.5417552413
 31
0.0
  0
LINE
  5
4D5
330
221
100
AcDbEntity
  8
7_ALL_FEATURES
  6
Continuous
 62
     7
100
AcDbLine
 10
285.2622745416
 20
117.6285948911
 30
0.0
 11
284.8989290185
 21
117.2786318308
 31
0.0
  0
LINE
  5
4D6
330
221
100
AcDbEntity
  8
7_ALL_FEATURES
  6
Continuous
 62
     7
100
AcDbLine
 10
288.7343551432
 20
113.3416508455
 30
0.0
 11
284.5712919102
 21
117.1985443257
 31
0.0
  0
LINE
  5
4D7
330
221
100
AcDbEntity
  8
7_ALL_FEATURES
  6
Continuous
 62
     7
100
AcDbLine
 10
284.8989290185
 20
117.2786318308
 30
0.0
 11
289.3967109034
 21
113.1116363621
 31
0.0
  0
LINE
  5
4D8
330
221
100
AcDbEntity
  8
7_ALL_FEATURES
  6
Continuous
 62
     7
100
AcDbLine
 10
284.5712919102
 20
117.1985443257
 30
0.0
 11
284.5400829802
 21
117.2291764174
 31
0.0
  0
LINE
  5
4DA
330
221
100
AcDbEntity
  8
7_ALL_FEATURES
  6
Continuous
 62
     7
100
AcDbLine
 10
376.8198975598
 20
106.5731724626
 30
0.0
 11
283.3739897883
 21
98.3977148797
 31
0.0
  0
LINE
  5
4DB
330
221
100
AcDbEntity
  8
7_ALL_FEATURES
  6
Continuous
 62
     7
100
AcDbLine
 10
376.9492312926
 20
106.7058719832
 30
0.0
 11
283.5033235211
 21
98.5304144003
 31
0.0
  0
LINE
  5
4DC
330
221
100
AcDbEntity
  8
7_ALL_FEATURES
  6
Continuous
 62
     7
100
AcDbLine
 10
289.3967109034
 20
113.1116363621
 30
0.0
 11
290.3876538988
 21
112.8801581943
 31
0.0
  0
LINE
  5
4DD
330
221
100
AcDbEntity
  8
7_ALL_FEATURES
  6
Continuous
 62
     7
100
AcDbLine
 10
284.5581218179
 20
111.46553174
 30
0.0
 11
284.7356460608
 21
111.5417552413
 31
0.0
  0
LINE
  5
4DE
330
221
100
AcDbEntity
  8
7_ALL_FEATURES
  6
Continuous
 62
     7
100
AcDbLine
 10
284.8884361496
 20
111.3883723507
 30
0.0
 11
378.3343439212
 21
119.5638299336
 31
0.0
  0
LINE
  5
4DF
330
221
100
AcDbEntity
  8
7_ALL_FEATURES
  6
Continuous
 62
     7
100
AcDbLine
 10
284.808570725
 20
111.714885614
 30
0.0
 11
378.2544784965
 21
119.8903431969
 31
0.0
  0
LINE
  5
4E0
330
221
100
AcDbEntity
  8
7_ALL_FEATURES
  6
Continuous
 62
     7
100
AcDbLine
 10
370.9980241227
 20
119.8388055197
 30
0.0
 11
290.914429733
 21
112.8323988762
 31
0.0
  0
LINE
  5
4E1
330
221
100
AcDbEntity
  8
7_ALL_FEATURES
  6
Continuous
 62
     7
100
AcDbLine
 10
290.3876538988
 20
112.8801581943
 30
0.0
 11
371.0806781218
 21
119.9398830394
 31
0.0
  0
LINE
  5
4E2
330
221
100
AcDbEntity
  8
7_ALL_FEATURES
  6
Continuous
 62
     7
100
AcDbLine
 10
283.3257992782
 20
98.454190899
 30
0.0
 11
283.5033235211
 21
98.5304144003
 31
0.0
  0
LINE
  5
4E3
330
221
100
AcDbEntity
  8
7_ALL_FEATURES
  6
Continuous
 62
     7
100
AcDbLine
 10
365.9552987646
 20
124.6883197363
 30
0.0
 11
285.2622745416
 21
117.6285948911
 31
0.0
  0
LINE
  5
4E4
330
221
100
AcDbEntity
  8
7_ALL_FEATURES
  6
Continuous
 62
     7
100
AcDbLine
 10
285.3706520609
 20
117.9684630585
 30
0.0
 11
365.4542464506
 21
124.974869702
 31
0.0
  0
LINE
  5
4E6
330
221
100
AcDbEntity
  8
7_ALL_FEATURES
  6
Continuous
 62
     7
100
AcDbLine
 10
361.8323446379
 20
135.104722001
 30
0.0
 11
268.3864368664
 21
126.9292644181
 31
0.0
  0
LINE
  5
4E7
330
221
100
AcDbEntity
  8
7_ALL_FEATURES
  6
Continuous
 62
     7
100
AcDbLine
 10
366.94624176
 20
124.4568415684
 30
0.0
 11
365.9552987646
 21
124.6883197363
 31
0.0
  0
LINE
  5
4EC
330
221
100
AcDbEntity
  8
7_ALL_FEATURES
  6
Continuous
 62
     9
100
AcDbLine
 10
367.6343210404
 20
124.4656177328
 30
0.0
 11
367.3838721333
 21
124.2162638587
 31
0.0
  0
LINE
  5
4ED
330
221
100
AcDbEntity
  8
7_ALL_FEATURES
  6
Continuous
 62
     7
100
AcDbLine
 10
359.6346821852
 20
132.5808204597
 30
0.0
 11
359.6226834951
 21
132.4694369877
 31
0.0
  0
LINE
  5
4EF
330
221
100
AcDbEntity
  8
7_ALL_FEATURES
  6
Continuous
 62
     9
100
AcDbLine
 10
371.7973842734
 20
120.6087242525
 30
0.0
 11
371.5469353662
 21
120.3593703784
 31
0.0
  0
LINE
  5
4F0
330
221
100
AcDbEntity
  8
7_ALL_FEATURES
  6
Continuous
 62
     7
100
AcDbLine
 10
371.0806781218
 20
119.9398830394
 30
0.0
 11
371.4440236448
 21
120.2898460998
 31
0.0
  0
LINE
  5
4F1
330
221
100
AcDbEntity
  8
7_ALL_FEATURES
  6
Continuous
 62
     7
100
AcDbLine
 10
376.9974218028
 20
106.649395964
 30
0.0
 11
376.8198975598
 21
106.5731724626
 31
0.0
  0
LINE
  5
4F2
330
221
100
AcDbEntity
  8
7_ALL_FEATURES
  6
Continuous
 62
     7
100
AcDbLine
 10
371.4440236448
 20
120.2898460998
 30
0.0
 11
366.94624176
 21
124.4568415684
 31
0.0
  0
LINE
  5
4F3
330
221
100
AcDbEntity
  8
7_ALL_FEATURES
  6
Continuous
 62
     7
100
AcDbLine
 10
367.3838721333
 20
124.2162638587
 30
0.0
 11
371.5469353662
 21
120.3593703784
 31
0.0
  0
LINE
  5
4F4
330
221
100
AcDbEntity
  8
7_ALL_FEATURES
  6
Continuous
 62
     7
100
AcDbLine
 10
367.6343210404
 20
124.4656177328
 30
0.0
 11
371.7973842734
 21
120.6087242525
 31
0.0
  0
LINE
  5
4F5
330
221
100
AcDbEntity
  8
7_ALL_FEATURES
  6
Continuous
 62
     7
100
AcDbLine
 10
358.3882688823
 20
132.8943577393
 30
0.0
 11
358.3617866459
 21
132.9203509183
 31
0.0
  0
LINE
  5
4F6
330
221
100
AcDbEntity
  8
7_ALL_FEATURES
  6
Continuous
 62
     7
100
AcDbLine
 10
360.3578662748
 20
132.4980690981
 30
0.0
 11
360.3739835235
 21
132.4822440673
 31
0.0
  0
LINE
  5
4F7
330
221
100
AcDbEntity
  8
7_ALL_FEATURES
  6
Continuous
 62
     7
100
AcDbLine
 10
376.9492312926
 20
106.7058719832
 30
0.0
 11
376.9974218028
 21
106.649395964
 31
0.0
  0
LINE
  5
4F8
330
221
100
AcDbEntity
  8
7_ALL_FEATURES
  6
Continuous
 62
     7
100
AcDbLine
 10
378.2544784965
 20
119.8903431969
 30
0.0
 11
361.8323446379
 21
135.104722001
 31
0.0
  0
LINE
  5
4F9
330
221
100
AcDbEntity
  8
7_ALL_FEATURES
  6
Continuous
 62
     7
100
AcDbLine
 10
378.2544784965
 20
119.8903431969
 30
0.0
 11
378.4072685854
 21
119.7369603063
 31
0.0
  0
LINE
  5
4FA
330
221
100
AcDbEntity
  8
7_ALL_FEATURES
  6
Continuous
 62
     7
100
AcDbLine
 10
378.4554590955
 20
119.680484287
 30
0.0
 11
378.4072685854
 21
119.7369603063
 31
0.0
  0
LINE
  5
4FB
330
221
100
AcDbEntity
  8
7_ALL_FEATURES
  6
Continuous
 62
     9
100
AcDbLine
 10
365.4542464506
 20
124.974869702
 30
0.0
 11
365.5333660941
 21
124.6514054108
 31
0.0
  0
LINE
  5
4FC
330
221
100
AcDbEntity
  8
7_ALL_FEATURES
  6
Continuous
 62
     9
100
AcDbLine
 10
367.3838721333
 20
124.2162638587
 30
0.0
 11
367.3677235817
 21
124.0663573506
 31
0.0
  0
LINE
  5
4FD
330
221
100
AcDbEntity
  8
7_ALL_FEATURES
  6
Continuous
 62
     7
100
AcDbLine
 10
371.0806781218
 20
119.9398830394
 30
0.0
 11
371.0706377758
 21
119.8466788163
 31
0.0
  0
LINE
  5
4FE
330
221
100
AcDbEntity
  8
7_ALL_FEATURES
  6
Continuous
 62
     7
100
AcDbLine
 10
371.4440236448
 20
120.2898460998
 30
0.0
 11
371.4026133513
 21
119.9054356179
 31
0.0
  0
LINE
  5
4FF
330
221
100
AcDbEntity
  8
7_ALL_FEATURES
  6
Continuous
 62
     9
100
AcDbLine
 10
371.5469353662
 20
120.3593703784
 30
0.0
 11
371.5010585213
 21
119.9334970374
 31
0.0
  0
LINE
  5
500
330
221
100
AcDbEntity
  8
7_ALL_FEATURES
  6
Continuous
 62
     7
100
AcDbLine
 10
378.4072685854
 20
119.7369603063
 30
0.0
 11
378.3343439212
 21
119.5638299336
 31
0.0
  0
LINE
  5
501
330
221
100
AcDbEntity
  8
7_ALL_FEATURES
  6
Continuous
 62
     7
100
AcDbLine
 10
378.3343439212
 20
119.5638299336
 30
0.0
 11
376.9492312926
 21
106.7058719832
 31
0.0
  0
LINE
  5
502
330
221
100
AcDbEntity
  8
7_ALL_FEATURES
  6
Continuous
 62
     7
100
AcDbLine
 10
378.4554590955
 20
119.680484287
 30
0.0
 11
377.070346467
 21
106.8225263367
 31
0.0
  0
LINE
  5
503
330
221
100
AcDbEntity
  8
7_ALL_FEATURES
  6
Continuous
 62
     7
100
AcDbLine
 10
377.070346467
 20
106.8225263367
 30
0.0
 11
376.9974218028
 21
106.649395964
 31
0.0
  0
ARC
  5
504
330
221
100
AcDbEntity
  8
7_ALL_FEATURES
  6
Continuous
 62
     7
100
AcDbCircle
 10
235.740490251495
 20
134.7783057865439
 30
0.0
 40
3.3
100
AcDbArc
 50
270.0
 51
0.0
  0
ARC
  5
505
330
221
100
AcDbEntity
  8
7_ALL_FEATURES
  6
Continuous
 62
     7
100
AcDbCircle
 10
235.740490251495
 20
154.6783057865439
 30
0.0
 40
3.3
100
AcDbArc
 50
0.0
 51
90.0
  0
ARC
  5
506
330
221
100
AcDbEntity
  8
7_ALL_FEATURES
  6
Continuous
 62
     7
100
AcDbCircle
 10
58.34049025149498
 20
154.6783057865439
 30
0.0
 40
3.3
100
AcDbArc
 50
90.0
 51
180.0
  0
ARC
  5
507
330
221
100
AcDbEntity
  8
7_ALL_FEATURES
  6
Continuous
 62
     7
100
AcDbCircle
 10
58.34049025149498
 20
134.7783057865439
 30
0.0
 40
3.3
100
AcDbArc
 50
180.0
 51
270.0
  0
ARC
  5
508
330
221
100
AcDbEntity
  8
7_ALL_FEATURES
  6
Continuous
 62
     7
100
AcDbCircle
 10
235.740490251495
 20
134.7783057865439
 30
0.0
 40
2.8
100
AcDbArc
 50
270.0
 51
0.0
  0
ARC
  5
509
330
221
100
AcDbEntity
  8
7_ALL_FEATURES
  6
Continuous
 62
     7
100
AcDbCircle
 10
235.740490251495
 20
154.6783057865439
 30
0.0
 40
2.8
100
AcDbArc
 50
0.0
 51
90.0
  0
ARC
  5
50A
330
221
100
AcDbEntity
  8
7_ALL_FEATURES
  6
Continuous
 62
     7
100
AcDbCircle
 10
58.34049025149498
 20
134.7783057865439
 30
0.0
 40
2.8
100
AcDbArc
 50
180.0
 51
270.0
  0
ARC
  5
50B
330
221
100
AcDbEntity
  8
7_ALL_FEATURES
  6
Continuous
 62
     7
100
AcDbCircle
 10
58.34049025149498
 20
154.6783057865439
 30
0.0
 40
2.8
100
AcDbArc
 50
90.0
 51
180.0
  0
CIRCLE
  5
50C
330
221
100
AcDbEntity
  8
7_ALL_FEATURES
  6
Continuous
 62
     7
100
AcDbCircle
 10
241.540490251495
 20
91.2283057865439
 30
0.0
 40
2.8
  0
CIRCLE
  5
50D
330
221
100
AcDbEntity
  8
7_ALL_FEATURES
  6
Continuous
 62
     7
100
AcDbCircle
 10
52.54049025149497
 20
91.2283057865439
 30
0.0
 40
2.8
  0
CIRCLE
  5
50E
330
221
100
AcDbEntity
  8
7_ALL_FEATURES
  6
Continuous
 62
     7
100
AcDbCircle
 10
52.54049025149497
 20
91.2283057865439
 30
0.0
 40
2.5
  0
CIRCLE
  5
50F
330
221
100
AcDbEntity
  8
7_ALL_FEATURES
  6
Continuous
 62
     7
100
AcDbCircle
 10
241.540490251495
 20
91.2283057865439
 30
0.0
 40
2.5
  0
CIRCLE
  5
510
330
221
100
AcDbEntity
  8
7_ALL_FEATURES
  6
Continuous
 62
     7
100
AcDbCircle
 10
241.540490251495
 20
91.2283057865439
 30
0.0
 40
2.2
  0
CIRCLE
  5
511
330
221
100
AcDbEntity
  8
7_ALL_FEATURES
  6
Continuous
 62
     7
100
AcDbCircle
 10
52.54049025149497
 20
91.2283057865439
 30
0.0
 40
2.2
  0
CIRCLE
  5
512
330
221
100
AcDbEntity
  8
7_ALL_FEATURES
  6
Continuous
 62
     7
100
AcDbCircle
 10
241.540490251495
 20
91.2283057865439
 30
0.0
 40
1.7000000608
  0
CIRCLE
  5
513
330
221
100
AcDbEntity
  8
7_ALL_FEATURES
  6
Continuous
 62
     7
100
AcDbCircle
 10
52.54049025149497
 20
91.2283057865439
 30
0.0
 40
1.7000000608
  0
CIRCLE
  5
514
330
221
100
AcDbEntity
  8
02___PRT_ALL_AXES
  6
Continuous
 62
     7
100
AcDbCircle
 10
52.54049025149497
 20
91.2283057865439
 30
0.0
 40
1.65
  0
CIRCLE
  5
515
330
221
100
AcDbEntity
  8
02___PRT_ALL_AXES
  6
Continuous
 62
     7
100
AcDbCircle
 10
241.540490251495
 20
91.2283057865439
 30
0.0
 40
1.65
  0
CIRCLE
  5
516
330
221
100
AcDbEntity
  8
7_ALL_FEATURES
  6
Continuous
 62
     7
100
AcDbCircle
 10
241.540490251495
 20
91.2283057865439
 30
0.0
 40
1.3
  0
CIRCLE
  5
517
330
221
100
AcDbEntity
  8
7_ALL_FEATURES
  6
Continuous
 62
     7
100
AcDbCircle
 10
52.54049025149497
 20
91.2283057865439
 30
0.0
 40
1.3
  0
ARC
  5
518
330
221
100
AcDbEntity
  8
7_ALL_FEATURES
  6
Continuous
 62
     7
100
AcDbCircle
 10
130.899846516895
 20
205.310080967235
 30
0.0
 40
43.945114969
100
AcDbArc
 50
144.3334645585
 51
145.1319129223
  0
ARC
  5
519
330
221
100
AcDbEntity
  8
7_ALL_FEATURES
  6
Continuous
 62
     7
100
AcDbCircle
 10
72.04048973409498
 20
234.933018536435
 30
0.0
 40
13.0000003418
100
AcDbArc
 50
285.9423592114999
 51
292.5858603685
  0
ARC
  5
51A
330
221
100
AcDbEntity
  8
7_ALL_FEATURES
  6
Continuous
 62
     7
100
AcDbCircle
 10
107.040490582695
 20
234.933018574035
 30
0.0
 40
13.0000002288
100
AcDbArc
 50
105.942370018
 51
159.7477537285
  0
ARC
  5
51B
330
221
100
AcDbEntity
  8
7_ALL_FEATURES
  6
Continuous
 62
     7
100
AcDbCircle
 10
72.04049025149497
 20
234.933018566635
 30
0.0
 40
13.0
100
AcDbArc
 50
247.4064672645
 51
254.0576727650999
  0
ARC
  5
51C
330
221
100
AcDbEntity
  8
7_ALL_FEATURES
  6
Continuous
 62
     7
100
AcDbCircle
 10
72.04049025149497
 20
234.933018566635
 30
0.0
 40
13.0
100
AcDbArc
 50
105.9423272338
 51
112.5935327350001
  0
ARC
  5
51D
330
221
100
AcDbEntity
  8
7_ALL_FEATURES
  6
Continuous
 62
     7
100
AcDbCircle
 10
107.040490045895
 20
234.933018331035
 30
0.0
 40
12.9999996588
100
AcDbArc
 50
247.3837331467
 51
254.0576319804
  0
ARC
  5
51E
330
221
100
AcDbEntity
  8
7_ALL_FEATURES
  6
Continuous
 62
     7
100
AcDbCircle
 10
107.040490045895
 20
234.933018331035
 30
0.0
 40
12.9999996588
100
AcDbArc
 50
200.252246156
 51
202.6287442052999
  0
ARC
  5
51F
330
221
100
AcDbEntity
  8
7_ALL_FEATURES
  6
Continuous
 62
     7
100
AcDbCircle
 10
72.04049050589498
 20
234.933018848235
 30
0.0
 40
12.9999995848
100
AcDbArc
 50
67.41414498160003
 51
74.05764351949999
  0
ARC
  5
520
330
221
100
AcDbEntity
  8
7_ALL_FEATURES
  6
Continuous
 62
     7
100
AcDbCircle
 10
72.04049050589498
 20
234.933018848235
 30
0.0
 40
12.9999995848
100
AcDbArc
 50
20.2522460581
 51
22.55845864219997
  0
ARC
  5
521
330
221
100
AcDbEntity
  8
7_ALL_FEATURES
  6
Continuous
 62
     7
100
AcDbCircle
 10
72.04049025149497
 20
234.933018566635
 30
0.0
 40
12.5
100
AcDbArc
 50
253.8188881781
 51
286.1650891844999
  0
ARC
  5
522
330
221
100
AcDbEntity
  8
7_ALL_FEATURES
  6
Continuous
 62
     7
100
AcDbCircle
 10
72.04049025149497
 20
234.933018566635
 30
0.0
 40
12.5
100
AcDbArc
 50
1.810884215799922
 51
16.21172478569991
  0
ARC
  5
523
330
221
100
AcDbEntity
  8
7_ALL_FEATURES
  6
Continuous
 62
     7
100
AcDbCircle
 10
107.040490045895
 20
234.933018331035
 30
0.0
 40
12.4999997066
100
AcDbArc
 50
90.00000151799996
 51
203.5897421104
  0
ARC
  5
524
330
221
100
AcDbEntity
  8
7_ALL_FEATURES
  6
Continuous
 62
     7
100
AcDbCircle
 10
107.040490045895
 20
234.933018331035
 30
0.0
 40
12.4999997066
100
AcDbArc
 50
253.8349139539
 51
270.0000009421
  0
ARC
  5
525
330
221
100
AcDbEntity
  8
7_ALL_FEATURES
  6
Continuous
 62
     7
100
AcDbCircle
 10
72.04049050589498
 20
234.933018848235
 30
0.0
 40
12.4999996444
100
AcDbArc
 50
73.83491399499997
 51
106.1811171684
  0
ARC
  5
526
330
221
100
AcDbEntity
  8
7_ALL_FEATURES
  6
Continuous
 62
     7
100
AcDbCircle
 10
51.54049025149497
 20
228.433018566635
 30
0.0
 40
6.5
100
AcDbArc
 50
180.0
 51
270.0
  0
ARC
  5
527
330
221
100
AcDbEntity
  8
7_ALL_FEATURES
  6
Continuous
 62
     7
100
AcDbCircle
 10
52.04049025149497
 20
228.933018566635
 30
0.0
 40
6.0
100
AcDbArc
 50
180.0
 51
270.0
  0
ARC
  5
528
330
221
100
AcDbEntity
  8
7_ALL_FEATURES
  6
Continuous
 62
     7
100
AcDbCircle
 10
51.54049025149497
 20
228.433018566635
 30
0.0
 40
6.0
100
AcDbArc
 50
180.0
 51
270.0
  0
CIRCLE
  5
529
330
221
100
AcDbEntity
  8
02___PRT_ALL_AXES
  6
Continuous
 62
     7
100
AcDbCircle
 10
52.54049025149497
 20
234.933018566635
 30
0.0
 40
4.5
  0
CIRCLE
  5
52A
330
221
100
AcDbEntity
  8
7_ALL_FEATURES
  6
Continuous
 62
     7
100
AcDbCircle
 10
52.54049025149497
 20
234.933018566635
 30
0.0
 40
4.35
  0
CIRCLE
  5
52B
330
221
100
AcDbEntity
  8
02___PRT_ALL_AXES
  6
Continuous
 62
     7
100
AcDbCircle
 10
52.54049025149497
 20
234.933018566635
 30
0.0
 40
4.0
  0
ARC
  5
52C
330
221
100
AcDbEntity
  8
06___PRT_ALL_SURFS
  6
Continuous
 62
     7
100
AcDbCircle
 10
106.866278404495
 20
226.917260584835
 30
0.0
 40
3.5434745296
100
AcDbArc
 50
58.34193464969996
 51
60.02202946639995
  0
ARC
  5
52D
330
221
100
AcDbEntity
  8
06___PRT_ALL_SURFS
  6
Continuous
 62
     7
100
AcDbCircle
 10
107.214435143095
 20
226.917680506635
 30
0.0
 40
3.5429773898
100
AcDbArc
 50
119.9779436333002
 51
121.6579654044004
  0
ARC
  5
52E
330
221
100
AcDbEntity
  8
02___PRT_ALL_AXES
  6
Continuous
 62
     7
100
AcDbCircle
 10
107.040490251495
 20
227.433018566635
 30
0.0
 40
3.5
100
AcDbArc
 50
68.1286498647001
 51
134.2610028760002
  0
ARC
  5
52F
330
221
100
AcDbEntity
  8
02___PRT_ALL_AXES
  6
Continuous
 62
     7
100
AcDbCircle
 10
107.040490251495
 20
227.433018566635
 30
0.0
 40
2.8
100
AcDbArc
 50
63.27736170210008
 51
116.7226382978999
  0
ARC
  5
530
330
221
100
AcDbEntity
  8
02___PRT_ALL_AXES
  6
Continuous
 62
     7
100
AcDbCircle
 10
67.04049025149497
 20
232.433018566635
 30
0.0
 40
2.5
100
AcDbArc
 50
180.0
 51
0.0
  0
CIRCLE
  5
531
330
221
100
AcDbEntity
  8
02___PRT_ALL_AXES
  6
Continuous
 62
     7
100
AcDbCircle
 10
52.54049025149497
 20
234.933018566635
 30
0.0
 40
2.15
  0
ARC
  5
532
330
221
100
AcDbEntity
  8
7_ALL_FEATURES
  6
Continuous
 62
     7
100
AcDbCircle
 10
119.040490251495
 20
230.374537006635
 30
0.0
 40
2.0
100
AcDbArc
 50
180.0
 51
192.7630738862994
  0
ARC
  5
533
330
221
100
AcDbEntity
  8
7_ALL_FEATURES
  6
Continuous
 62
     7
100
AcDbCircle
 10
47.53192854149498
 20
265.012709205235
 30
0.0
 40
44.7388896574
100
AcDbArc
 50
324.6901989041
 51
325.1272912799999
  0
ARC
  5
534
330
221
100
AcDbEntity
  8
7_ALL_FEATURES
  6
Continuous
 62
     7
100
AcDbCircle
 10
130.899644782695
 20
264.555813502835
 30
0.0
 40
43.944867893
100
AcDbArc
 50
214.868084833
 51
215.6665376861
  0
ARC
  5
535
330
221
100
AcDbEntity
  8
7_ALL_FEATURES
  6
Continuous
 62
     7
100
AcDbCircle
 10
92.04049025149499
 20
237.933018566635
 30
0.0
 40
8.0
100
AcDbArc
 50
180.0
 51
270.0
  0
ARC
  5
536
330
221
100
AcDbEntity
  8
7_ALL_FEATURES
  6
Continuous
 62
     7
100
AcDbCircle
 10
51.54049025149497
 20
241.433018566635
 30
0.0
 40
6.5
100
AcDbArc
 50
90.0
 51
180.0
  0
ARC
  5
537
330
221
100
AcDbEntity
  8
7_ALL_FEATURES
  6
Continuous
 62
     7
100
AcDbCircle
 10
52.04049025149497
 20
240.933018566635
 30
0.0
 40
6.0
100
AcDbArc
 50
90.0
 51
180.0
  0
ARC
  5
538
330
221
100
AcDbEntity
  8
7_ALL_FEATURES
  6
Continuous
 62
     7
100
AcDbCircle
 10
51.54049025149497
 20
241.433018566635
 30
0.0
 40
6.0
100
AcDbArc
 50
90.0
 51
180.0
  0
ARC
  5
539
330
221
100
AcDbEntity
  8
02___PRT_ALL_AXES
  6
Continuous
 62
     7
100
AcDbCircle
 10
67.04049025149497
 20
239.933018566635
 30
0.0
 40
4.75
100
AcDbArc
 50
238.2371159331998
 51
301.7628840668
  0
ARC
  5
53A
330
221
100
AcDbEntity
  8
02___PRT_ALL_AXES
  6
Continuous
 62
     7
100
AcDbCircle
 10
67.04049025149497
 20
239.933018566635
 30
0.0
 40
4.6
100
AcDbArc
 50
237.0028463672001
 51
302.9971536328
  0
CIRCLE
  5
53B
330
221
100
AcDbEntity
  8
02___PRT_ALL_AXES
  6
Continuous
 62
     7
100
AcDbCircle
 10
107.040490251495
 20
240.933018566635
 30
0.0
 40
4.0
  0
CIRCLE
  5
53C
330
221
100
AcDbEntity
  8
02___PRT_ALL_AXES
  6
Continuous
 62
     7
100
AcDbCircle
 10
107.040490251495
 20
240.933018566635
 30
0.0
 40
3.8
  0
ARC
  5
53D
330
221
100
AcDbEntity
  8
02___PRT_ALL_AXES
  6
Continuous
 62
     7
100
AcDbCircle
 10
67.04049025149497
 20
239.933018566635
 30
0.0
 40
3.6
100
AcDbArc
 50
225.8822048841998
 51
314.1177951158002
  0
ARC
  5
53E
330
221
100
AcDbEntity
  8
02___PRT_ALL_AXES
  6
Continuous
 62
     7
100
AcDbCircle
 10
67.04049025149497
 20
237.433018566635
 30
0.0
 40
2.5
100
AcDbArc
 50
0.0
 51
180.0
  0
ARC
  5
53F
330
221
100
AcDbEntity
  8
7_ALL_FEATURES
  6
Continuous
 62
     7
100
AcDbCircle
 10
82.04049025149499
 20
244.933018566635
 30
0.0
 40
2.0
100
AcDbArc
 50
0.0
 51
90.0
  0
CIRCLE
  5
540
330
221
100
AcDbEntity
  8
02___PRT_ALL_AXES
  6
Continuous
 62
     7
100
AcDbCircle
 10
107.040490251495
 20
240.933018566635
 30
0.0
 40
1.965
  0
CIRCLE
  5
541
330
221
100
AcDbEntity
  8
02___PRT_ALL_AXES
  6
Continuous
 62
     7
100
AcDbCircle
 10
67.04049025149497
 20
238.183018566635
 30
0.0
 40
1.2
  0
ARC
  5
542
330
221
100
AcDbEntity
  8
7_ALL_FEATURES
  6
Continuous
 62
     7
100
AcDbCircle
 10
222.040490249895
 20
234.9330185624351
 30
0.0
 40
13.000000003
100
AcDbArc
 50
67.40646231740001
 51
74.05763139310008
  0
ARC
  5
543
330
221
100
AcDbEntity
  8
7_ALL_FEATURES
  6
Continuous
 62
     7
100
AcDbCircle
 10
222.040490249895
 20
234.9330185624351
 30
0.0
 40
13.000000003
100
AcDbArc
 50
285.9423686169999
 51
292.5935377826
  0
ARC
  5
544
330
221
100
AcDbEntity
  8
7_ALL_FEATURES
  6
Continuous
 62
     7
100
AcDbCircle
 10
222.040490249895
 20
234.9330185624351
 30
0.0
 40
12.500000001
100
AcDbArc
 50
270.0000000068001
 51
286.1629942050998
  0
ARC
  5
545
330
221
100
AcDbEntity
  8
7_ALL_FEATURES
  6
Continuous
 62
     7
100
AcDbCircle
 10
222.040490249895
 20
234.9330185624351
 30
0.0
 40
12.500000001
100
AcDbArc
 50
73.83700580540005
 51
89.99999999319989
  0
ARC
  5
546
330
221
100
AcDbEntity
  8
7_ALL_FEATURES
  6
Continuous
 62
     7
100
AcDbCircle
 10
242.540490251495
 20
228.433018566635
 30
0.0
 40
6.5
100
AcDbArc
 50
270.0
 51
0.0
  0
ARC
  5
547
330
221
100
AcDbEntity
  8
7_ALL_FEATURES
  6
Continuous
 62
     7
100
AcDbCircle
 10
242.040490251495
 20
228.933018566635
 30
0.0
 40
6.0
100
AcDbArc
 50
270.0
 51
0.0
  0
ARC
  5
548
330
221
100
AcDbEntity
  8
7_ALL_FEATURES
  6
Continuous
 62
     7
100
AcDbCircle
 10
242.540490251495
 20
228.433018566635
 30
0.0
 40
6.0
100
AcDbArc
 50
270.0
 51
0.0
  0
ARC
  5
549
330
221
100
AcDbEntity
  8
02___PRT_ALL_AXES
  6
Continuous
 62
     7
100
AcDbCircle
 10
147.040490251495
 20
219.433018566635
 30
0.0
 40
5.0
100
AcDbArc
 50
44.42700400080023
 51
135.5729959991998
  0
CIRCLE
  5
54A
330
221
100
AcDbEntity
  8
02___PRT_ALL_AXES
  6
Continuous
 62
     7
100
AcDbCircle
 10
241.540490251495
 20
234.933018566635
 30
0.0
 40
4.5
  0
CIRCLE
  5
54B
330
221
100
AcDbEntity
  8
7_ALL_FEATURES
  6
Continuous
 62
     7
100
AcDbCircle
 10
241.540490251495
 20
234.933018566635
 30
0.0
 40
4.35
  0
CIRCLE
  5
54C
330
221
100
AcDbEntity
  8
02___PRT_ALL_AXES
  6
Continuous
 62
     7
100
AcDbCircle
 10
241.540490251495
 20
234.933018566635
 30
0.0
 40
4.0
  0
ARC
  5
54D
330
221
100
AcDbEntity
  8
02___PRT_ALL_AXES
  6
Continuous
 62
     7
100
AcDbCircle
 10
229.540490251495
 20
234.933018566635
 30
0.0
 40
2.5
100
AcDbArc
 50
270.0
 51
90.0
  0
ARC
  5
54E
330
221
100
AcDbEntity
  8
02___PRT_ALL_AXES
  6
Continuous
 62
     7
100
AcDbCircle
 10
224.540490251495
 20
234.933018566635
 30
0.0
 40
2.5
100
AcDbArc
 50
90.0
 51
270.0
  0
CIRCLE
  5
54F
330
221
100
AcDbEntity
  8
02___PRT_ALL_AXES
  6
Continuous
 62
     7
100
AcDbCircle
 10
241.540490251495
 20
234.933018566635
 30
0.0
 40
2.15
  0
ARC
  5
550
330
221
100
AcDbEntity
  8
7_ALL_FEATURES
  6
Continuous
 62
     7
100
AcDbCircle
 10
202.040490251495
 20
237.933018566635
 30
0.0
 40
8.0
100
AcDbArc
 50
270.0
 51
0.0
  0
ARC
  5
551
330
221
100
AcDbEntity
  8
7_ALL_FEATURES
  6
Continuous
 62
     7
100
AcDbCircle
 10
242.540490251495
 20
241.433018566635
 30
0.0
 40
6.5
100
AcDbArc
 50
0.0
 51
90.0
  0
ARC
  5
552
330
221
100
AcDbEntity
  8
7_ALL_FEATURES
  6
Continuous
 62
     7
100
AcDbCircle
 10
242.040490251495
 20
240.933018566635
 30
0.0
 40
6.0
100
AcDbArc
 50
0.0
 51
90.0
  0
ARC
  5
553
330
221
100
AcDbEntity
  8
7_ALL_FEATURES
  6
Continuous
 62
     7
100
AcDbCircle
 10
242.540490251495
 20
241.433018566635
 30
0.0
 40
6.0
100
AcDbArc
 50
0.0
 51
90.0
  0
ARC
  5
554
330
221
100
AcDbEntity
  8
7_ALL_FEATURES
  6
Continuous
 62
     7
100
AcDbCircle
 10
212.040490251495
 20
244.933018566635
 30
0.0
 40
2.0
100
AcDbArc
 50
90.0
 51
180.0
  0
ARC
  5
555
330
221
100
AcDbEntity
  8
02___PRT_ALL_AXES
  6
Continuous
 62
     7
100
AcDbCircle
 10
274.7572996375
 20
124.753082543
 30
0.0
 40
0.379489584
100
AcDbArc
 50
44.99362159859999
 51
47.2046084728
  0
ARC
  5
556
330
221
100
AcDbEntity
  8
02___PRT_ALL_AXES
  6
Continuous
 62
     7
100
AcDbCircle
 10
360.0774762984
 20
132.2176307708
 30
0.0
 40
0.379489584
100
AcDbArc
 50
44.9936215984
 51
47.2046084725
  0
ARC
  5
557
330
221
100
AcDbEntity
  8
7_ALL_FEATURES
  6
Continuous
 62
     7
100
AcDbCircle
 10
359.0292858807
 20
132.3601566703
 30
0.0
 40
0.3467883479
100
AcDbArc
 50
123.8970034155
 51
124.6981735619
  0
ARC
  5
558
330
221
100
AcDbEntity
  8
7_ALL_FEATURES
  6
Continuous
 62
     7
100
AcDbCircle
 10
273.70910922
 20
124.8956084421
 30
0.0
 40
0.3467883483
100
AcDbArc
 50
123.8970034151
 51
124.6981735605
  0
ARC
  5
559
330
221
100
AcDbEntity
  8
7_ALL_FEATURES
  6
Continuous
 62
     7
100
AcDbCircle
 10
360.123718428
 20
132.2423680427
 30
0.0
 40
0.3466612775
100
AcDbArc
 50
42.97808130639999
 51
43.78555234489999
  0
ARC
  5
55A
330
221
100
AcDbEntity
  8
7_ALL_FEATURES
  6
Continuous
 62
     7
100
AcDbCircle
 10
274.8035417668
 20
124.7778198146
 30
0.0
 40
0.3466612778
100
AcDbArc
 50
42.9780813062
 51
43.7855523439
  0
ARC
  5
55B
330
221
100
AcDbEntity
  8
02___PRT_ALL_AXES
  6
Continuous
 62
     7
100
AcDbCircle
 10
274.7832301628
 20
124.7789944126
 30
0.0
 40
0.3428314738
100
AcDbArc
 50
42.6417605473
 51
44.9951442152
  0
ARC
  5
55C
330
221
100
AcDbEntity
  8
02___PRT_ALL_AXES
  6
Continuous
 62
     7
100
AcDbCircle
 10
360.1034068238
 20
132.2435426406
 30
0.0
 40
0.3428314737
100
AcDbArc
 50
42.6417605469
 51
44.99514421589999
  0
SPLINE
  5
55D
330
221
100
AcDbEntity
  8
06___PRT_ALL_SURFS
  6
Continuous
 62
     7
100
AcDbSpline
210
0.0
220
0.0
230
1.0
 70
     8
 71
     3
 72
    12
 73
     8
 74
     0
 42
0.000000001
 43
0.0000001
 40
0.0
 40
0.0
 40
0.0
 40
0.0
 40
0.125155442
 40
0.2502671606
 40
0.5003384258
 40
0.7501917443
 40
1.0
 40
1.0
 40
1.0
 40
1.0
 10
106.124039476295
 20
230.3220466186351
 30
0.0
 10
106.102501044495
 20
230.314346394435
 30
0.0
 10
106.059421385695
 20
230.298972041635
 30
0.0
 10
105.974057102495
 20
230.2661604316351
 30
0.0
 10
105.869270063895
 20
230.220515032835
 30
0.0
 10
105.746572814895
 20
230.159413377435
 30
0.0
 10
105.666665348295
 20
230.115152795235
 30
0.0
 10
105.627126819095
 20
230.0923252148351
 30
0.0
  0
SPLINE
  5
55E
330
221
100
AcDbEntity
  8
06___PRT_ALL_SURFS
  6
Continuous
 62
     7
100
AcDbSpline
210
0.0
220
0.0
230
1.0
 70
     8
 71
     3
 72
    12
 73
     8
 74
     0
 42
0.000000001
 43
0.0000001
 40
0.0
 40
0.0
 40
0.0
 40
0.0
 40
0.125155442
 40
0.2502671606
 40
0.5003384258
 40
0.7501917443
 40
1.0
 40
1.0
 40
1.0
 40
1.0
 10
107.691334624895
 20
230.3932156396351
 30
0.0
 10
107.668831683495
 20
230.397316265635
 30
0.0
 10
107.623836428495
 20
230.405541514835
 30
0.0
 10
107.533502985495
 20
230.419807968635
 30
0.0
 10
107.419932048695
 20
230.4326714130351
 30
0.0
 10
107.283122286495
 20
230.4411044516351
 30
0.0
 10
107.191790099495
 20
230.442727396435
 30
0.0
 10
107.146134938495
 20
230.442727396435
 30
0.0
  0
SPLINE
  5
55F
330
221
100
AcDbEntity
  8
06___PRT_ALL_SURFS
  6
Continuous
 62
     7
100
AcDbSpline
210
0.0
220
0.0
230
1.0
 70
     8
 71
     3
 72
    12
 73
     8
 74
     0
 42
0.000000001
 43
0.0000001
 40
0.0
 40
0.0
 40
0.0
 40
0.0
 40
0.1251553703
 40
0.2502672096
 40
0.500338606
 40
0.7501917391
 40
1.0
 40
1.0
 40
1.0
 40
1.0
 10
106.389645878095
 20
230.3932162380351
 30
0.0
 10
106.412148188495
 20
230.397315578635
 30
0.0
 10
106.457142224295
 20
230.4055382026351
 30
0.0
 10
106.547472521295
 20
230.419803035235
 30
0.0
 10
106.661038794895
 20
230.432670173035
 30
0.0
 10
106.797843511095
 20
230.441104514235
 30
0.0
 10
106.889172318095
 20
230.442727396435
 30
0.0
 10
106.934825807495
 20
230.442727396435
 30
0.0
  0
SPLINE
  5
560
330
221
100
AcDbEntity
  8
06___PRT_ALL_SURFS
  6
Continuous
 62
     7
100
AcDbSpline
210
0.0
220
0.0
230
1.0
 70
     8
 71
     3
 72
    12
 73
     8
 74
     0
 42
0.000000001
 43
0.0000001
 40
0.0
 40
0.0
 40
0.0
 40
0.0
 40
0.1251553703
 40
0.2502672096
 40
0.500338606
 40
0.7501917391
 40
1.0
 40
1.0
 40
1.0
 40
1.0
 10
107.956941325895
 20
230.322047137035
 30
0.0
 10
107.978478568695
 20
230.314346114835
 30
0.0
 10
108.021555858695
 20
230.298970098235
 30
0.0
 10
108.106916606895
 20
230.266158657035
 30
0.0
 10
108.211701453695
 20
230.220518788635
 30
0.0
 10
108.334394984095
 20
230.159420784235
 30
0.0
 10
108.414299492095
 20
230.115161837835
 30
0.0
 10
108.453836573695
 20
230.092335093235
 30
0.0
  0
SPLINE
  5
561
330
221
100
AcDbEntity
  8
06___PRT_ALL_SURFS
  6
Continuous
 62
     7
100
AcDbSpline
210
0.0
220
0.0
230
1.0
 70
     8
 71
     3
 72
    12
 73
     8
 74
     0
 42
0.000000001
 43
0.0000001
 40
0.0
 40
0.0
 40
0.0
 40
0.0
 40
0.2498082557
 40
0.4996615742
 40
0.7497328394
 40
0.874844558
 40
1.0
 40
1.0
 40
1.0
 40
1.0
 10
106.934825807495
 20
230.442727396435
 30
0.0
 10
106.980480968495
 20
230.442727396435
 30
0.0
 10
107.071813155495
 20
230.4411044516351
 30
0.0
 10
107.208622917695
 20
230.4326714130351
 30
0.0
 10
107.322193854695
 20
230.419807968635
 30
0.0
 10
107.412527297695
 20
230.405541514835
 30
0.0
 10
107.457522552695
 20
230.397316265635
 30
0.0
 10
107.480025493895
 20
230.3932156396351
 30
0.0
  0
SPLINE
  5
562
330
221
100
AcDbEntity
  8
06___PRT_ALL_SURFS
  6
Continuous
 62
     7
100
AcDbSpline
210
0.0
220
0.0
230
1.0
 70
     8
 71
     3
 72
    12
 73
     8
 74
     0
 42
0.000000001
 43
0.0000001
 40
0.0
 40
0.0
 40
0.0
 40
0.0
 40
0.2498082557
 40
0.4996615742
 40
0.7497328394
 40
0.874844558
 40
1.0
 40
1.0
 40
1.0
 40
1.0
 10
105.444127743695
 20
229.986670649435
 30
0.0
 10
105.483666273095
 20
230.009498229835
 30
0.0
 10
105.563573739495
 20
230.0537588118351
 30
0.0
 10
105.686270988495
 20
230.1148604674351
 30
0.0
 10
105.791058027295
 20
230.160505866035
 30
0.0
 10
105.876422310495
 20
230.1933174762351
 30
0.0
 10
105.919501969095
 20
230.208691828835
 30
0.0
 10
105.941040400895
 20
230.216392053235
 30
0.0
  0
SPLINE
  5
563
330
221
100
AcDbEntity
  8
06___PRT_ALL_SURFS
  6
Continuous
 62
     7
100
AcDbSpline
210
0.0
220
0.0
230
1.0
 70
     8
 71
     3
 72
     8
 73
     4
 74
     0
 42
0.000000001
 43
0.0000001
 40
0.0
 40
0.0
 40
0.0
 40
0.0
 40
1.0
 40
1.0
 40
1.0
 40
1.0
 10
108.453836573695
 20
230.092335093235
 30
0.0
 10
108.539084175895
 20
230.043117367235
 30
0.0
 10
108.622568036295
 20
229.990536810235
 30
0.0
 10
108.702737196095
 20
229.933419001835
 30
0.0
  0
SPLINE
  5
564
330
221
100
AcDbEntity
  8
7_ALL_FEATURES
  6
Continuous
 62
     7
100
AcDbSpline
 70
     0
 71
     3
 72
    19
 73
    15
 74
     0
 42
0.000000001
 43
0.0000001
 40
0.0
 40
0.0
 40
0.0
 40
0.0
 40
0.0434945911
 40
0.0933958494
 40
0.1494507881
 40
0.2110715383
 40
0.3474780172
 40
0.4943653332
 40
0.6420923554
 40
0.7809215581
 40
0.8442576415
 40
0.9022832897
 40
0.9543266493
 40
1.0
 40
1.0
 40
1.0
 40
1.0
 10
358.8358814301
 20
132.6480053748
 30
0.0
 10
358.8550842034
 20
132.6609087657
 30
0.0
 10
358.8990056678
 20
132.6846485086
 30
0.0
 10
358.9734777003
 20
132.7128866368
 30
0.0
 10
359.0597731428
 20
132.735751689
 30
0.0
 10
359.1929904141
 20
132.759236907
 30
0.0
 10
359.3766134368
 20
132.7713160328
 30
0.0
 10
359.6060417193
 20
132.7607340415
 30
0.0
 10
359.834388069
 20
132.7260804624
 30
0.0
 10
360.0147462605
 20
132.6780880724
 30
0.0
 10
360.1441967965
 20
132.6288164759
 30
0.0
 10
360.2276345124
 20
132.5892117887
 30
0.0
 10
360.2988383574
 20
132.5466083808
 30
0.0
 10
360.3400448154
 20
132.51457989
 30
0.0
 10
360.3578662748
 20
132.4980690981
 30
0.0
  0
SPLINE
  5
565
330
221
100
AcDbEntity
  8
7_ALL_FEATURES
  6
Continuous
 62
     7
100
AcDbSpline
 70
     0
 71
     3
 72
     9
 73
     5
 74
     0
 42
0.000000001
 43
0.0000001
 40
0.0
 40
0.0
 40
0.0
 40
0.0
 40
0.5078857158
 40
1.0
 40
1.0
 40
1.0
 40
1.0
 10
359.6346821852
 20
132.5808204597
 30
0.0
 10
359.6591826878
 20
132.5566049888
 30
0.0
 10
359.709408109
 20
132.5108623832
 30
0.0
 10
359.7653315835
 20
132.4718600243
 30
0.0
 10
359.7944298994
 20
132.4555077534
 30
0.0
  0
SPLINE
  5
566
330
221
100
AcDbEntity
  8
7_ALL_FEATURES
  6
Continuous
 62
     7
100
AcDbSpline
 70
     0
 71
     3
 72
    11
 73
     7
 74
     0
 42
0.000000001
 43
0.0000001
 40
0.0
 40
0.0
 40
0.0
 40
0.0
 40
0.2998644905
 40
0.5693723287
 40
0.8034629427
 40
1.0
 40
1.0
 40
1.0
 40
1.0
 10
359.3184772096
 20
132.6828855246
 30
0.0
 10
359.2852140254
 20
132.679975373
 30
0.0
 10
359.2222277298
 20
132.6719779052
 30
0.0
 10
359.1348035566
 20
132.6521174868
 30
0.0
 10
359.0612765941
 20
132.6255919793
 30
0.0
 10
359.0191529192
 20
132.6018015157
 30
0.0
 10
359.0017150832
 20
132.5885781102
 30
0.0
  0
SPLINE
  5
567
330
221
100
AcDbEntity
  8
7_ALL_FEATURES
  6
Continuous
 62
     7
100
AcDbSpline
 70
     0
 71
     3
 72
    15
 73
    11
 74
     0
 42
0.000000001
 43
0.0000001
 40
0.0
 40
0.0
 40
0.0
 40
0.0
 40
0.0836210819
 40
0.1855785018
 40
0.3041789098
 40
0.4360150925
 40
0.5766415245
 40
0.721020176
 40
0.8638607194
 40
1.0
 40
1.0
 40
1.0
 40
1.0
 10
360.1993862747
 20
132.4593881243
 30
0.0
 10
360.1825199685
 20
132.4791560742
 30
0.0
 10
360.1381414468
 20
132.5170155849
 30
0.0
 10
360.0560318317
 20
132.5643679254
 30
0.0
 10
359.9546207051
 20
132.6063927706
 30
0.0
 10
359.838027068
 20
132.6412427685
 30
0.0
 10
359.711021068
 20
132.6674589416
 30
0.0
 10
359.5789463401
 20
132.6838934053
 30
0.0
 10
359.4473919018
 20
132.6898536408
 30
0.0
 10
359.3606218451
 20
132.6865727024
 30
0.0
 10
359.3184772096
 20
132.6828855246
 30
0.0
  0
SPLINE
  5
568
330
221
100
AcDbEntity
  8
7_ALL_FEATURES
  6
Continuous
 62
     7
100
AcDbSpline
 70
     0
 71
     3
 72
     9
 73
     5
 74
     0
 42
0.000000001
 43
0.0000001
 40
0.0
 40
0.0
 40
0.0
 40
0.0
 40
0.2549580861
 40
1.0
 40
1.0
 40
1.0
 40
1.0
 10
359.6346821852
 20
132.5808204597
 30
0.0
 10
359.6175883019
 20
132.5711599425
 30
0.0
 10
359.5497303216
 20
132.5349121739
 30
0.0
 10
359.476880062
 20
132.5065103547
 30
0.0
 10
359.4206773198
 20
132.4949609166
 30
0.0
  0
SPLINE
  5
569
330
221
100
AcDbEntity
  8
7_ALL_FEATURES
  6
Continuous
 62
     7
100
AcDbSpline
 70
     0
 71
     3
 72
    19
 73
    15
 74
     0
 42
0.000000001
 43
0.0000001
 40
0.0
 40
0.0
 40
0.0
 40
0.0
 40
0.0434945911
 40
0.0933958494
 40
0.1494507881
 40
0.2110715383
 40
0.3474780172
 40
0.4943653332
 40
0.6420923554
 40
0.7809215581
 40
0.8442576415
 40
0.9022832897
 40
0.9543266493
 40
1.0
 40
1.0
 40
1.0
 40
1.0
 10
273.5157047692
 20
125.183457147
 30
0.0
 10
273.5349075424
 20
125.1963605379
 30
0.0
 10
273.5788290069
 20
125.2201002808
 30
0.0
 10
273.6533010394
 20
125.2483384089
 30
0.0
 10
273.7395964819
 20
125.2712034611
 30
0.0
 10
273.8728137531
 20
125.2946886791
 30
0.0
 10
274.0564367759
 20
125.306767805
 30
0.0
 10
274.2858650583
 20
125.2961858136
 30
0.0
 10
274.514211408
 20
125.2615322345
 30
0.0
 10
274.6945695996
 20
125.2135398445
 30
0.0
 10
274.8240201356
 20
125.164268248
 30
0.0
 10
274.9074578515
 20
125.1246635609
 30
0.0
 10
274.9786616964
 20
125.082060153
 30
0.0
 10
275.0198681545
 20
125.0500316621
 30
0.0
 10
275.0376896138
 20
125.0335208702
 30
0.0
  0
SPLINE
  5
56A
330
221
100
AcDbEntity
  8
7_ALL_FEATURES
  6
Continuous
 62
     7
100
AcDbSpline
 70
     0
 71
     3
 72
     9
 73
     5
 74
     0
 42
0.000000001
 43
0.0000001
 40
0.0
 40
0.0
 40
0.0
 40
0.0
 40
0.5078857158
 40
1.0
 40
1.0
 40
1.0
 40
1.0
 10
274.3145055243
 20
125.1162722318
 30
0.0
 10
274.3390060268
 20
125.0920567609
 30
0.0
 10
274.389231448
 20
125.0463141553
 30
0.0
 10
274.4451549225
 20
125.0073117964
 30
0.0
 10
274.4742532384
 20
124.9909595256
 30
0.0
  0
SPLINE
  5
56B
330
221
100
AcDbEntity
  8
7_ALL_FEATURES
  6
Continuous
 62
     7
100
AcDbSpline
 70
     0
 71
     3
 72
    11
 73
     7
 74
     0
 42
0.000000001
 43
0.0000001
 40
0.0
 40
0.0
 40
0.0
 40
0.0
 40
0.2998644905
 40
0.5693723287
 40
0.8034629427
 40
1.0
 40
1.0
 40
1.0
 40
1.0
 10
273.9983005487
 20
125.2183372967
 30
0.0
 10
273.9650373645
 20
125.2154271452
 30
0.0
 10
273.9020510689
 20
125.2074296774
 30
0.0
 10
273.8146268957
 20
125.187569259
 30
0.0
 10
273.7410999331
 20
125.1610437515
 30
0.0
 10
273.6989762583
 20
125.1372532879
 30
0.0
 10
273.6815384222
 20
125.1240298823
 30
0.0
  0
SPLINE
  5
56C
330
221
100
AcDbEntity
  8
7_ALL_FEATURES
  6
Continuous
 62
     7
100
AcDbSpline
 70
     0
 71
     3
 72
    15
 73
    11
 74
     0
 42
0.000000001
 43
0.0000001
 40
0.0
 40
0.0
 40
0.0
 40
0.0
 40
0.0836210819
 40
0.1855785018
 40
0.3041789098
 40
0.4360150925
 40
0.5766415245
 40
0.721020176
 40
0.8638607194
 40
1.0
 40
1.0
 40
1.0
 40
1.0
 10
274.8792096137
 20
124.9948398965
 30
0.0
 10
274.8623433076
 20
125.0146078463
 30
0.0
 10
274.8179647859
 20
125.0524673571
 30
0.0
 10
274.7358551708
 20
125.0998196975
 30
0.0
 10
274.6344440441
 20
125.1418445427
 30
0.0
 10
274.5178504071
 20
125.1766945406
 30
0.0
 10
274.3908444071
 20
125.2029107137
 30
0.0
 10
274.2587696792
 20
125.2193451774
 30
0.0
 10
274.1272152408
 20
125.2253054129
 30
0.0
 10
274.0404451842
 20
125.2220244745
 30
0.0
 10
273.9983005487
 20
125.2183372967
 30
0.0
  0
SPLINE
  5
56D
330
221
100
AcDbEntity
  8
7_ALL_FEATURES
  6
Continuous
 62
     7
100
AcDbSpline
 70
     0
 71
     3
 72
     9
 73
     5
 74
     0
 42
0.000000001
 43
0.0000001
 40
0.0
 40
0.0
 40
0.0
 40
0.0
 40
0.2549580861
 40
1.0
 40
1.0
 40
1.0
 40
1.0
 10
274.3145055243
 20
125.1162722318
 30
0.0
 10
274.2974116409
 20
125.1066117147
 30
0.0
 10
274.2295536607
 20
125.070363946
 30
0.0
 10
274.156703401
 20
125.0419621268
 30
0.0
 10
274.1005006589
 20
125.0304126888
 30
0.0
  0
SPLINE
  5
56E
330
221
100
AcDbEntity
  8
7_ALL_FEATURES
  6
Continuous
 62
     7
100
AcDbSpline
 70
     0
 71
     3
 72
    15
 73
    11
 74
     0
 42
0.000000001
 43
0.0000001
 40
0.0
 40
0.0
 40
0.0
 40
0.0
 40
0.1330567165
 40
0.2725840591
 40
0.4140590258
 40
0.5528495926
 40
0.6844752911
 40
0.8048815152
 40
0.910760378
 40
1.0
 40
1.0
 40
1.0
 40
1.0
 10
290.914429733
 20
112.8323988762
 30
0.0
 10
290.8134229428
 20
112.8235619271
 30
0.0
 10
290.6055786438
 20
112.8151435254
 30
0.0
 10
290.2900083128
 20
112.8273354087
 30
0.0
 10
289.9718652944
 20
112.8635095336
 30
0.0
 10
289.6632291091
 20
112.9222939293
 30
0.0
 10
289.3757521844
 20
113.0014052683
 30
0.0
 10
289.1200872006
 20
113.0978311157
 30
0.0
 10
288.9056900404
 20
113.2077979276
 30
0.0
 10
288.7842398017
 20
113.2954349213
 30
0.0
 10
288.7343551432
 20
113.3416508455
 30
0.0
  0
SPLINE
  5
56F
330
221
100
AcDbEntity
  8
7_ALL_FEATURES
  6
Continuous
 62
     7
100
AcDbSpline
 70
     0
 71
     3
 72
    19
 73
    15
 74
     0
 42
0.000000001
 43
0.0000001
 40
0.0
 40
0.0
 40
0.0
 40
0.0
 40
0.0434919914
 40
0.0933909242
 40
0.149444118
 40
0.2110636555
 40
0.3474691021
 40
0.4943568525
 40
0.6420857835
 40
0.780917661
 40
0.8442542732
 40
0.9022822933
 40
0.9543241972
 40
1.0
 40
1.0
 40
1.0
 40
1.0
 10
360.8951104489
 20
132.6474316935
 30
0.0
 10
360.8634845364
 20
132.6261785301
 30
0.0
 10
360.7911498939
 20
132.5870715418
 30
0.0
 10
360.6684947912
 20
132.5405574375
 30
0.0
 10
360.5263642987
 20
132.5028923539
 30
0.0
 10
360.3069476502
 20
132.4642048199
 30
0.0
 10
360.004505597
 20
132.4443041664
 30
0.0
 10
359.6266148636
 20
132.4617282183
 30
0.0
 10
359.2505022536
 20
132.5188011531
 30
0.0
 10
358.9534310654
 20
132.5978480779
 30
0.0
 10
358.7402082508
 20
132.6790014992
 30
0.0
 10
358.6027786265
 20
132.7442363923
 30
0.0
 10
358.4854935907
 20
132.8144044401
 30
0.0
 10
358.417624031
 20
132.8671614957
 30
0.0
 10
358.3882688823
 20
132.8943577393
 30
0.0
  0
SPLINE
  5
570
330
221
100
AcDbEntity
  8
7_ALL_FEATURES
  6
Continuous
 62
     7
100
AcDbSpline
 70
     0
 71
     3
 72
     9
 73
     5
 74
     0
 42
0.000000001
 43
0.0000001
 40
0.0
 40
0.0
 40
0.0
 40
0.0
 40
0.2598868845
 40
1.0
 40
1.0
 40
1.0
 40
1.0
 10
358.4342132412
 20
132.8555954505
 30
0.0
 10
358.4316318367
 20
132.8596416453
 30
0.0
 10
358.4220337024
 20
132.8754187816
 30
0.0
 10
358.4138343626
 20
132.892069183
 30
0.0
 10
358.4088243704
 20
132.9047860792
 30
0.0
  0
SPLINE
  5
571
330
221
100
AcDbEntity
  8
7_ALL_FEATURES
  6
Continuous
 62
     7
100
AcDbSpline
 70
     0
 71
     3
 72
     9
 73
     5
 74
     0
 42
0.000000001
 43
0.0000001
 40
0.0
 40
0.0
 40
0.0
 40
0.0
 40
0.5132153673
 40
1.0
 40
1.0
 40
1.0
 40
1.0
 10
358.4088243704
 20
132.9047860792
 30
0.0
 10
358.4026765357
 20
132.9203911681
 30
0.0
 10
358.3937379711
 20
132.9521588789
 30
0.0
 10
358.3929172287
 20
132.9852433032
 30
0.0
 10
358.3946213494
 20
133.0010604205
 30
0.0
  0
SPLINE
  5
572
330
221
100
AcDbEntity
  8
7_ALL_FEATURES
  6
Continuous
 62
     7
100
AcDbSpline
 70
     0
 71
     3
 72
    19
 73
    15
 74
     0
 42
0.000000001
 43
0.0000001
 40
0.0
 40
0.0
 40
0.0
 40
0.0
 40
0.0434919914
 40
0.0933909242
 40
0.149444118
 40
0.2110636555
 40
0.3474691021
 40
0.4943568525
 40
0.6420857835
 40
0.780917661
 40
0.8442542732
 40
0.9022822933
 40
0.9543241972
 40
1.0
 40
1.0
 40
1.0
 40
1.0
 10
275.5749337879
 20
125.1828834656
 30
0.0
 10
275.5433078755
 20
125.1616303022
 30
0.0
 10
275.4709732329
 20
125.122523314
 30
0.0
 10
275.3483181303
 20
125.0760092097
 30
0.0
 10
275.2061876378
 20
125.0383441261
 30
0.0
 10
274.9867709892
 20
124.9996565921
 30
0.0
 10
274.6843289361
 20
124.9797559385
 30
0.0
 10
274.3064382027
 20
124.9971799904
 30
0.0
 10
273.9303255927
 20
125.0542529252
 30
0.0
 10
273.6332544045
 20
125.13329985
 30
0.0
 10
273.4200315898
 20
125.2144532714
 30
0.0
 10
273.2826019655
 20
125.2796881645
 30
0.0
 10
273.1653169298
 20
125.3498562122
 30
0.0
 10
273.09744737
 20
125.4026132679
 30
0.0
 10
273.0680922214
 20
125.4298095114
 30
0.0
  0
SPLINE
  5
573
330
221
100
AcDbEntity
  8
7_ALL_FEATURES
  6
Continuous
 62
     7
100
AcDbSpline
 70
     0
 71
     3
 72
     9
 73
     5
 74
     0
 42
0.000000001
 43
0.0000001
 40
0.0
 40
0.0
 40
0.0
 40
0.0
 40
0.2598868845
 40
1.0
 40
1.0
 40
1.0
 40
1.0
 10
273.1140365803
 20
125.3910472226
 30
0.0
 10
273.1114551758
 20
125.3950934175
 30
0.0
 10
273.1018570415
 20
125.4108705537
 30
0.0
 10
273.0936577017
 20
125.4275209552
 30
0.0
 10
273.0886477094
 20
125.4402378513
 30
0.0
  0
SPLINE
  5
574
330
221
100
AcDbEntity
  8
7_ALL_FEATURES
  6
Continuous
 62
     7
100
AcDbSpline
 70
     0
 71
     3
 72
     9
 73
     5
 74
     0
 42
0.000000001
 43
0.0000001
 40
0.0
 40
0.0
 40
0.0
 40
0.0
 40
0.5132153673
 40
1.0
 40
1.0
 40
1.0
 40
1.0
 10
273.0886477094
 20
125.4402378513
 30
0.0
 10
273.0824998748
 20
125.4558429403
 30
0.0
 10
273.0735613102
 20
125.4876106511
 30
0.0
 10
273.0727405677
 20
125.5206950753
 30
0.0
 10
273.0744446885
 20
125.5365121927
 30
0.0
  0
SPLINE
  5
575
330
221
100
AcDbEntity
  8
7_ALL_FEATURES
  6
Continuous
 62
     7
100
AcDbSpline
 70
     0
 71
     3
 72
     9
 73
     5
 74
     0
 42
0.000000001
 43
0.0000001
 40
0.0
 40
0.0
 40
0.0
 40
0.0
 40
0.4724510768
 40
1.0
 40
1.0
 40
1.0
 40
1.0
 10
360.8802406647
 20
132.733299187
 30
0.0
 10
360.8776480363
 20
132.7092352187
 30
0.0
 10
360.8614714463
 20
132.6591154089
 30
0.0
 10
360.8291742451
 20
132.6182306239
 30
0.0
 10
360.8100794295
 20
132.5991051419
 30
0.0
  0
SPLINE
  5
576
330
221
100
AcDbEntity
  8
7_ALL_FEATURES
  6
Continuous
 62
     7
100
AcDbSpline
 70
     0
 71
     3
 72
     9
 73
     5
 74
     0
 42
0.000000001
 43
0.0000001
 40
0.0
 40
0.0
 40
0.0
 40
0.0
 40
0.4724510768
 40
1.0
 40
1.0
 40
1.0
 40
1.0
 10
275.5600640037
 20
125.2687509591
 30
0.0
 10
275.5574713753
 20
125.2446869909
 30
0.0
 10
275.5412947853
 20
125.1945671811
 30
0.0
 10
275.5089975842
 20
125.153682396
 30
0.0
 10
275.4899027686
 20
125.1345569141
 30
0.0
  0
SPLINE
  5
577
330
221
100
AcDbEntity
  8
7_ALL_FEATURES
  6
Continuous
 62
     7
100
AcDbSpline
 70
     0
 71
     3
 72
     9
 73
     5
 74
     0
 42
0.000000001
 43
0.0000001
 40
0.0
 40
0.0
 40
0.0
 40
0.0
 40
0.5254938144
 40
1.0
 40
1.0
 40
1.0
 40
1.0
 10
284.6845195994
 20
117.0929582593
 30
0.0
 10
284.6696239481
 20
117.117436915
 30
0.0
 10
284.6464574229
 20
117.1677736478
 30
0.0
 10
284.6415570975
 20
117.2234921439
 30
0.0
 10
284.6443284501
 20
117.2492175817
 30
0.0
  0
SPLINE
  5
578
330
221
100
AcDbEntity
  8
7_ALL_FEATURES
  6
Continuous
 62
     7
100
AcDbSpline
 70
     0
 71
     3
 72
    11
 73
     7
 74
     0
 42
0.000000001
 43
0.0000001
 40
0.0
 40
0.0
 40
0.0
 40
0.0
 40
0.200859087
 40
0.4364079184
 40
0.7043209061
 40
1.0
 40
1.0
 40
1.0
 40
1.0
 10
371.772442699
 20
120.0570385557
 30
0.0
 10
371.7273366268
 20
120.0267264047
 30
0.0
 10
371.6217088638
 20
119.9721981067
 30
0.0
 10
371.4408514967
 20
119.910826382
 30
0.0
 10
371.2292269953
 20
119.8646897165
 30
0.0
 10
371.0777195377
 20
119.8457779651
 30
0.0
 10
370.9980241227
 20
119.8388055197
 30
0.0
  0
SPLINE
  5
579
330
221
100
AcDbEntity
  8
7_ALL_FEATURES
  6
Continuous
 62
     7
100
AcDbSpline
 70
     0
 71
     3
 72
     9
 73
     5
 74
     0
 42
0.000000001
 43
0.0000001
 40
0.0
 40
0.0
 40
0.0
 40
0.0
 40
0.4816232559
 40
1.0
 40
1.0
 40
1.0
 40
1.0
 10
371.6748794253
 20
120.0988382126
 30
0.0
 10
371.6725873408
 20
120.0775616431
 30
0.0
 10
371.6606503035
 20
120.0339314427
 30
0.0
 10
371.6367265779
 20
119.995817898
 30
0.0
 10
371.6224182648
 20
119.9777685668
 30
0.0
  0
SPLINE
  5
57A
330
221
100
AcDbEntity
  8
7_ALL_FEATURES
  6
Continuous
 62
     7
100
AcDbSpline
 70
     0
 71
     3
 72
    15
 73
    11
 74
     0
 42
0.000000001
 43
0.0000001
 40
0.0
 40
0.0
 40
0.0
 40
0.0
 40
0.1330567165
 40
0.2725840591
 40
0.4140590258
 40
0.5528495926
 40
0.6844752911
 40
0.8048815152
 40
0.910760378
 40
1.0
 40
1.0
 40
1.0
 40
1.0
 10
365.4542464506
 20
124.974869702
 30
0.0
 10
365.5552532408
 20
124.9837066511
 30
0.0
 10
365.7630975398
 20
124.9921250528
 30
0.0
 10
366.0786678708
 20
124.9799331695
 30
0.0
 10
366.3968108892
 20
124.9437590446
 30
0.0
 10
366.7054470745
 20
124.884974649
 30
0.0
 10
366.9929239992
 20
124.8058633099
 30
0.0
 10
367.248588983
 20
124.7094374625
 30
0.0
 10
367.4629861432
 20
124.5994706506
 30
0.0
 10
367.5844363819
 20
124.5118336569
 30
0.0
 10
367.6343210404
 20
124.4656177328
 30
0.0
  0
SPLINE
  5
57B
330
221
100
AcDbEntity
  8
7_ALL_FEATURES
  6
Continuous
 62
     7
100
AcDbSpline
 70
     0
 71
     3
 72
     9
 73
     5
 74
     0
 42
0.000000001
 43
0.0000001
 40
0.0
 40
0.0
 40
0.0
 40
0.0
 40
0.2348451525
 40
1.0
 40
1.0
 40
1.0
 40
1.0
 10
275.4789658299
 20
125.1296345364
 30
0.0
 10
275.4745269843
 20
125.1359132013
 30
0.0
 10
275.4547906167
 20
125.162057461
 30
0.0
 10
275.4320514886
 20
125.1858544809
 30
0.0
 10
275.4136737112
 20
125.2028806767
 30
0.0
  0
SPLINE
  5
57C
330
221
100
AcDbEntity
  8
7_ALL_FEATURES
  6
Continuous
 62
     7
100
AcDbSpline
 70
     0
 71
     3
 72
    15
 73
    11
 74
     0
 42
0.000000001
 43
0.0000001
 40
0.0
 40
0.0
 40
0.0
 40
0.0
 40
0.1502442877
 40
0.2828212257
 40
0.4010197048
 40
0.5102739441
 40
0.6178730105
 40
0.7315046216
 40
0.8574910487
 40
1.0
 40
1.0
 40
1.0
 40
1.0
 10
371.7973842734
 20
120.6087242525
 30
0.0
 10
371.8217956708
 20
120.5861081753
 30
0.0
 10
371.8652362165
 20
120.5406110628
 30
0.0
 10
371.9152583004
 20
120.4665872542
 30
0.0
 10
371.9449517159
 20
120.3917288966
 30
0.0
 10
371.9530119204
 20
120.3169041201
 30
0.0
 10
371.9385722818
 20
120.2440150398
 30
0.0
 10
371.9023462683
 20
120.1751459192
 30
0.0
 10
371.8458810314
 20
120.1112747799
 30
0.0
 10
371.7986409386
 20
120.0746442782
 30
0.0
 10
371.772442699
 20
120.0570385557
 30
0.0
  0
SPLINE
  5
57D
330
221
100
AcDbEntity
  8
7_ALL_FEATURES
  6
Continuous
 62
     7
100
AcDbSpline
 70
     0
 71
     3
 72
    27
 73
    23
 74
     0
 42
0.000000001
 43
0.0000001
 40
0.0
 40
0.0
 40
0.0
 40
0.0
 40
0.0220192922
 40
0.0418107419
 40
0.0597925505
 40
0.0765920356
 40
0.0930202557
 40
0.1099552222
 40
0.1281846793
 40
0.1483030676
 40
0.1954798925
 40
0.2528057097
 40
0.3197606777
 40
0.3948542254
 40
0.4759942577
 40
0.560713918
 40
0.6463438621
 40
0.7301651032
 40
0.8095580146
 40
0.8821593267
 40
0.9460469789
 40
1.0
 40
1.0
 40
1.0
 40
1.0
 10
358.3617853627
 20
132.9203508342
 30
0.0
 10
358.3457571141
 20
132.9370659467
 30
0.0
 10
358.3171401672
 20
132.9706685513
 30
0.0
 10
358.2841006332
 20
133.0245294709
 30
0.0
 10
358.2638287028
 20
133.078683118
 30
0.0
 10
358.2568901455
 20
133.1326371372
 30
0.0
 10
358.2636809584
 20
133.1855459629
 30
0.0
 10
358.2840465049
 20
133.2364057845
 30
0.0
 10
358.3173660884
 20
133.2845516589
 30
0.0
 10
358.3816877076
 20
133.3480172759
 30
0.0
 10
358.494935551
 20
133.416955894
 30
0.0
 10
358.6644292789
 20
133.4801820682
 30
0.0
 10
358.869475776
 20
133.5264997389
 30
0.0
 10
359.102906565
 20
133.5541380375
 30
0.0
 10
359.3564814465
 20
133.5620471471
 30
0.0
 10
359.6209428022
 20
133.5498555819
 30
0.0
 10
359.8865931179
 20
133.517984011
 30
0.0
 10
360.1436748868
 20
133.4676055359
 30
0.0
 10
360.3827649597
 20
133.4006195587
 30
0.0
 10
360.5952715419
 20
133.3194991034
 30
0.0
 10
360.7735707383
 20
133.2273194796
 30
0.0
 10
360.8746489538
 20
133.1540934062
 30
0.0
 10
360.9162741167
 20
133.1155295386
 30
0.0
  0
SPLINE
  5
57E
330
221
100
AcDbEntity
  8
7_ALL_FEATURES
  6
Continuous
 62
     7
100
AcDbSpline
 70
     0
 71
     3
 72
    19
 73
    15
 74
     0
 42
0.000000001
 43
0.0000001
 40
0.0
 40
0.0
 40
0.0
 40
0.0
 40
0.0563252535
 40
0.1070316744
 40
0.1531431666
 40
0.1961941103
 40
0.2381757162
 40
0.2812657898
 40
0.3274488512
 40
0.3782507971
 40
0.4970784583
 40
0.6414090977
 40
0.8102181281
 40
1.0
 40
1.0
 40
1.0
 40
1.0
 10
284.5400817218
 20
117.2291763349
 30
0.0
 10
284.5214666412
 20
117.2485888775
 30
0.0
 10
284.4881778559
 20
117.2876109249
 30
0.0
 10
284.4495327208
 20
117.3500885857
 30
0.0
 10
284.425457548
 20
117.4128965394
 30
0.0
 10
284.4165744909
 20
117.4754922701
 30
0.0
 10
284.4233401714
 20
117.5369581524
 30
0.0
 10
284.4456314259
 20
117.5961748713
 30
0.0
 10
284.4827868087
 20
117.6523607471
 30
0.0
 10
284.5550277489
 20
117.7265267724
 30
0.0
 10
284.6832377126
 20
117.8076056558
 30
0.0
 10
284.8761138679
 20
117.8826276353
 30
0.0
 10
285.1102844468
 20
117.9385181115
 30
0.0
 10
285.2803754068
 20
117.9605648747
 30
0.0
 10
285.3706520609
 20
117.9684630585
 30
0.0
  0
SPLINE
  5
57F
330
221
100
AcDbEntity
  8
7_ALL_FEATURES
  6
Continuous
 62
     7
100
AcDbSpline
 70
     0
 71
     3
 72
    15
 73
    11
 74
     0
 42
0.000000001
 43
0.0000001
 40
0.0
 40
0.0
 40
0.0
 40
0.0
 40
0.1502442988
 40
0.2828209599
 40
0.401019421
 40
0.510273605
 40
0.6178726691
 40
0.7315044567
 40
0.8574910399
 40
1.0
 40
1.0
 40
1.0
 40
1.0
 10
275.5960974558
 20
125.6509813107
 30
0.0
 10
275.6168102094
 20
125.631791863
 30
0.0
 10
275.6536689322
 20
125.5931882099
 30
0.0
 10
275.6961118896
 20
125.5303799386
 30
0.0
 10
275.7213062004
 20
125.4668636213
 30
0.0
 10
275.7281452478
 20
125.4033757962
 30
0.0
 10
275.7158931901
 20
125.3415303439
 30
0.0
 10
275.6851554411
 20
125.2830959625
 30
0.0
 10
275.6372452751
 20
125.2289022227
 30
0.0
 10
275.5971626732
 20
125.1978216633
 30
0.0
 10
275.5749337879
 20
125.1828834656
 30
0.0
  0
SPLINE
  5
580
330
221
100
AcDbEntity
  8
7_ALL_FEATURES
  6
Continuous
 62
     7
100
AcDbSpline
 70
     0
 71
     3
 72
    15
 73
    11
 74
     0
 42
0.000000001
 43
0.0000001
 40
0.0
 40
0.0
 40
0.0
 40
0.0
 40
0.1502442988
 40
0.2828209599
 40
0.401019421
 40
0.510273605
 40
0.6178726691
 40
0.7315044567
 40
0.8574910399
 40
1.0
 40
1.0
 40
1.0
 40
1.0
 10
360.9162741167
 20
133.1155295386
 30
0.0
 10
360.9369868703
 20
133.0963400908
 30
0.0
 10
360.9738455932
 20
133.0577364377
 30
0.0
 10
361.0162885505
 20
132.9949281665
 30
0.0
 10
361.0414828614
 20
132.9314118492
 30
0.0
 10
361.0483219087
 20
132.8679240241
 30
0.0
 10
361.0360698511
 20
132.8060785717
 30
0.0
 10
361.0053321021
 20
132.7476441903
 30
0.0
 10
360.957421936
 20
132.6934504505
 30
0.0
 10
360.9173393342
 20
132.6623698912
 30
0.0
 10
360.8951104489
 20
132.6474316935
 30
0.0
  0
SPLINE
  5
581
330
221
100
AcDbEntity
  8
7_ALL_FEATURES
  6
Continuous
 62
     7
100
AcDbSpline
 70
     0
 71
     3
 72
    14
 73
    10
 74
     0
 42
0.000000001
 43
0.0000001
 40
0.0
 40
0.0
 40
0.0
 40
0.0
 40
0.0839154461
 40
0.1739864712
 40
0.2749681881
 40
0.3897869541
 40
0.5198281926
 40
0.6653595201
 40
1.0
 40
1.0
 40
1.0
 40
1.0
 10
284.6443284501
 20
117.2492175817
 30
0.0
 10
284.6465717405
 20
117.2700412139
 30
0.0
 10
284.6580912596
 20
117.312711968
 30
0.0
 10
284.6944371928
 20
117.371789953
 30
0.0
 10
284.7486443488
 20
117.4262939048
 30
0.0
 10
284.8196860986
 20
117.475920793
 30
0.0
 10
284.9066684157
 20
117.5203656766
 30
0.0
 10
285.0492080672
 20
117.5746050975
 30
0.0
 10
285.1665653573
 20
117.6018119987
 30
0.0
 10
285.2488608621
 20
117.6160703722
 30
0.0
  0
SPLINE
  5
582
330
221
100
AcDbEntity
  8
7_ALL_FEATURES
  6
Continuous
 62
     7
100
AcDbSpline
 70
     0
 71
     3
 72
    27
 73
    23
 74
     0
 42
0.000000001
 43
0.0000001
 40
0.0
 40
0.0
 40
0.0
 40
0.0
 40
0.0220192922
 40
0.0418107419
 40
0.0597925505
 40
0.0765920356
 40
0.0930202557
 40
0.1099552222
 40
0.1281846793
 40
0.1483030676
 40
0.1954798925
 40
0.2528057097
 40
0.3197606777
 40
0.3948542254
 40
0.4759942577
 40
0.560713918
 40
0.6463438621
 40
0.7301651032
 40
0.8095580146
 40
0.8821593267
 40
0.9460469789
 40
1.0
 40
1.0
 40
1.0
 40
1.0
 10
273.0416087017
 20
125.4558026063
 30
0.0
 10
273.0255804532
 20
125.4725177189
 30
0.0
 10
272.9969635063
 20
125.5061203235
 30
0.0
 10
272.9639239723
 20
125.5599812431
 30
0.0
 10
272.9436520419
 20
125.6141348901
 30
0.0
 10
272.9367134846
 20
125.6680889094
 30
0.0
 10
272.9435042975
 20
125.720997735
 30
0.0
 10
272.963869844
 20
125.7718575566
 30
0.0
 10
272.9971894274
 20
125.820003431
 30
0.0
 10
273.0615110467
 20
125.883469048
 30
0.0
 10
273.1747588901
 20
125.9524076661
 30
0.0
 10
273.3442526179
 20
126.0156338404
 30
0.0
 10
273.549299115
 20
126.061951511
 30
0.0
 10
273.7827299041
 20
126.0895898097
 30
0.0
 10
274.0363047855
 20
126.0974989192
 30
0.0
 10
274.3007661413
 20
126.0853073541
 30
0.0
 10
274.566416457
 20
126.0534357831
 30
0.0
 10
274.8234982258
 20
126.003057308
 30
0.0
 10
275.0625882988
 20
125.9360713308
 30
0.0
 10
275.2750948809
 20
125.8549508756
 30
0.0
 10
275.4533940773
 20
125.7627712517
 30
0.0
 10
275.5544722929
 20
125.6895451784
 30
0.0
 10
275.5960974558
 20
125.6509813107
 30
0.0
  0
SPLINE
  5
583
330
221
100
AcDbEntity
  8
7_ALL_FEATURES
  6
Continuous
 62
     7
100
AcDbSpline
 70
     0
 71
     3
 72
    19
 73
    15
 74
     0
 42
0.000000001
 43
0.0000001
 40
0.0
 40
0.0
 40
0.0
 40
0.0
 40
0.0466253447
 40
0.1000147648
 40
0.159719373
 40
0.2249545662
 40
0.3677050488
 40
0.518526256
 40
0.6665203315
 40
0.8011484623
 40
0.8606744384
 40
0.9138667773
 40
0.9602873675
 40
1.0
 40
1.0
 40
1.0
 40
1.0
 10
360.7338503721
 20
132.6674289046
 30
0.0
 10
360.7063467404
 20
132.6929097998
 30
0.0
 10
360.6423656329
 20
132.7422266181
 30
0.0
 10
360.5314418369
 20
132.8074019343
 30
0.0
 10
360.4010905841
 20
132.8676516887
 30
0.0
 10
360.1988470879
 20
132.9418903953
 30
0.0
 10
359.9181995629
 20
133.0124151177
 30
0.0
 10
359.5656145025
 20
133.0598352577
 30
0.0
 10
359.2164934619
 20
133.0682684658
 30
0.0
 10
358.9416028943
 20
133.0417001262
 30
0.0
 10
358.7472877423
 20
132.9981234815
 30
0.0
 10
358.6255509773
 20
132.957767879
 30
0.0
 10
358.5241893082
 20
132.9092857628
 30
0.0
 10
358.46717509
 20
132.8689379293
 30
0.0
 10
358.443655374
 20
132.8473365348
 30
0.0
  0
SPLINE
  5
584
330
221
100
AcDbEntity
  8
7_ALL_FEATURES
  6
Continuous
 62
     7
100
AcDbSpline
 70
     0
 71
     3
 72
    11
 73
     7
 74
     0
 42
0.000000001
 43
0.0000001
 40
0.0
 40
0.0
 40
0.0
 40
0.0
 40
0.295914845
 40
0.5553514354
 40
0.7858734675
 40
1.0
 40
1.0
 40
1.0
 40
1.0
 10
360.7660047724
 20
132.9659172142
 30
0.0
 10
360.7854094873
 20
132.9479396063
 30
0.0
 10
360.8197496747
 20
132.9117695315
 30
0.0
 10
360.8585285908
 20
132.8526140737
 30
0.0
 10
360.8801495871
 20
132.792761907
 30
0.0
 10
360.882291063
 20
132.7523303441
 30
0.0
 10
360.8802406647
 20
132.733299187
 30
0.0
  0
SPLINE
  5
585
330
221
100
AcDbEntity
  8
7_ALL_FEATURES
  6
Continuous
 62
     7
100
AcDbSpline
 70
     0
 71
     3
 72
    19
 73
    15
 74
     0
 42
0.000000001
 43
0.0000001
 40
0.0
 40
0.0
 40
0.0
 40
0.0
 40
0.0453424774
 40
0.0968515421
 40
0.1541743897
 40
0.2166796688
 40
0.3537182204
 40
0.4999422086
 40
0.6461747397
 40
0.7832379834
 40
0.8457607851
 40
0.9031038494
 40
0.9546355185
 40
1.0
 40
1.0
 40
1.0
 40
1.0
 10
360.5824624512
 20
132.5188499289
 30
0.0
 10
360.5598657369
 20
132.5396653897
 30
0.0
 10
360.5078398225
 20
132.5800814112
 30
0.0
 10
360.4181737052
 20
132.6340002947
 30
0.0
 10
360.3133516997
 20
132.6842501842
 30
0.0
 10
360.1508692014
 20
132.7470126811
 30
0.0
 10
359.9242269373
 20
132.8088362491
 30
0.0
 10
359.6363721602
 20
132.8548354451
 30
0.0
 10
359.3453111883
 20
132.8712537251
 30
0.0
 10
359.1106652242
 20
132.8591659767
 30
0.0
 10
358.9384948837
 20
132.8324871879
 30
0.0
 10
358.8253276972
 20
132.8057408304
 30
0.0
 10
358.7261811567
 20
132.7721793798
 30
0.0
 10
358.666700091
 20
132.7437877566
 30
0.0
 10
358.6401666822
 20
132.7282703642
 30
0.0
  0
SPLINE
  5
586
330
221
100
AcDbEntity
  8
7_ALL_FEATURES
  6
Continuous
 62
     7
100
AcDbSpline
 70
     0
 71
     3
 72
    25
 73
    21
 74
     0
 42
0.000000001
 43
0.0000001
 40
0.0
 40
0.0
 40
0.0
 40
0.0
 40
0.0155249103
 40
0.0316551249
 40
0.067598839
 40
0.1107307111
 40
0.1620518027
 40
0.1907906271
 40
0.2214686329
 40
0.25396667
 40
0.2881380208
 40
0.3607903789
 40
0.4378827213
 40
0.5176561841
 40
0.5982403447
 40
0.7541823378
 40
0.8260357782
 40
0.8916790404
 40
0.9499089991
 40
1.0
 40
1.0
 40
1.0
 40
1.0
 10
358.3946213494
 20
133.0010604205
 30
0.0
 10
358.3960525801
 20
133.0143446566
 30
0.0
 10
358.4019942877
 20
133.0411911572
 30
0.0
 10
358.4264062825
 20
133.0944101404
 30
0.0
 10
358.4816412216
 20
133.1571098501
 30
0.0
 10
358.5758229747
 20
133.219474903
 30
0.0
 10
358.6736053836
 20
133.2615890371
 30
0.0
 10
358.7643602243
 20
133.2907789919
 30
0.0
 10
358.8409986008
 20
133.3105634896
 30
0.0
 10
358.9231220683
 20
133.3272990124
 30
0.0
 10
359.0416323932
 20
133.3457608089
 30
0.0
 10
359.1994529107
 20
133.3600366219
 30
0.0
 10
359.3970941359
 20
133.3635424451
 30
0.0
 10
359.6013697626
 20
133.3536314201
 30
0.0
 10
359.8719749147
 20
133.3231416104
 30
0.0
 10
360.1328071133
 20
133.2689954544
 30
0.0
 10
360.3730294506
 20
133.1903851202
 30
0.0
 10
360.5282837502
 20
133.1243355887
 30
0.0
 10
360.6594080473
 20
133.0514844861
 30
0.0
 10
360.7343810493
 20
132.9952151913
 30
0.0
 10
360.7660047724
 20
132.9659172142
 30
0.0
  0
SPLINE
  5
587
330
221
100
AcDbEntity
  8
02___PRT_ALL_AXES
  6
Continuous
 62
     7
100
AcDbSpline
 70
     0
 71
     3
 72
    18
 73
    14
 74
     0
 42
0.000000001
 43
0.0000001
 40
0.0
 40
0.0
 40
0.0
 40
0.0
 40
0.0428906287
 40
0.0922530731
 40
0.1478745105
 40
0.2091853245
 40
0.3453481637
 40
0.49243373
 40
0.6406584483
 40
0.7801054139
 40
0.9019265461
 40
0.9541768629
 40
1.0
 40
1.0
 40
1.0
 40
1.0
 10
358.8521166361
 20
132.6375247924
 30
0.0
 10
358.8703067149
 20
132.6503275356
 30
0.0
 10
358.9122196721
 20
132.6739331889
 30
0.0
 10
358.9837325189
 20
132.7020614201
 30
0.0
 10
359.0670288432
 20
132.7249487542
 30
0.0
 10
359.1962540604
 20
132.7486639605
 30
0.0
 10
359.3750673283
 20
132.7612832607
 30
0.0
 10
359.5990190432
 20
132.7517239097
 30
0.0
 10
359.8224915628
 20
132.7184513823
 30
0.0
 10
360.028207834
 20
132.6640886871
 30
0.0
 10
360.1793986048
 20
132.6020471471
 30
0.0
 10
360.2775207471
 20
132.5435706489
 30
0.0
 10
360.3178617946
 20
132.5122452559
 30
0.0
 10
360.3352947994
 20
132.4960943499
 30
0.0
  0
SPLINE
  5
588
330
221
100
AcDbEntity
  8
7_ALL_FEATURES
  6
Continuous
 62
     7
100
AcDbSpline
 70
     0
 71
     3
 72
     9
 73
     5
 74
     0
 42
0.000000001
 43
0.0000001
 40
0.0
 40
0.0
 40
0.0
 40
0.0
 40
0.2348451525
 40
1.0
 40
1.0
 40
1.0
 40
1.0
 10
360.7991424909
 20
132.5941827643
 30
0.0
 10
360.7947036453
 20
132.6004614292
 30
0.0
 10
360.7749672776
 20
132.6266056889
 30
0.0
 10
360.7522281495
 20
132.6504027088
 30
0.0
 10
360.7338503721
 20
132.6674289046
 30
0.0
  0
SPLINE
  5
589
330
221
100
AcDbEntity
  8
7_ALL_FEATURES
  6
Continuous
 62
     7
100
AcDbSpline
 70
     0
 71
     3
 72
    19
 73
    15
 74
     0
 42
0.000000001
 43
0.0000001
 40
0.0
 40
0.0
 40
0.0
 40
0.0
 40
0.0466253447
 40
0.1000147648
 40
0.159719373
 40
0.2249545662
 40
0.3677050488
 40
0.518526256
 40
0.6665203315
 40
0.8011484623
 40
0.8606744384
 40
0.9138667773
 40
0.9602873675
 40
1.0
 40
1.0
 40
1.0
 40
1.0
 10
275.4136737112
 20
125.2028806767
 30
0.0
 10
275.3861700794
 20
125.228361572
 30
0.0
 10
275.3221889719
 20
125.2776783902
 30
0.0
 10
275.2112651759
 20
125.3428537064
 30
0.0
 10
275.0809139232
 20
125.4031034609
 30
0.0
 10
274.8786704269
 20
125.4773421674
 30
0.0
 10
274.5980229019
 20
125.5478668899
 30
0.0
 10
274.2454378416
 20
125.5952870298
 30
0.0
 10
273.8963168009
 20
125.6037202379
 30
0.0
 10
273.6214262333
 20
125.5771518984
 30
0.0
 10
273.4271110814
 20
125.5335752536
 30
0.0
 10
273.3053743163
 20
125.4932196511
 30
0.0
 10
273.2040126472
 20
125.4447375349
 30
0.0
 10
273.146998429
 20
125.4043897014
 30
0.0
 10
273.1234787131
 20
125.382788307
 30
0.0
  0
SPLINE
  5
58A
330
221
100
AcDbEntity
  8
7_ALL_FEATURES
  6
Continuous
 62
     7
100
AcDbSpline
 70
     0
 71
     3
 72
    11
 73
     7
 74
     0
 42
0.000000001
 43
0.0000001
 40
0.0
 40
0.0
 40
0.0
 40
0.0
 40
0.295914845
 40
0.5553514354
 40
0.7858734675
 40
1.0
 40
1.0
 40
1.0
 40
1.0
 10
275.4458281115
 20
125.5013689863
 30
0.0
 10
275.4652328264
 20
125.4833913784
 30
0.0
 10
275.4995730137
 20
125.4472213037
 30
0.0
 10
275.5383519299
 20
125.3880658459
 30
0.0
 10
275.5599729261
 20
125.3282136791
 30
0.0
 10
275.562114402
 20
125.2877821163
 30
0.0
 10
275.5600640037
 20
125.2687509591
 30
0.0
  0
SPLINE
  5
58B
330
221
100
AcDbEntity
  8
7_ALL_FEATURES
  6
Continuous
 62
     7
100
AcDbSpline
 70
     0
 71
     3
 72
    11
 73
     7
 74
     0
 42
0.000000001
 43
0.0000001
 40
0.0
 40
0.0
 40
0.0
 40
0.0
 40
0.2959143962
 40
0.5553519857
 40
0.7858734739
 40
1.0
 40
1.0
 40
1.0
 40
1.0
 10
371.5469353662
 20
120.3593703784
 30
0.0
 10
371.5686686144
 20
120.3392354877
 30
0.0
 10
371.6071295811
 20
120.2987248981
 30
0.0
 10
371.6505622177
 20
120.2324709748
 30
0.0
 10
371.6747777217
 20
120.1654363811
 30
0.0
 10
371.6771756413
 20
120.1201531331
 30
0.0
 10
371.6748794253
 20
120.0988382126
 30
0.0
  0
SPLINE
  5
58C
330
221
100
AcDbEntity
  8
7_ALL_FEATURES
  6
Continuous
 62
     7
100
AcDbSpline
 70
     0
 71
     3
 72
     9
 73
     5
 74
     0
 42
0.000000001
 43
0.0000001
 40
0.0
 40
0.0
 40
0.0
 40
0.0
 40
0.5193297572
 40
1.0
 40
1.0
 40
1.0
 40
1.0
 10
366.1623709826
 20
124.6404019279
 30
0.0
 10
366.3015160821
 20
124.6259903912
 30
0.0
 10
366.568073072
 20
124.5830862753
 30
0.0
 10
366.8279239462
 20
124.5084361647
 30
0.0
 10
366.9490260126
 20
124.4626290017
 30
0.0
  0
SPLINE
  5
58D
330
221
100
AcDbEntity
  8
7_ALL_FEATURES
  6
Continuous
 62
     7
100
AcDbSpline
 70
     0
 71
     3
 72
    10
 73
     6
 74
     0
 42
0.000000001
 43
0.0000001
 40
0.0
 40
0.0
 40
0.0
 40
0.0
 40
0.550087801
 40
0.7883490404
 40
1.0
 40
1.0
 40
1.0
 40
1.0
 10
366.9490260126
 20
124.4626290017
 30
0.0
 10
367.035171306
 20
124.4300443264
 30
0.0
 10
367.1564261026
 20
124.3760633742
 30
0.0
 10
367.2986482215
 20
124.2873094165
 30
0.0
 10
367.3578767107
 20
124.2403474649
 30
0.0
 10
367.3838721333
 20
124.2162638587
 30
0.0
  0
SPLINE
  5
58E
330
221
100
AcDbEntity
  8
7_ALL_FEATURES
  6
Continuous
 62
     7
100
AcDbSpline
 70
     0
 71
     3
 72
    19
 73
    15
 74
     0
 42
0.000000001
 43
0.0000001
 40
0.0
 40
0.0
 40
0.0
 40
0.0
 40
0.0453424774
 40
0.0968515421
 40
0.1541743897
 40
0.2166796688
 40
0.3537182204
 40
0.4999422086
 40
0.6461747397
 40
0.7832379834
 40
0.8457607851
 40
0.9031038494
 40
0.9546355185
 40
1.0
 40
1.0
 40
1.0
 40
1.0
 10
275.2622857902
 20
125.0543017011
 30
0.0
 10
275.2396890759
 20
125.0751171619
 30
0.0
 10
275.1876631615
 20
125.1155331833
 30
0.0
 10
275.0979970443
 20
125.1694520668
 30
0.0
 10
274.9931750388
 20
125.2197019563
 30
0.0
 10
274.8306925405
 20
125.2824644533
 30
0.0
 10
274.6040502763
 20
125.3442880213
 30
0.0
 10
274.3161954992
 20
125.3902872172
 30
0.0
 10
274.0251345273
 20
125.4067054972
 30
0.0
 10
273.7904885633
 20
125.3946177488
 30
0.0
 10
273.6183182227
 20
125.36793896
 30
0.0
 10
273.5051510363
 20
125.3411926026
 30
0.0
 10
273.4060044958
 20
125.3076311519
 30
0.0
 10
273.3465234301
 20
125.2792395287
 30
0.0
 10
273.3199900213
 20
125.2637221363
 30
0.0
  0
SPLINE
  5
58F
330
221
100
AcDbEntity
  8
7_ALL_FEATURES
  6
Continuous
 62
     7
100
AcDbSpline
 70
     0
 71
     3
 72
    25
 73
    21
 74
     0
 42
0.000000001
 43
0.0000001
 40
0.0
 40
0.0
 40
0.0
 40
0.0
 40
0.0155249103
 40
0.0316551249
 40
0.067598839
 40
0.1107307111
 40
0.1620518027
 40
0.1907906271
 40
0.2214686329
 40
0.25396667
 40
0.2881380208
 40
0.3607903789
 40
0.4378827213
 40
0.5176561841
 40
0.5982403447
 40
0.7541823378
 40
0.8260357782
 40
0.8916790404
 40
0.9499089991
 40
1.0
 40
1.0
 40
1.0
 40
1.0
 10
273.0744446885
 20
125.5365121927
 30
0.0
 10
273.0758759191
 20
125.5497964288
 30
0.0
 10
273.0818176268
 20
125.5766429294
 30
0.0
 10
273.1062296215
 20
125.6298619126
 30
0.0
 10
273.1614645607
 20
125.6925616222
 30
0.0
 10
273.2556463137
 20
125.7549266751
 30
0.0
 10
273.3534287226
 20
125.7970408092
 30
0.0
 10
273.4441835634
 20
125.826230764
 30
0.0
 10
273.5208219398
 20
125.8460152617
 30
0.0
 10
273.6029454073
 20
125.8627507845
 30
0.0
 10
273.7214557322
 20
125.881212581
 30
0.0
 10
273.8792762497
 20
125.895488394
 30
0.0
 10
274.0769174749
 20
125.8989942172
 30
0.0
 10
274.2811931016
 20
125.8890831922
 30
0.0
 10
274.5517982537
 20
125.8585933826
 30
0.0
 10
274.8126304524
 20
125.8044472266
 30
0.0
 10
275.0528527897
 20
125.7258368923
 30
0.0
 10
275.2081070892
 20
125.6597873609
 30
0.0
 10
275.3392313863
 20
125.5869362582
 30
0.0
 10
275.4142043883
 20
125.5306669635
 30
0.0
 10
275.4458281115
 20
125.5013689863
 30
0.0
  0
SPLINE
  5
590
330
221
100
AcDbEntity
  8
02___PRT_ALL_AXES
  6
Continuous
 62
     7
100
AcDbSpline
 70
     0
 71
     3
 72
    18
 73
    14
 74
     0
 42
0.000000001
 43
0.0000001
 40
0.0
 40
0.0
 40
0.0
 40
0.0
 40
0.0428906287
 40
0.0922530731
 40
0.1478745105
 40
0.2091853245
 40
0.3453481637
 40
0.49243373
 40
0.6406584483
 40
0.7801054139
 40
0.9019265461
 40
0.9541768629
 40
1.0
 40
1.0
 40
1.0
 40
1.0
 10
273.5319399751
 20
125.1729765645
 30
0.0
 10
273.5501300539
 20
125.1857793078
 30
0.0
 10
273.5920430112
 20
125.209384961
 30
0.0
 10
273.6635558579
 20
125.2375131922
 30
0.0
 10
273.7468521822
 20
125.2604005263
 30
0.0
 10
273.8760773994
 20
125.2841157327
 30
0.0
 10
274.0548906674
 20
125.2967350328
 30
0.0
 10
274.2788423823
 20
125.2871756819
 30
0.0
 10
274.5023149018
 20
125.2539031544
 30
0.0
 10
274.7080311731
 20
125.1995404593
 30
0.0
 10
274.8592219439
 20
125.1374989193
 30
0.0
 10
274.9573440862
 20
125.079022421
 30
0.0
 10
274.9976851336
 20
125.047697028
 30
0.0
 10
275.0151181385
 20
125.031546122
 30
0.0
  0
ENDSEC
  0
SECTION
  2
OBJECTS
  0
DICTIONARY
  5
C
330
0
100
AcDbDictionary
281
     1
  3
ACAD_DETAILVIEWSTYLE
350
5E4
  3
ACAD_GROUP
350
D
  3
ACAD_LAYOUT
350
1A
  3
ACAD_MATERIAL
350
5D2
  3
ACAD_MLEADERSTYLE
350
5D6
  3
ACAD_MLINESTYLE
350
17
  3
ACAD_PLOTSETTINGS
350
19
  3
ACAD_PLOTSTYLENAME
350
E
  3
ACAD_SCALELIST
350
596
  3
ACAD_SECTIONVIEWSTYLE
350
5E5
  3
ACAD_TABLESTYLE
350
591
  3
ACAD_VISUALSTYLE
350
5B9
  3
ACDB_RECOMPOSE_DATA
350
5E1
  3
AcDbVariableDictionary
350
5DA
  3
APPDATA
350
5D8
  0
SUN
  5
5D9
330
1F4
100
AcDbSun
 90
        1
290
     0
 63
     7
421
 16777215
 40
1.0
291
     1
 91
  2455826
 92
 54000000
292
     0
 70
     2
 71
   256
280
     1
  0
DICTIONARY
  5
5E4
102
{ACAD_REACTORS
330
C
102
}
330
C
100
AcDbDictionary
281
     1
  0
DICTIONARY
  5
D
102
{ACAD_REACTORS
330
C
102
}
330
C
100
AcDbDictionary
281
     1
  0
DICTIONARY
  5
1A
102
{ACAD_REACTORS
330
C
102
}
330
C
100
AcDbDictionary
281
     1
  3
Layout1
350
593
  3
Model
350
592
  0
DICTIONARY
  5
5D2
102
{ACAD_REACTORS
330
C
102
}
330
C
100
AcDbDictionary
281
     1
  3
ByBlock
350
5D4
  3
ByLayer
350
5D3
  3
Global
350
5D5
  0
DICTIONARY
  5
5D6
102
{ACAD_REACTORS
330
C
102
}
330
C
100
AcDbDictionary
281
     1
  3
Standard
350
5D7
  0
DICTIONARY
  5
17
102
{ACAD_REACTORS
330
C
102
}
330
C
100
AcDbDictionary
281
     1
  3
Standard
350
18
  0
DICTIONARY
  5
19
102
{ACAD_REACTORS
330
C
102
}
330
C
100
AcDbDictionary
281
     1
  0
ACDBDICTIONARYWDFLT
  5
E
102
{ACAD_REACTORS
330
C
102
}
330
C
100
AcDbDictionary
281
     1
  3
Normal
350
F
100
AcDbDictionaryWithDefault
340
F
  0
DICTIONARY
  5
596
102
{ACAD_REACTORS
330
C
102
}
330
C
100
AcDbDictionary
281
     1
  3
A0
350
597
  3
A1
350
598
  3
A2
350
599
  3
A3
350
59A
  3
A4
350
59B
  3
A5
350
59C
  3
A6
350
59D
  3
A7
350
59E
  3
A8
350
59F
  3
A9
350
5A0
  3
B0
350
5A1
  3
B1
350
5A2
  3
B2
350
5A3
  3
B3
350
5A4
  3
B4
350
5A5
  3
B5
350
5A6
  3
B6
350
5A7
  3
B7
350
5A8
  3
B8
350
5A9
  3
B9
350
5AA
  3
C0
350
5AB
  3
C1
350
5AC
  3
C2
350
5AD
  3
C3
350
5AE
  3
C4
350
5AF
  3
C5
350
5B0
  3
C6
350
5B1
  3
C7
350
5B2
  3
C8
350
5B3
  3
C9
350
5B4
  3
D0
350
5B5
  3
D1
350
5B6
  3
D2
350
5B7
  0
DICTIONARY
  5
5E5
102
{ACAD_REACTORS
330
C
102
}
330
C
100
AcDbDictionary
281
     1
  0
DICTIONARY
  5
591
330
C
100
AcDbDictionary
281
     1
  3
Standard
350
594
  3
Standard1
350
595
  0
DICTIONARY
  5
5B9
102
{ACAD_REACTORS
330
C
102
}
330
C
100
AcDbDictionary
281
     1
  3
2dWireframe
350
5BE
  3
Basic
350
5C1
  3
Brighten
350
5C5
  3
ColorChange
350
5C9
  3
Conceptual
350
5C3
  3
Dim
350
5C4
  3
EdgeColorOff
350
5CC
  3
Facepattern
350
5C8
  3
Flat
350
5BA
  3
FlatWithEdges
350
5BB
  3
Gouraud
350
5BC
  3
GouraudWithEdges
350
5BD
  3
Hidden
350
5C0
  3
JitterOff
350
5CA
  3
Linepattern
350
5C7
  3
OverhangOff
350
5CB
  3
Realistic
350
5C2
  3
Shaded
350
5D1
  3
Shaded with edges
350
5D0
  3
Shades of Gray
350
5CD
  3
Sketchy
350
5CE
  3
Thicken
350
5C6
  3
Wireframe
350
5BF
  3
X-Ray
350
5CF
  0
XRECORD
  5
5E1
102
{ACAD_REACTORS
330
C
102
}
330
C
100
AcDbXrecord
280
     1
 90
        1
330
594
330
595
  0
DICTIONARY
  5
5DA
102
{ACAD_REACTORS
330
C
102
}
330
C
100
AcDbDictionary
281
     1
  3
CANNOSCALE
350
5DB
  3
CMLEADERSTYLE
350
5E3
  3
CTABLESTYLE
350
5E2
  0
DICTIONARY
  5
5D8
102
{ACAD_REACTORS
330
C
102
}
330
C
100
AcDbDictionary
281
     1
  0
LAYOUT
  5
593
102
{ACAD_REACTORS
330
1A
102
}
330
1A
100
AcDbPlotSettings
  1

  2
none_device
  4
ISO_A3_(420.00_x_297.00_MM)
  6

 40
0.0
 41
0.0
 42
0.0
 43
0.0
 44
420.0
 45
297.0
 46
0.0
 47
0.0
 48
0.0
 49
0.0
140
0.0
141
0.0
142
1.0
143
1.0
 70
     0
 72
     1
 73
     0
 74
     0
  7

 75
     0
 76
     0
 77
     2
 78
   300
147
1.0
148
0.0
149
0.0
100
AcDbLayout
  1
Layout1
 70
     0
 71
     1
 10
0.0
 20
0.0
 11
420.0
 21
297.0
 12
0.0
 22
0.0
 32
0.0
 14
0.0
 24
0.0
 34
0.0
 15
0.0
 25
0.0
 35
0.0
146
0.0
 13
0.0
 23
0.0
 33
0.0
 16
1.0
 26
0.0
 36
0.0
 17
0.0
 27
1.0
 37
0.0
 76
     0
330
222
  0
LAYOUT
  5
592
102
{ACAD_REACTORS
330
1A
102
}
330
1A
100
AcDbPlotSettings
  1

  2
none_device
  4
ISO_A3_(420.00_x_297.00_MM)
  6

 40
0.0
 41
0.0
 42
0.0
 43
0.0
 44
420.0
 45
297.0
 46
0.0
 47
0.0
 48
0.0
 49
0.0
140
0.0
141
0.0
142
1.0
143
1.0
 70
  1024
 72
     1
 73
     0
 74
     0
  7

 75
     0
 76
     0
 77
     2
 78
   300
147
1.0
148
0.0
149
0.0
100
AcDbLayout
  1
Model
 70
     0
 71
     0
 10
0.0
 20
0.0
 11
420.0
 21
297.0
 12
0.0
 22
0.0
 32
0.0
 14
0.0
 24
0.0
 34
0.0
 15
0.0
 25
0.0
 35
0.0
146
0.0
 13
0.0
 23
0.0
 33
0.0
 16
1.0
 26
0.0
 36
0.0
 17
0.0
 27
1.0
 37
0.0
 76
     0
330
221
331
1F4
  0
MATERIAL
  5
5D4
102
{ACAD_REACTORS
330
5D2
102
}
330
5D2
100
AcDbMaterial
  1
ByBlock
 72
     1
 94
      127
  0
MATERIAL
  5
5D3
102
{ACAD_REACTORS
330
5D2
102
}
330
5D2
100
AcDbMaterial
  1
ByLayer
 72
     1
 94
      127
  0
MATERIAL
  5
5D5
102
{ACAD_REACTORS
330
5D2
102
}
330
5D2
100
AcDbMaterial
  1
Global
 72
     1
 94
      127
  0
MLEADERSTYLE
  5
5D7
102
{ACAD_REACTORS
330
5D6
102
}
330
5D6
100
AcDbMLeaderStyle
170
     2
171
     1
172
     0
 90
        2
 40
0.0
 41
0.0
173
     1
 91
-1056964608
340
14
 92
       -2
290
     1
 42
2.0
291
     1
 43
8.0
  3
Standard
341
0
 44
4.0
300

342
11
174
     1
178
     1
175
     1
176
     0
 93
-1056964608
 45
4.0
292
     0
297
     0
 46
4.0
343
0
 94
-1056964608
 47
1.0
 49
1.0
140
1.0
293
     1
141
0.0
294
     1
177
     0
142
1.0
295
     0
296
     0
143
3.75
1001
ACAD_MLEADERVER
1070
     2
  0
MLINESTYLE
  5
18
102
{ACAD_REACTORS
330
17
102
}
330
17
100
AcDbMlineStyle
  2
STANDARD
 70
     0
  3

 62
   256
 51
90.0
 52
90.0
 71
     2
 49
0.5
 62
   256
  6
BYLAYER
 49
-0.5
 62
   256
  6
BYLAYER
  0
ACDBPLACEHOLDER
  5
F
102
{ACAD_REACTORS
330
E
102
}
330
E
  0
SCALE
  5
597
102
{ACAD_REACTORS
330
596
102
}
330
596
100
AcDbScale
 70
     0
300
1:1
140
1.0
141
1.0
290
     1
  0
SCALE
  5
598
102
{ACAD_REACTORS
330
596
102
}
330
596
100
AcDbScale
 70
     0
300
1:2
140
1.0
141
2.0
290
     0
  0
SCALE
  5
599
102
{ACAD_REACTORS
330
596
102
}
330
596
100
AcDbScale
 70
     0
300
1:4
140
1.0
141
4.0
290
     0
  0
SCALE
  5
59A
102
{ACAD_REACTORS
330
596
102
}
330
596
100
AcDbScale
 70
     0
300
1:5
140
1.0
141
5.0
290
     0
  0
SCALE
  5
59B
102
{ACAD_REACTORS
330
596
102
}
330
596
100
AcDbScale
 70
     0
300
1:8
140
1.0
141
8.0
290
     0
  0
SCALE
  5
59C
102
{ACAD_REACTORS
330
596
102
}
330
596
100
AcDbScale
 70
     0
300
1:10
140
1.0
141
10.0
290
     0
  0
SCALE
  5
59D
102
{ACAD_REACTORS
330
596
102
}
330
596
100
AcDbScale
 70
     0
300
1:16
140
1.0
141
16.0
290
     0
  0
SCALE
  5
59E
102
{ACAD_REACTORS
330
596
102
}
330
596
100
AcDbScale
 70
     0
300
1:20
140
1.0
141
20.0
290
     0
  0
SCALE
  5
59F
102
{ACAD_REACTORS
330
596
102
}
330
596
100
AcDbScale
 70
     0
300
1:30
140
1.0
141
30.0
290
     0
  0
SCALE
  5
5A0
102
{ACAD_REACTORS
330
596
102
}
330
596
100
AcDbScale
 70
     0
300
1:40
140
1.0
141
40.0
290
     0
  0
SCALE
  5
5A1
102
{ACAD_REACTORS
330
596
102
}
330
596
100
AcDbScale
 70
     0
300
1:50
140
1.0
141
50.0
290
     0
  0
SCALE
  5
5A2
102
{ACAD_REACTORS
330
596
102
}
330
596
100
AcDbScale
 70
     0
300
1:100
140
1.0
141
100.0
290
     0
  0
SCALE
  5
5A3
102
{ACAD_REACTORS
330
596
102
}
330
596
100
AcDbScale
 70
     0
300
2:1
140
2.0
141
1.0
290
     0
  0
SCALE
  5
5A4
102
{ACAD_REACTORS
330
596
102
}
330
596
100
AcDbScale
 70
     0
300
4:1
140
4.0
141
1.0
290
     0
  0
SCALE
  5
5A5
102
{ACAD_REACTORS
330
596
102
}
330
596
100
AcDbScale
 70
     0
300
8:1
140
8.0
141
1.0
290
     0
  0
SCALE
  5
5A6
102
{ACAD_REACTORS
330
596
102
}
330
596
100
AcDbScale
 70
     0
300
10:1
140
10.0
141
1.0
290
     0
  0
SCALE
  5
5A7
102
{ACAD_REACTORS
330
596
102
}
330
596
100
AcDbScale
 70
     0
300
100:1
140
100.0
141
1.0
290
     0
  0
SCALE
  5
5A8
102
{ACAD_REACTORS
330
596
102
}
330
596
100
AcDbScale
 70
     0
300
1/128" = 1'-0"
140
0.0078125
141
12.0
290
     0
  0
SCALE
  5
5A9
102
{ACAD_REACTORS
330
596
102
}
330
596
100
AcDbScale
 70
     0
300
1/64" = 1'-0"
140
0.015625
141
12.0
290
     0
  0
SCALE
  5
5AA
102
{ACAD_REACTORS
330
596
102
}
330
596
100
AcDbScale
 70
     0
300
1/32" = 1'-0"
140
0.03125
141
12.0
290
     0
  0
SCALE
  5
5AB
102
{ACAD_REACTORS
330
596
102
}
330
596
100
AcDbScale
 70
     0
300
1/16" = 1'-0"
140
0.0625
141
12.0
290
     0
  0
SCALE
  5
5AC
102
{ACAD_REACTORS
330
596
102
}
330
596
100
AcDbScale
 70
     0
300
3/32" = 1'-0"
140
0.09375
141
12.0
290
     0
  0
SCALE
  5
5AD
102
{ACAD_REACTORS
330
596
102
}
330
596
100
AcDbScale
 70
     0
300
1/8" = 1'-0"
140
0.125
141
12.0
290
     0
  0
SCALE
  5
5AE
102
{ACAD_REACTORS
330
596
102
}
330
596
100
AcDbScale
 70
     0
300
3/16" = 1'-0"
140
0.1875
141
12.0
290
     0
  0
SCALE
  5
5AF
102
{ACAD_REACTORS
330
596
102
}
330
596
100
AcDbScale
 70
     0
300
1/4" = 1'-0"
140
0.25
141
12.0
290
     0
  0
SCALE
  5
5B0
102
{ACAD_REACTORS
330
596
102
}
330
596
100
AcDbScale
 70
     0
300
3/8" = 1'-0"
140
0.375
141
12.0
290
     0
  0
SCALE
  5
5B1
102
{ACAD_REACTORS
330
596
102
}
330
596
100
AcDbScale
 70
     0
300
1/2" = 1'-0"
140
0.5
141
12.0
290
     0
  0
SCALE
  5
5B2
102
{ACAD_REACTORS
330
596
102
}
330
596
100
AcDbScale
 70
     0
300
3/4" = 1'-0"
140
0.75
141
12.0
290
     0
  0
SCALE
  5
5B3
102
{ACAD_REACTORS
330
596
102
}
330
596
100
AcDbScale
 70
     0
300
1" = 1'-0"
140
1.0
141
12.0
290
     0
  0
SCALE
  5
5B4
102
{ACAD_REACTORS
330
596
102
}
330
596
100
AcDbScale
 70
     0
300
1-1/2" = 1'-0"
140
1.5
141
12.0
290
     0
  0
SCALE
  5
5B5
102
{ACAD_REACTORS
330
596
102
}
330
596
100
AcDbScale
 70
     0
300
3" = 1'-0"
140
3.0
141
12.0
290
     0
  0
SCALE
  5
5B6
102
{ACAD_REACTORS
330
596
102
}
330
596
100
AcDbScale
 70
     0
300
6" = 1'-0"
140
6.0
141
12.0
290
     0
  0
SCALE
  5
5B7
102
{ACAD_REACTORS
330
596
102
}
330
596
100
AcDbScale
 70
     0
300
1'-0" = 1'-0"
140
12.0
141
12.0
290
     0
  0
TABLESTYLE
  5
594
102
{ACAD_REACTORS
330
591
330
3C9
102
}
102
{ACAD_XDICTIONARY
360
5DC
102
}
330
591
100
AcDbTableStyle
  3
Standard
 70
     0
 71
     0
 40
0.06
 41
0.06
280
     1
281
     1
  7
STANDARD
140
0.18
170
     1
 62
     0
 63
   257
283
     0
 90
        4
 91
        0
  1

274
    -2
284
     1
 64
     0
275
    -2
285
     1
 65
     0
276
    -2
286
     1
 66
     0
277
    -2
287
     1
 67
     0
278
    -2
288
     1
 68
     0
279
    -2
289
     1
 69
     0
  7
STANDARD
140
0.18
170
     1
 62
     0
 63
   257
283
     0
 90
        4
 91
        0
  1

274
    -2
284
     1
 64
     0
275
    -2
285
     1
 65
     0
276
    -2
286
     1
 66
     0
277
    -2
287
     1
 67
     0
278
    -2
288
     1
 68
     0
279
    -2
289
     1
 69
     0
  7
STANDARD
140
0.18
170
     1
 62
     0
 63
   257
283
     0
 90
        4
 91
        0
  1

274
    -2
284
     1
 64
     0
275
    -2
285
     1
 65
     0
276
    -2
286
     1
 66
     0
277
    -2
287
     1
 67
     0
278
    -2
288
     1
 68
     0
279
    -2
289
     1
 69
     0
  0
TABLESTYLE
  5
595
102
{ACAD_REACTORS
330
591
102
}
102
{ACAD_XDICTIONARY
360
5DE
102
}
330
591
100
AcDbTableStyle
  3
Standard1
 70
     1
 71
     0
 40
0.06
 41
0.06
280
     1
281
     1
  7
STANDARD
140
0.18
170
     1
 62
     0
 63
   257
283
     0
 90
        4
 91
        0
  1

274
    -2
284
     1
 64
     0
275
    -2
285
     1
 65
     0
276
    -2
286
     1
 66
     0
277
    -2
287
     1
 67
     0
278
    -2
288
     1
 68
     0
279
    -2
289
     1
 69
     0
  7
STANDARD
140
0.18
170
     1
 62
     0
 63
   257
283
     0
 90
        4
 91
        0
  1

274
    -2
284
     1
 64
     0
275
    -2
285
     1
 65
     0
276
    -2
286
     1
 66
     0
277
    -2
287
     1
 67
     0
278
    -2
288
     1
 68
     0
279
    -2
289
     1
 69
     0
  7
STANDARD
140
0.18
170
     1
 62
     0
 63
   257
283
     0
 90
        4
 91
        0
  1

274
    -2
284
     1
 64
     0
275
    -2
285
     1
 65
     0
276
    -2
286
     1
 66
     0
277
    -2
287
     1
 67
     0
278
    -2
288
     1
 68
     0
279
    -2
289
     1
 69
     0
  0
VISUALSTYLE
  5
5BE
102
{ACAD_REACTORS
330
5B9
102
}
330
5B9
100
AcDbVisualStyle
  2
2dWireframe
 70
     4
 71
     0
 72
     2
 73
     0
 90
        0
 40
0.6
 41
30.0
 62
     5
 63
     7
421
 16777215
 74
     1
 91
        4
 64
     7
 65
   257
 75
     1
175
     1
 42
1.0
 92
        0
 66
   257
 43
1.0
 76
     1
 77
     6
 78
     2
 67
     7
 79
     5
170
     0
171
     0
290
     0
174
     0
 93
        1
 44
0.0
173
     0
291
     0
 45
0.0
  0
VISUALSTYLE
  5
5C1
102
{ACAD_REACTORS
330
5B9
102
}
330
5B9
100
AcDbVisualStyle
  2
Basic
 70
     7
 71
     1
 72
     0
 73
     1
 90
        0
 40
0.6
 41
30.0
 62
     5
 63
     7
421
 16777215
 74
     0
 91
        4
 64
     7
 65
   257
 75
     1
175
     1
 42
1.0
 92
        8
 66
     7
 43
1.0
 76
     1
 77
     6
 78
     2
 67
     7
 79
     5
170
     0
171
     0
290
     0
174
     0
 93
        1
 44
0.0
173
     0
291
     1
 45
0.0
  0
VISUALSTYLE
  5
5C5
102
{ACAD_REACTORS
330
5B9
102
}
330
5B9
100
AcDbVisualStyle
  2
Brighten
 70
    12
 71
     2
 72
     2
 73
     0
 90
        0
 40
0.6
 41
30.0
 62
     5
 63
     7
421
 16777215
 74
     1
 91
        4
 64
     7
 65
   257
 75
     1
175
     1
 42
1.0
 92
        8
 66
     7
 43
1.0
 76
     1
 77
     6
 78
     2
 67
     7
 79
     5
170
     0
171
     0
290
     0
174
     0
 93
        1
 44
50.0
173
     0
291
     1
 45
0.0
  0
VISUALSTYLE
  5
5C9
102
{ACAD_REACTORS
330
5B9
102
}
330
5B9
100
AcDbVisualStyle
  2
ColorChange
 70
    16
 71
     2
 72
     2
 73
     3
 90
        0
 40
0.6
 41
30.0
 62
     5
 63
     8
421
  8421504
 74
     1
 91
        4
 64
     7
 65
   257
 75
     1
175
     1
 42
1.0
 92
        8
 66
     8
424
  8421504
 43
1.0
 76
     1
 77
     6
 78
     2
 67
     7
 79
     5
170
     0
171
     0
290
     0
174
     0
 93
        1
 44
0.0
173
     0
291
     1
 45
0.0
  0
VISUALSTYLE
  5
5C3
102
{ACAD_REACTORS
330
5B9
102
}
330
5B9
100
AcDbVisualStyle
  2
Conceptual
 70
     9
 71
     3
 72
     2
 73
     0
 90
        0
 40
0.6
 41
30.0
 62
     5
 63
     7
421
 16777215
 74
     2
 91
        2
 64
     7
 65
   257
 75
     1
175
     1
 42
179.0
 92
        8
 66
     7
 43
1.0
 76
     1
 77
     6
 78
     2
 67
     7
 79
     3
170
     0
171
     0
290
     0
174
     0
 93
        1
 44
0.0
173
     0
291
     0
 45
0.0
  0
VISUALSTYLE
  5
5C4
102
{ACAD_REACTORS
330
5B9
102
}
330
5B9
100
AcDbVisualStyle
  2
Dim
 70
    11
 71
     2
 72
     2
 73
     0
 90
        0
 40
0.6
 41
30.0
 62
     5
 63
     7
421
 16777215
 74
     1
 91
        4
 64
     7
 65
   257
 75
     1
175
     1
 42
1.0
 92
        8
 66
     7
 43
1.0
 76
     1
 77
     6
 78
     2
 67
     7
 79
     5
170
     0
171
     0
290
     0
174
     0
 93
        1
 44
-50.0
173
     0
291
     1
 45
0.0
  0
VISUALSTYLE
  5
5CC
102
{ACAD_REACTORS
330
5B9
102
}
330
5B9
100
AcDbVisualStyle
  2
EdgeColorOff
 70
    22
 71
     2
 72
     2
 73
     0
 90
        0
 40
0.6
 41
30.0
 62
     5
 63
     7
421
 16777215
 74
     1
 91
        4
 64
     7
 65
   257
 75
     1
175
     1
 42
1.0
 92
        8
 66
     7
 43
1.0
 76
     1
 77
     6
 78
     2
 67
     7
 79
     5
170
     0
171
     0
290
     0
174
     0
 93
        1
 44
0.0
173
     0
291
     1
 45
0.0
  0
VISUALSTYLE
  5
5C8
102
{ACAD_REACTORS
330
5B9
102
}
330
5B9
100
AcDbVisualStyle
  2
Facepattern
 70
    15
 71
     2
 72
     2
 73
     0
 90
        0
 40
0.6
 41
30.0
 62
     5
 63
     7
421
 16777215
 74
     1
 91
        4
 64
     7
 65
   257
 75
     1
175
     1
 42
1.0
 92
        8
 66
     7
 43
1.0
 76
     1
 77
     6
 78
     2
 67
     7
 79
     5
170
     0
171
     0
290
     0
174
     0
 93
        1
 44
0.0
173
     0
291
     1
 45
0.0
  0
VISUALSTYLE
  5
5BA
102
{ACAD_REACTORS
330
5B9
102
}
330
5B9
100
AcDbVisualStyle
  2
Flat
 70
     0
 71
     2
 72
     1
 73
     1
 90
        2
 40
0.6
 41
30.0
 62
     5
 63
     7
421
 16777215
 74
     0
 91
        0
 64
     7
 65
   257
 75
     1
175
     1
 42
1.0
 92
        8
 66
     7
 43
1.0
 76
     1
 77
     6
 78
     2
 67
     7
 79
     5
170
     0
171
     0
290
     0
174
     0
 93
       13
 44
0.0
173
     0
291
     1
 45
0.0
  0
VISUALSTYLE
  5
5BB
102
{ACAD_REACTORS
330
5B9
102
}
330
5B9
100
AcDbVisualStyle
  2
FlatWithEdges
 70
     1
 71
     2
 72
     1
 73
     1
 90
        2
 40
0.6
 41
30.0
 62
     5
 63
     7
421
 16777215
 74
     1
 91
        0
 64
     7
 65
   257
 75
     1
175
     1
 42
1.0
 92
        0
 66
   257
 43
1.0
 76
     1
 77
     6
 78
     2
 67
     7
 79
     5
170
     0
171
     0
290
     0
174
     0
 93
       13
 44
0.0
173
     0
291
     1
 45
0.0
  0
VISUALSTYLE
  5
5BC
102
{ACAD_REACTORS
330
5B9
102
}
330
5B9
100
AcDbVisualStyle
  2
Gouraud
 70
     2
 71
     2
 72
     2
 73
     1
 90
        2
 40
0.6
 41
30.0
 62
     5
 63
     7
421
 16777215
 74
     0
 91
        0
 64
     7
 65
   257
 75
     1
175
     1
 42
1.0
 92
        0
 66
     7
 43
1.0
 76
     1
 77
     6
 78
     2
 67
     7
 79
     5
170
     0
171
     0
290
     0
174
     0
 93
       13
 44
0.0
173
     0
291
     1
 45
0.0
  0
VISUALSTYLE
  5
5BD
102
{ACAD_REACTORS
330
5B9
102
}
330
5B9
100
AcDbVisualStyle
  2
GouraudWithEdges
 70
     3
 71
     2
 72
     2
 73
     1
 90
        2
 40
0.6
 41
30.0
 62
     5
 63
     7
421
 16777215
 74
     1
 91
        0
 64
     7
 65
   257
 75
     1
175
     1
 42
1.0
 92
        0
 66
   257
 43
1.0
 76
     1
 77
     6
 78
     2
 67
     7
 79
     5
170
     0
171
     0
290
     0
174
     0
 93
       13
 44
0.0
173
     0
291
     1
 45
0.0
  0
VISUALSTYLE
  5
5C0
102
{ACAD_REACTORS
330
5B9
102
}
330
5B9
100
AcDbVisualStyle
  2
Hidden
 70
     6
 71
     1
 72
     2
 73
     2
 90
        0
 40
0.6
 41
30.0
 62
     5
 63
     7
421
 16777215
 74
     2
 91
        2
 64
     7
 65
   257
 75
     2
175
     1
 42
40.0
 92
        0
 66
   257
 43
1.0
 76
     1
 77
     6
 78
     2
 67
     7
 79
     3
170
     0
171
     0
290
     0
174
     0
 93
        1
 44
0.0
173
     0
291
     0
 45
0.0
  0
VISUALSTYLE
  5
5CA
102
{ACAD_REACTORS
330
5B9
102
}
330
5B9
100
AcDbVisualStyle
  2
JitterOff
 70
    20
 71
     2
 72
     2
 73
     0
 90
        0
 40
0.6
 41
30.0
 62
     5
 63
     7
421
 16777215
 74
     1
 91
        4
 64
     7
 65
   257
 75
     1
175
     1
 42
1.0
 92
       10
 66
     7
 43
1.0
 76
     1
 77
     6
 78
     2
 67
     7
 79
     5
170
     0
171
     0
290
     0
174
     0
 93
        1
 44
0.0
173
     0
291
     1
 45
0.0
  0
VISUALSTYLE
  5
5C7
102
{ACAD_REACTORS
330
5B9
102
}
330
5B9
100
AcDbVisualStyle
  2
Linepattern
 70
    14
 71
     2
 72
     2
 73
     0
 90
        0
 40
0.6
 41
30.0
 62
     5
 63
     7
421
 16777215
 74
     1
 91
        4
 64
     7
 65
   257
 75
     7
175
     7
 42
1.0
 92
        8
 66
     7
 43
1.0
 76
     1
 77
     6
 78
     2
 67
     7
 79
     5
170
     0
171
     0
290
     0
174
     0
 93
        1
 44
0.0
173
     0
291
     1
 45
0.0
  0
VISUALSTYLE
  5
5CB
102
{ACAD_REACTORS
330
5B9
102
}
330
5B9
100
AcDbVisualStyle
  2
OverhangOff
 70
    21
 71
     2
 72
     2
 73
     0
 90
        0
 40
0.6
 41
30.0
 62
     5
 63
     7
421
 16777215
 74
     1
 91
        4
 64
     7
 65
   257
 75
     1
175
     1
 42
1.0
 92
        9
 66
     7
 43
1.0
 76
     1
 77
     6
 78
     2
 67
     7
 79
     5
170
     0
171
     0
290
     0
174
     0
 93
        1
 44
0.0
173
     0
291
     1
 45
0.0
  0
VISUALSTYLE
  5
5C2
102
{ACAD_REACTORS
330
5B9
102
}
330
5B9
100
AcDbVisualStyle
  2
Realistic
 70
     8
 71
     2
 72
     3
 73
     0
 90
        2
 40
0.6
 41
30.0
 62
     5
 63
     7
421
 16777215
 74
     0
 91
        0
 64
     7
 65
   257
 75
     1
175
     1
 42
1.0
 92
        8
 66
   257
 43
1.0
 76
     1
 77
     6
 78
     2
 67
     7
 79
     3
170
     0
171
     0
290
     0
174
     0
 93
       13
 44
0.0
173
     0
291
     0
 45
0.0
  0
VISUALSTYLE
  5
5D1
102
{ACAD_REACTORS
330
5B9
102
}
330
5B9
100
AcDbVisualStyle
  2
Shaded
 70
    27
 71
     2
 72
     2
 73
     1
 90
        2
 40
0.6
 41
30.0
 62
     5
 63
     7
421
 16777215
 74
     0
 91
        4
 64
     7
 65
   257
 75
     1
175
     1
 42
1.0
 92
        8
 66
   257
 43
1.0
 76
     1
 77
     6
 78
     2
 67
     8
425
  7895160
 79
     3
170
     0
171
     0
290
     0
174
     0
 93
        5
 44
0.0
173
     0
291
     0
 45
0.0
  0
VISUALSTYLE
  5
5D0
102
{ACAD_REACTORS
330
5B9
102
}
330
5B9
100
AcDbVisualStyle
  2
Shaded with edges
 70
    26
 71
     2
 72
     2
 73
     1
 90
        2
 40
0.6
 41
30.0
 62
     5
 63
     7
421
 16777215
 74
     1
 91
       10
 64
     7
 65
   257
 75
     2
175
     1
 42
1.0
 92
        8
 66
   257
 43
1.0
 76
     1
 77
     6
 78
     2
 67
     7
 79
     3
170
     0
171
     0
290
     0
174
     0
 93
        5
 44
0.0
173
     0
291
     0
 45
0.0
  0
VISUALSTYLE
  5
5CD
102
{ACAD_REACTORS
330
5B9
102
}
330
5B9
100
AcDbVisualStyle
  2
Shades of Gray
 70
    23
 71
     2
 72
     2
 73
     3
 90
        0
 40
0.6
 41
30.0
 62
     5
 63
     7
421
 16777215
 74
     2
 91
        2
 64
     7
 65
     7
 75
     1
175
     1
 42
40.0
 92
        8
 66
     7
 43
1.0
 76
     1
 77
     6
 78
     2
 67
     7
 79
     3
170
     0
171
     0
290
     0
174
     0
 93
        1
 44
0.0
173
     0
291
     0
 45
0.0
  0
VISUALSTYLE
  5
5CE
102
{ACAD_REACTORS
330
5B9
102
}
330
5B9
100
AcDbVisualStyle
  2
Sketchy
 70
    24
 71
     1
 72
     2
 73
     2
 90
        0
 40
0.6
 41
30.0
 62
     5
 63
     7
421
 16777215
 74
     2
 91
        2
 64
     7
 65
     7
 75
     1
175
     1
 42
40.0
 92
       11
 66
     7
 43
1.0
 76
     1
 77
     6
 78
     2
 67
     7
 79
     6
170
     0
171
     0
290
     0
174
     0
 93
        1
 44
0.0
173
     0
291
     0
 45
0.0
  0
VISUALSTYLE
  5
5C6
102
{ACAD_REACTORS
330
5B9
102
}
330
5B9
100
AcDbVisualStyle
  2
Thicken
 70
    13
 71
     2
 72
     2
 73
     0
 90
        0
 40
0.6
 41
30.0
 62
     5
 63
     7
421
 16777215
 74
     1
 91
        4
 64
     7
 65
   257
 75
     1
175
     1
 42
1.0
 92
       12
 66
     7
 43
1.0
 76
     1
 77
     6
 78
     2
 67
     7
 79
     5
170
     0
171
     0
290
     0
174
     0
 93
        1
 44
0.0
173
     0
291
     1
 45
0.0
  0
VISUALSTYLE
  5
5BF
102
{ACAD_REACTORS
330
5B9
102
}
330
5B9
100
AcDbVisualStyle
  2
Wireframe
 70
     5
 71
     0
 72
     2
 73
     0
 90
        0
 40
0.6
 41
30.0
 62
     5
 63
     7
421
 16777215
 74
     1
 91
        4
 64
     7
 65
   257
 75
     1
175
     1
 42
1.0
 92
        0
 66
   257
 43
1.0
 76
     1
 77
     6
 78
     2
 67
     7
 79
     3
170
     0
171
     0
290
     0
174
     0
 93
        1
 44
0.0
173
     0
291
     0
 45
0.0
  0
VISUALSTYLE
  5
5CF
102
{ACAD_REACTORS
330
5B9
102
}
330
5B9
100
AcDbVisualStyle
  2
X-Ray
 70
    25
 71
     2
 72
     2
 73
     1
 90
        1
 40
0.5
 41
30.0
 62
     5
 63
     7
421
 16777215
 74
     1
 91
        0
 64
     7
 65
   257
 75
     1
175
     1
 42
1.0
 92
        8
 66
     7
 43
1.0
 76
     1
 77
     6
 78
     2
 67
     7
 79
     3
170
     0
171
     0
290
     0
174
     0
 93
       13
 44
0.0
173
     0
291
     0
 45
0.0
  0
DICTIONARYVAR
  5
5DB
102
{ACAD_REACTORS
330
5DA
102
}
330
5DA
100
DictionaryVariables
280
     0
  1
1:1
  0
DICTIONARYVAR
  5
5E3
102
{ACAD_REACTORS
330
5DA
102
}
330
5DA
100
DictionaryVariables
280
     0
  1
Standard
  0
DICTIONARYVAR
  5
5E2
102
{ACAD_REACTORS
330
5DA
102
}
330
5DA
100
DictionaryVariables
280
     0
  1
Standard
  0
DICTIONARY
  5
5DC
330
594
100
AcDbDictionary
280
     1
281
     1
  3
ACAD_ROUNDTRIP_2008_TABLESTYLE_CELLSTYLEMAP
360
5DD
  0
DICTIONARY
  5
5DE
330
595
100
AcDbDictionary
280
     1
281
     1
  3
ACAD_ROUNDTRIP_2008_TABLESTYLE_CELLSTYLEMAP
360
5DF
  0
CELLSTYLEMAP
  5
5DD
102
{ACAD_REACTORS
330
5DC
102
}
330
5DC
100
AcDbCellStyleMap
 90
        3
300
CELLSTYLE
  1
TABLEFORMAT_BEGIN
 90
        5
170
     1
 91
        0
 92
    32768
 62
   257
 93
        1
300
CONTENTFORMAT
  1
CONTENTFORMAT_BEGIN
 90
        0
 91
        0
 92
        4
 93
        0
300

 40
0.0
140
1.0
 94
        1
 62
     0
340
11
144
0.18
309
CONTENTFORMAT_END
171
     1
301
MARGIN
  1
CELLMARGIN_BEGIN
 40
0.06
 40
0.06
 40
0.06
 40
0.06
 40
0.18
 40
0.18
309
CELLMARGIN_END
 94
        6
 95
        1
302
GRIDFORMAT
  1
GRIDFORMAT_BEGIN
 90
        0
 91
        1
 62
     0
 92
       -2
340
0
 93
        0
 40
0.045
309
GRIDFORMAT_END
 95
        2
302
GRIDFORMAT
  1
GRIDFORMAT_BEGIN
 90
        0
 91
        1
 62
     0
 92
       -2
340
0
 93
        0
 40
0.045
309
GRIDFORMAT_END
 95
        4
302
GRIDFORMAT
  1
GRIDFORMAT_BEGIN
 90
        0
 91
        1
 62
     0
 92
       -2
340
0
 93
        0
 40
0.045
309
GRIDFORMAT_END
 95
        8
302
GRIDFORMAT
  1
GRIDFORMAT_BEGIN
 90
        0
 91
        1
 62
     0
 92
       -2
340
0
 93
        0
 40
0.045
309
GRIDFORMAT_END
 95
       16
302
GRIDFORMAT
  1
GRIDFORMAT_BEGIN
 90
        0
 91
        1
 62
     0
 92
       -2
340
0
 93
        0
 40
0.045
309
GRIDFORMAT_END
 95
       32
302
GRIDFORMAT
  1
GRIDFORMAT_BEGIN
 90
        0
 91
        1
 62
     0
 92
       -2
340
0
 93
        0
 40
0.045
309
GRIDFORMAT_END
309
TABLEFORMAT_END
  1
CELLSTYLE_BEGIN
 90
        1
 91
        1
300
_TITLE
309
CELLSTYLE_END
300
CELLSTYLE
  1
TABLEFORMAT_BEGIN
 90
        5
170
     1
 91
        0
 92
        0
 62
   257
 93
        1
300
CONTENTFORMAT
  1
CONTENTFORMAT_BEGIN
 90
        0
 91
        0
 92
        4
 93
        0
300

 40
0.0
140
1.0
 94
        1
 62
     0
340
11
144
0.18
309
CONTENTFORMAT_END
171
     1
301
MARGIN
  1
CELLMARGIN_BEGIN
 40
0.06
 40
0.06
 40
0.06
 40
0.06
 40
0.18
 40
0.18
309
CELLMARGIN_END
 94
        6
 95
        1
302
GRIDFORMAT
  1
GRIDFORMAT_BEGIN
 90
        0
 91
        1
 62
     0
 92
       -2
340
0
 93
        0
 40
0.045
309
GRIDFORMAT_END
 95
        2
302
GRIDFORMAT
  1
GRIDFORMAT_BEGIN
 90
        0
 91
        1
 62
     0
 92
       -2
340
0
 93
        0
 40
0.045
309
GRIDFORMAT_END
 95
        4
302
GRIDFORMAT
  1
GRIDFORMAT_BEGIN
 90
        0
 91
        1
 62
     0
 92
       -2
340
0
 93
        0
 40
0.045
309
GRIDFORMAT_END
 95
        8
302
GRIDFORMAT
  1
GRIDFORMAT_BEGIN
 90
        0
 91
        1
 62
     0
 92
       -2
340
0
 93
        0
 40
0.045
309
GRIDFORMAT_END
 95
       16
302
GRIDFORMAT
  1
GRIDFORMAT_BEGIN
 90
        0
 91
        1
 62
     0
 92
       -2
340
0
 93
        0
 40
0.045
309
GRIDFORMAT_END
 95
       32
302
GRIDFORMAT
  1
GRIDFORMAT_BEGIN
 90
        0
 91
        1
 62
     0
 92
       -2
340
0
 93
        0
 40
0.045
309
GRIDFORMAT_END
309
TABLEFORMAT_END
  1
CELLSTYLE_BEGIN
 90
        2
 91
        1
300
_HEADER
309
CELLSTYLE_END
300
CELLSTYLE
  1
TABLEFORMAT_BEGIN
 90
        5
170
     1
 91
        0
 92
        0
 62
   257
 93
        1
300
CONTENTFORMAT
  1
CONTENTFORMAT_BEGIN
 90
        0
 91
        0
 92
        4
 93
        0
300

 40
0.0
140
1.0
 94
        1
 62
     0
340
11
144
0.18
309
CONTENTFORMAT_END
171
     1
301
MARGIN
  1
CELLMARGIN_BEGIN
 40
0.06
 40
0.06
 40
0.06
 40
0.06
 40
0.18
 40
0.18
309
CELLMARGIN_END
 94
        6
 95
        1
302
GRIDFORMAT
  1
GRIDFORMAT_BEGIN
 90
        0
 91
        1
 62
     0
 92
       -2
340
0
 93
        0
 40
0.045
309
GRIDFORMAT_END
 95
        2
302
GRIDFORMAT
  1
GRIDFORMAT_BEGIN
 90
        0
 91
        1
 62
     0
 92
       -2
340
0
 93
        0
 40
0.045
309
GRIDFORMAT_END
 95
        4
302
GRIDFORMAT
  1
GRIDFORMAT_BEGIN
 90
        0
 91
        1
 62
     0
 92
       -2
340
0
 93
        0
 40
0.045
309
GRIDFORMAT_END
 95
        8
302
GRIDFORMAT
  1
GRIDFORMAT_BEGIN
 90
        0
 91
        1
 62
     0
 92
       -2
340
0
 93
        0
 40
0.045
309
GRIDFORMAT_END
 95
       16
302
GRIDFORMAT
  1
GRIDFORMAT_BEGIN
 90
        0
 91
        1
 62
     0
 92
       -2
340
0
 93
        0
 40
0.045
309
GRIDFORMAT_END
 95
       32
302
GRIDFORMAT
  1
GRIDFORMAT_BEGIN
 90
        0
 91
        1
 62
     0
 92
       -2
340
0
 93
        0
 40
0.045
309
GRIDFORMAT_END
309
TABLEFORMAT_END
  1
CELLSTYLE_BEGIN
 90
        3
 91
        2
300
_DATA
309
CELLSTYLE_END
  0
CELLSTYLEMAP
  5
5DF
102
{ACAD_REACTORS
330
5DE
102
}
330
5DE
100
AcDbCellStyleMap
 90
        3
300
CELLSTYLE
  1
TABLEFORMAT_BEGIN
 90
        5
170
     1
 91
        0
 92
    32768
 62
   257
 93
        1
300
CONTENTFORMAT
  1
CONTENTFORMAT_BEGIN
 90
        0
 91
        0
 92
        4
 93
        0
300

 40
0.0
140
1.0
 94
        1
 62
     0
340
11
144
0.18
309
CONTENTFORMAT_END
171
     1
301
MARGIN
  1
CELLMARGIN_BEGIN
 40
0.06
 40
0.06
 40
0.06
 40
0.06
 40
0.18
 40
0.18
309
CELLMARGIN_END
 94
        6
 95
        1
302
GRIDFORMAT
  1
GRIDFORMAT_BEGIN
 90
        0
 91
        1
 62
     0
 92
       -2
340
0
 93
        0
 40
0.045
309
GRIDFORMAT_END
 95
        2
302
GRIDFORMAT
  1
GRIDFORMAT_BEGIN
 90
        0
 91
        1
 62
     0
 92
       -2
340
0
 93
        0
 40
0.045
309
GRIDFORMAT_END
 95
        4
302
GRIDFORMAT
  1
GRIDFORMAT_BEGIN
 90
        0
 91
        1
 62
     0
 92
       -2
340
0
 93
        0
 40
0.045
309
GRIDFORMAT_END
 95
        8
302
GRIDFORMAT
  1
GRIDFORMAT_BEGIN
 90
        0
 91
        1
 62
     0
 92
       -2
340
0
 93
        0
 40
0.045
309
GRIDFORMAT_END
 95
       16
302
GRIDFORMAT
  1
GRIDFORMAT_BEGIN
 90
        0
 91
        1
 62
     0
 92
       -2
340
0
 93
        0
 40
0.045
309
GRIDFORMAT_END
 95
       32
302
GRIDFORMAT
  1
GRIDFORMAT_BEGIN
 90
        0
 91
        1
 62
     0
 92
       -2
340
0
 93
        0
 40
0.045
309
GRIDFORMAT_END
309
TABLEFORMAT_END
  1
CELLSTYLE_BEGIN
 90
        1
 91
        1
300
_TITLE
309
CELLSTYLE_END
300
CELLSTYLE
  1
TABLEFORMAT_BEGIN
 90
        5
170
     1
 91
        0
 92
        0
 62
   257
 93
        1
300
CONTENTFORMAT
  1
CONTENTFORMAT_BEGIN
 90
        0
 91
        0
 92
        4
 93
        0
300

 40
0.0
140
1.0
 94
        1
 62
     0
340
11
144
0.18
309
CONTENTFORMAT_END
171
     1
301
MARGIN
  1
CELLMARGIN_BEGIN
 40
0.06
 40
0.06
 40
0.06
 40
0.06
 40
0.18
 40
0.18
309
CELLMARGIN_END
 94
        6
 95
        1
302
GRIDFORMAT
  1
GRIDFORMAT_BEGIN
 90
        0
 91
        1
 62
     0
 92
       -2
340
0
 93
        0
 40
0.045
309
GRIDFORMAT_END
 95
        2
302
GRIDFORMAT
  1
GRIDFORMAT_BEGIN
 90
        0
 91
        1
 62
     0
 92
       -2
340
0
 93
        0
 40
0.045
309
GRIDFORMAT_END
 95
        4
302
GRIDFORMAT
  1
GRIDFORMAT_BEGIN
 90
        0
 91
        1
 62
     0
 92
       -2
340
0
 93
        0
 40
0.045
309
GRIDFORMAT_END
 95
        8
302
GRIDFORMAT
  1
GRIDFORMAT_BEGIN
 90
        0
 91
        1
 62
     0
 92
       -2
340
0
 93
        0
 40
0.045
309
GRIDFORMAT_END
 95
       16
302
GRIDFORMAT
  1
GRIDFORMAT_BEGIN
 90
        0
 91
        1
 62
     0
 92
       -2
340
0
 93
        0
 40
0.045
309
GRIDFORMAT_END
 95
       32
302
GRIDFORMAT
  1
GRIDFORMAT_BEGIN
 90
        0
 91
        1
 62
     0
 92
       -2
340
0
 93
        0
 40
0.045
309
GRIDFORMAT_END
309
TABLEFORMAT_END
  1
CELLSTYLE_BEGIN
 90
        2
 91
        1
300
_HEADER
309
CELLSTYLE_END
300
CELLSTYLE
  1
TABLEFORMAT_BEGIN
 90
        5
170
     1
 91
        0
 92
        0
 62
   257
 93
        1
300
CONTENTFORMAT
  1
CONTENTFORMAT_BEGIN
 90
        0
 91
        0
 92
        4
 93
        0
300

 40
0.0
140
1.0
 94
        1
 62
     0
340
11
144
0.18
309
CONTENTFORMAT_END
171
     1
301
MARGIN
  1
CELLMARGIN_BEGIN
 40
0.06
 40
0.06
 40
0.06
 40
0.06
 40
0.18
 40
0.18
309
CELLMARGIN_END
 94
        6
 95
        1
302
GRIDFORMAT
  1
GRIDFORMAT_BEGIN
 90
        0
 91
        1
 62
     0
 92
       -2
340
0
 93
        0
 40
0.045
309
GRIDFORMAT_END
 95
        2
302
GRIDFORMAT
  1
GRIDFORMAT_BEGIN
 90
        0
 91
        1
 62
     0
 92
       -2
340
0
 93
        0
 40
0.045
309
GRIDFORMAT_END
 95
        4
302
GRIDFORMAT
  1
GRIDFORMAT_BEGIN
 90
        0
 91
        1
 62
     0
 92
       -2
340
0
 93
        0
 40
0.045
309
GRIDFORMAT_END
 95
        8
302
GRIDFORMAT
  1
GRIDFORMAT_BEGIN
 90
        0
 91
        1
 62
     0
 92
       -2
340
0
 93
        0
 40
0.045
309
GRIDFORMAT_END
 95
       16
302
GRIDFORMAT
  1
GRIDFORMAT_BEGIN
 90
        0
 91
        1
 62
     0
 92
       -2
340
0
 93
        0
 40
0.045
309
GRIDFORMAT_END
 95
       32
302
GRIDFORMAT
  1
GRIDFORMAT_BEGIN
 90
        0
 91
        1
 62
     0
 92
       -2
340
0
 93
        0
 40
0.045
309
GRIDFORMAT_END
309
TABLEFORMAT_END
  1
CELLSTYLE_BEGIN
 90
        3
 91
        2
300
_DATA
309
CELLSTYLE_END
  0
ENDSEC
  0
EOF
